  0
SECTION
  2
HEADER
  9
$ACADVER
  1
AC1018
  9
$ACADMAINTVER
 70
   104
  9
$DWGCODEPAGE
  3
ANSI_1252
  9
$LASTSAVEDBY
  1
EARL
  9
$INSBASE
 10
0.0
 20
0.0
 30
0.0
  9
$EXTMIN
 10
-2.876654709728176
 20
-0.0905387794968437
 30
0.0
  9
$EXTMAX
 10
1.704122781968654
 20
1.443145991122089
 30
0.0
  9
$LIMMIN
 10
0.0
 20
0.0
  9
$LIMMAX
 10
0.0
 20
0.0
  9
$ORTHOMODE
 70
     1
  9
$REGENMODE
 70
     1
  9
$FILLMODE
 70
     1
  9
$QTEXTMODE
 70
     0
  9
$MIRRTEXT
 70
     1
  9
$LTSCALE
 40
1.0
  9
$ATTMODE
 70
     1
  9
$TEXTSIZE
 40
0.0
  9
$TRACEWID
 40
0.05
  9
$TEXTSTYLE
  7
Standard
  9
$CLAYER
  8
0
  9
$CELTYPE
  6
Continuous
  9
$CECOLOR
 62
   256
  9
$CELTSCALE
 40
1.0
  9
$DISPSILH
 70
     0
  9
$DIMSCALE
 40
1.0
  9
$DIMASZ
 40
0.18
  9
$DIMEXO
 40
0.0625
  9
$DIMDLI
 40
0.38
  9
$DIMRND
 40
0.0
  9
$DIMDLE
 40
0.0
  9
$DIMEXE
 40
0.18
  9
$DIMTP
 40
0.0
  9
$DIMTM
 40
0.0
  9
$DIMTXT
 40
0.18
  9
$DIMCEN
 40
0.09
  9
$DIMTSZ
 40
0.0
  9
$DIMTOL
 70
     0
  9
$DIMLIM
 70
     0
  9
$DIMTIH
 70
     1
  9
$DIMTOH
 70
     1
  9
$DIMSE1
 70
     0
  9
$DIMSE2
 70
     0
  9
$DIMTAD
 70
     0
  9
$DIMZIN
 70
     0
  9
$DIMBLK
  1

  9
$DIMASO
 70
     1
  9
$DIMSHO
 70
     1
  9
$DIMPOST
  1

  9
$DIMAPOST
  1

  9
$DIMALT
 70
     0
  9
$DIMALTD
 70
     2
  9
$DIMALTF
 40
25.4
  9
$DIMLFAC
 40
1.0
  9
$DIMTOFL
 70
     0
  9
$DIMTVP
 40
0.0
  9
$DIMTIX
 70
     0
  9
$DIMSOXD
 70
     0
  9
$DIMSAH
 70
     0
  9
$DIMBLK1
  1

  9
$DIMBLK2
  1

  9
$DIMSTYLE
  2
Standard
  9
$DIMCLRD
 70
     0
  9
$DIMCLRE
 70
     0
  9
$DIMCLRT
 70
     0
  9
$DIMTFAC
 40
1.0
  9
$DIMGAP
 40
0.09
  9
$DIMJUST
 70
     0
  9
$DIMSD1
 70
     0
  9
$DIMSD2
 70
     0
  9
$DIMTOLJ
 70
     1
  9
$DIMTZIN
 70
     0
  9
$DIMALTZ
 70
     0
  9
$DIMALTTZ
 70
     0
  9
$DIMUPT
 70
     0
  9
$DIMDEC
 70
     4
  9
$DIMTDEC
 70
     4
  9
$DIMALTU
 70
     2
  9
$DIMALTTD
 70
     2
  9
$DIMTXSTY
  7
Standard
  9
$DIMAUNIT
 70
     0
  9
$DIMADEC
 70
     0
  9
$DIMALTRND
 40
0.0
  9
$DIMAZIN
 70
     0
  9
$DIMDSEP
 70
    46
  9
$DIMATFIT
 70
     0
  9
$DIMFRAC
 70
     0
  9
$DIMLDRBLK
  1

  9
$DIMLUNIT
 70
     2
  9
$DIMLWD
 70
    -2
  9
$DIMLWE
 70
    -2
  9
$DIMTMOVE
 70
     0
  9
$LUNITS
 70
     2
  9
$LUPREC
 70
     4
  9
$SKETCHINC
 40
0.1
  9
$FILLETRAD
 40
0.0
  9
$AUNITS
 70
     0
  9
$AUPREC
 70
     0
  9
$MENU
  1
acad
  9
$ELEVATION
 40
0.0
  9
$PELEVATION
 40
0.0
  9
$THICKNESS
 40
0.0
  9
$LIMCHECK
 70
     0
  9
$CHAMFERA
 40
0.0
  9
$CHAMFERB
 40
0.0
  9
$CHAMFERC
 40
0.0
  9
$CHAMFERD
 40
0.0
  9
$SKPOLY
 70
     0
  9
$TDCREATE
 40
2454843.461319445
  9
$TDUCREATE
 40
2454843.627986111
  9
$TDUPDATE
 40
2455105.046946250
  9
$TDUUPDATE
 40
2455105.213612917
  9
$TDINDWG
 40
0.0010569907
  9
$TDUSRTIMER
 40
0.0010569907
  9
$USRTIMER
 70
     1
  9
$ANGBASE
 50
0.0
  9
$ANGDIR
 70
     0
  9
$PDMODE
 70
     0
  9
$PDSIZE
 40
0.0
  9
$PLINEWID
 40
0.0
  9
$SPLFRAME
 70
     0
  9
$SPLINETYPE
 70
     6
  9
$SPLINESEGS
 70
     8
  9
$HANDSEED
  5
34B
  9
$SURFTAB1
 70
     6
  9
$SURFTAB2
 70
     6
  9
$SURFTYPE
 70
     6
  9
$SURFU
 70
     6
  9
$SURFV
 70
     6
  9
$UCSBASE
  2

  9
$UCSNAME
  2

  9
$UCSORG
 10
0.0
 20
0.0
 30
0.0
  9
$UCSXDIR
 10
1.0
 20
0.0
 30
0.0
  9
$UCSYDIR
 10
0.0
 20
1.0
 30
0.0
  9
$UCSORTHOREF
  2

  9
$UCSORTHOVIEW
 70
     0
  9
$UCSORGTOP
 10
0.0
 20
0.0
 30
0.0
  9
$UCSORGBOTTOM
 10
0.0
 20
0.0
 30
0.0
  9
$UCSORGLEFT
 10
0.0
 20
0.0
 30
0.0
  9
$UCSORGRIGHT
 10
0.0
 20
0.0
 30
0.0
  9
$UCSORGFRONT
 10
0.0
 20
0.0
 30
0.0
  9
$UCSORGBACK
 10
0.0
 20
0.0
 30
0.0
  9
$PUCSBASE
  2

  9
$PUCSNAME
  2

  9
$PUCSORG
 10
0.0
 20
0.0
 30
0.0
  9
$PUCSXDIR
 10
1.0
 20
0.0
 30
0.0
  9
$PUCSYDIR
 10
0.0
 20
1.0
 30
0.0
  9
$PUCSORTHOREF
  2

  9
$PUCSORTHOVIEW
 70
     0
  9
$PUCSORGTOP
 10
0.0
 20
0.0
 30
0.0
  9
$PUCSORGBOTTOM
 10
0.0
 20
0.0
 30
0.0
  9
$PUCSORGLEFT
 10
0.0
 20
0.0
 30
0.0
  9
$PUCSORGRIGHT
 10
0.0
 20
0.0
 30
0.0
  9
$PUCSORGFRONT
 10
0.0
 20
0.0
 30
0.0
  9
$PUCSORGBACK
 10
0.0
 20
0.0
 30
0.0
  9
$USERI1
 70
     0
  9
$USERI2
 70
     0
  9
$USERI3
 70
     0
  9
$USERI4
 70
     0
  9
$USERI5
 70
     0
  9
$USERR1
 40
0.0
  9
$USERR2
 40
0.0
  9
$USERR3
 40
0.0
  9
$USERR4
 40
0.0
  9
$USERR5
 40
0.0
  9
$WORLDVIEW
 70
     1
  9
$SHADEDGE
 70
     3
  9
$SHADEDIF
 70
    70
  9
$TILEMODE
 70
     0
  9
$MAXACTVP
 70
    16
  9
$PINSBASE
 10
0.0
 20
0.0
 30
0.0
  9
$PLIMCHECK
 70
     0
  9
$PEXTMIN
 10
0.0333458901492989
 20
0.0100667243341697
 30
-0.0015258207003583
  9
$PEXTMAX
 10
10.34072932953005
 20
8.015599864135822
 30
0.0000000349246037
  9
$PLIMMIN
 10
-0.3306119115190196
 20
-0.2812499079328949
  9
$PLIMMAX
 10
10.66938784818509
 20
8.218749851771214
  9
$UNITMODE
 70
     0
  9
$VISRETAIN
 70
     0
  9
$PLINEGEN
 70
     1
  9
$PSLTSCALE
 70
     0
  9
$TREEDEPTH
 70
  3020
  9
$CMLSTYLE
  2
Standard
  9
$CMLJUST
 70
     0
  9
$CMLSCALE
 40
1.0
  9
$PROXYGRAPHICS
 70
     0
  9
$MEASUREMENT
 70
     0
  9
$CELWEIGHT
370
     0
  9
$ENDCAPS
280
     0
  9
$JOINSTYLE
280
     0
  9
$LWDISPLAY
290
     0
  9
$INSUNITS
 70
     0
  9
$HYPERLINKBASE
  1

  9
$STYLESHEET
  1

  9
$XEDIT
290
     1
  9
$CEPSNTYPE
380
     0
  9
$PSTYLEMODE
290
     1
  9
$FINGERPRINTGUID
  2

  9
$VERSIONGUID
  2
{35352C60-10E4-412E-A370-269EC97DEDB5}
  9
$EXTNAMES
290
     1
  9
$PSVPSCALE
 40
0.0
  9
$OLESTARTUP
290
     0
  9
$SORTENTS
280
   127
  9
$INDEXCTL
280
     0
  9
$HIDETEXT
280
     0
  9
$XCLIPFRAME
290
     0
  9
$HALOGAP
280
     0
  9
$OBSCOLOR
 70
   257
  9
$OBSLTYPE
280
     0
  9
$INTERSECTIONDISPLAY
280
     0
  9
$INTERSECTIONCOLOR
 70
   257
  9
$DIMASSOC
280
     1
  9
$PROJECTNAME
  1

  0
ENDSEC
  0
SECTION
  2
CLASSES
  0
CLASS
  1
IMAGE
  2
AcDbRasterImage
  3
ISM
 90
     2175
 91
        0
280
     0
281
     1
  0
CLASS
  1
DICTIONARYVAR
  2
AcDbDictionaryVar
  3
ObjectDBX Classes
 90
        0
 91
        5
280
     0
281
     0
  0
CLASS
  1
RASTERVARIABLES
  2
AcDbRasterVariables
  3
ISM
 90
        0
 91
        0
280
     0
281
     0
  0
CLASS
  1
IMAGEDEF
  2
AcDbRasterImageDef
  3
ISM
 90
        0
 91
        0
280
     0
281
     0
  0
CLASS
  1
IMAGEDEF_REACTOR
  2
AcDbRasterImageDefReactor
  3
ISM
 90
        1
 91
        0
280
     0
281
     0
  0
CLASS
  1
IDBUFFER
  2
AcDbIdBuffer
  3
ObjectDBX Classes
 90
        0
 91
        0
280
     0
281
     0
  0
CLASS
  1
SPATIAL_FILTER
  2
AcDbSpatialFilter
  3
ObjectDBX Classes
 90
        0
 91
        0
280
     0
281
     0
  0
CLASS
  1
SORTENTSTABLE
  2
AcDbSortentsTable
  3
ObjectDBX Classes
 90
        0
 91
        1
280
     0
281
     0
  0
CLASS
  1
LAYER_INDEX
  2
AcDbLayerIndex
  3
ObjectDBX Classes
 90
        0
 91
        0
280
     0
281
     0
  0
CLASS
  1
SPATIAL_INDEX
  2
AcDbSpatialIndex
  3
ObjectDBX Classes
 90
        0
 91
        0
280
     0
281
     0
  0
CLASS
  1
OBJECT_PTR
  2
CAseDLPNTableRecord
  3
ASE-LPNTableRecord
 90
        1
 91
        0
280
     0
281
     0
  0
CLASS
  1
PLOTSETTINGS
  2
AcDbPlotSettings
  3
ObjectDBX Classes
 90
        0
 91
        0
280
     0
281
     0
  0
CLASS
  1
ACDBDICTIONARYWDFLT
  2
AcDbDictionaryWithDefault
  3
ObjectDBX Classes
 90
        0
 91
        1
280
     0
281
     0
  0
CLASS
  1
WIPEOUT
  2
AcDbWipeout
  3
"WipeOut|Product Desc: Object Enabler for WipeOut entity                        |Company: Autodesk, Inc.                        |WEB Address: www.autodesk.com"
 90
     2175
 91
        0
280
     0
281
     1
  0
CLASS
  1
WIPEOUTVARIABLES
  2
AcDbWipeoutVariables
  3
"WipeOut|Product Desc:     WipeOut Dbx Application|Company:          Autodesk, Inc.|WEB Address:      www.autodesk.com"
 90
        0
 91
        1
280
     0
281
     0
  0
CLASS
  1
RTEXT
  2
RText
  3
RText|AutoCAD Express Tool|expresstools@autodesk.com
 90
     3071
 91
        0
280
     0
281
     1
  0
CLASS
  1
ARCALIGNEDTEXT
  2
AcDbArcAlignedText
  3
ATEXT|AutoCAD Express Tool|expresstools@autodesk.com
 90
        0
 91
        0
280
     0
281
     1
  0
CLASS
  1
MATERIAL
  2
AcDbMaterial
  3
ObjectDBX Classes
 90
     1153
 91
        3
280
     0
281
     0
  0
CLASS
  1
VISUALSTYLE
  2
AcDbVisualStyle
  3
ObjectDBX Classes
 90
     4095
 91
       16
280
     0
281
     0
  0
CLASS
  1
TABLESTYLE
  2
AcDbTableStyle
  3
ObjectDBX Classes
 90
     4095
 91
        1
280
     0
281
     0
  0
CLASS
  1
SCALE
  2
AcDbScale
  3
ObjectDBX Classes
 90
     1153
 91
       33
280
     0
281
     0
  0
CLASS
  1
MLEADERSTYLE
  2
AcDbMLeaderStyle
  3
ACDB_MLEADERSTYLE_CLASS
 90
     4095
 91
        1
280
     0
281
     0
  0
CLASS
  1
CELLSTYLEMAP
  2
AcDbCellStyleMap
  3
ObjectDBX Classes
 90
     1152
 91
        2
280
     0
281
     0
  0
ENDSEC
  0
SECTION
  2
TABLES
  0
TABLE
  2
VPORT
  5
7
330
0
100
AcDbSymbolTable
 70
     1
  0
VPORT
  5
15
330
7
100
AcDbSymbolTableRecord
100
AcDbViewportTableRecord
  2
*ACTIVE
 70
     0
 10
0.0
 20
0.0
 11
1.0
 21
1.0
 12
13.89621157632295
 22
4.579183999999999
 13
0.0
 23
0.0
 14
1.0
 24
1.0
 15
0.0
 25
0.0
 16
0.0
 26
0.0
 36
1.0
 17
0.0
 27
0.0
 37
0.0
 40
9.158369
 41
2.283809523809523
 42
50.0
 43
0.0
 44
0.0
 50
0.0
 51
0.0
 71
     0
 72
   100
 73
     1
 74
     1
 75
     0
 76
     0
 77
     0
 78
     0
281
     0
 65
     0
110
0.0
120
0.0
130
0.0
111
1.0
121
0.0
131
0.0
112
0.0
122
1.0
132
0.0
 79
     0
146
0.0
  0
ENDTAB
  0
TABLE
  2
LTYPE
  5
4
330
0
100
AcDbSymbolTable
 70
     5
  0
LTYPE
  5
11
330
4
100
AcDbSymbolTableRecord
100
AcDbLinetypeTableRecord
  2
ByBlock
 70
     0
  3

 72
    65
 73
     0
 40
0.0
  0
LTYPE
  5
12
330
4
100
AcDbSymbolTableRecord
100
AcDbLinetypeTableRecord
  2
ByLayer
 70
     0
  3

 72
    65
 73
     0
 40
0.0
  0
LTYPE
  5
13
330
4
100
AcDbSymbolTableRecord
100
AcDbLinetypeTableRecord
  2
Continuous
 70
     0
  3
Solid line
 72
    65
 73
     0
 40
0.0
  0
LTYPE
  5
24
330
4
100
AcDbSymbolTableRecord
100
AcDbLinetypeTableRecord
  2
solid
 70
     0
  3

 72
    65
 73
     0
 40
0.0
  0
LTYPE
  5
25
330
4
100
AcDbSymbolTableRecord
100
AcDbLinetypeTableRecord
  2
dashed
 70
     0
  3

 72
    65
 73
     0
 40
0.0
  0
LTYPE
  5
26
330
4
100
AcDbSymbolTableRecord
100
AcDbLinetypeTableRecord
  2
center
 70
     0
  3

 72
    65
 73
     0
 40
0.0
  0
ENDTAB
  0
TABLE
  2
LAYER
  5
2
330
0
100
AcDbSymbolTable
 70
     3
  0
LAYER
  5
14
102
{ACAD_XDICTIONARY
360
309
102
}
330
2
100
AcDbSymbolTableRecord
100
AcDbLayerTableRecord
  2
0
 70
     0
 62
     7
  6
Continuous
370
    -3
390
1D
  0
LAYER
  5
27
102
{ACAD_XDICTIONARY
360
30B
102
}
330
2
100
AcDbSymbolTableRecord
100
AcDbLayerTableRecord
  2
1
 70
     0
 62
     1
  6
solid
370
    -3
390
1D
  0
LAYER
  5
29E
102
{ACAD_XDICTIONARY
360
30D
102
}
330
2
100
AcDbSymbolTableRecord
100
AcDbLayerTableRecord
  2
0
 70
     0
 62
     1
  6
solid
370
    -3
390
1D
  0
ENDTAB
  0
TABLE
  2
STYLE
  5
3
330
0
100
AcDbSymbolTable
 70
     2
  0
STYLE
  5
17
330
3
100
AcDbSymbolTableRecord
100
AcDbTextStyleTableRecord
  2
Standard
 70
     0
 40
0.0
 41
1.0
 50
0.0
 71
     0
 42
0.0
  3
txt
  4

  0
ENDTAB
  0
TABLE
  2
VIEW
  5
5
330
0
100
AcDbSymbolTable
 70
     0
  0
ENDTAB
  0
TABLE
  2
UCS
  5
6
330
0
100
AcDbSymbolTable
 70
     0
  0
ENDTAB
  0
TABLE
  2
APPID
  5
8
330
0
100
AcDbSymbolTable
 70
     4
  0
APPID
  5
16
330
8
100
AcDbSymbolTableRecord
100
AcDbRegAppTableRecord
  2
ACAD
 70
     0
  0
APPID
  5
2D4
330
8
100
AcDbSymbolTableRecord
100
AcDbRegAppTableRecord
  2
ACAD_PSEXT
 70
     0
  0
APPID
  5
2D9
330
8
100
AcDbSymbolTableRecord
100
AcDbRegAppTableRecord
  2
DCO15
 70
     0
  0
APPID
  5
302
330
8
100
AcDbSymbolTableRecord
100
AcDbRegAppTableRecord
  2
ACAD_MLEADERVER
 70
     0
  0
ENDTAB
  0
TABLE
  2
DIMSTYLE
  5
9
330
0
100
AcDbSymbolTable
 70
     3
100
AcDbDimStyleTable
 71
     1
340
18
  0
DIMSTYLE
105
18
330
9
100
AcDbSymbolTableRecord
100
AcDbDimStyleTableRecord
  2
Standard
 70
     0
289
     0
340
17
  0
ENDTAB
  0
TABLE
  2
BLOCK_RECORD
  5
1
330
0
100
AcDbSymbolTable
 70
     4
  0
BLOCK_RECORD
  5
A
102
{ACAD_XDICTIONARY
360
31E
102
}
330
1
100
AcDbSymbolTableRecord
100
AcDbBlockTableRecord
  2
*MODEL_SPACE
340
20
  0
BLOCK_RECORD
  5
B
330
1
100
AcDbSymbolTableRecord
100
AcDbBlockTableRecord
  2
*PAPER_SPACE
340
21
  0
BLOCK_RECORD
  5
2A0
330
1
100
AcDbSymbolTableRecord
100
AcDbBlockTableRecord
  2
*D0
340
0
  0
BLOCK_RECORD
  5
2AB
330
1
100
AcDbSymbolTableRecord
100
AcDbBlockTableRecord
  2
*D1
340
0
  0
ENDTAB
  0
ENDSEC
  0
SECTION
  2
BLOCKS
  0
BLOCK
  5
D
330
A
100
AcDbEntity
  8
0
100
AcDbBlockBegin
  2
*MODEL_SPACE
 70
     0
 10
0.0
 20
0.0
 30
0.0
  3
*MODEL_SPACE
  1

  0
ENDBLK
  5
E
330
A
100
AcDbEntity
  8
0
100
AcDbBlockEnd
  0
BLOCK
  5
F
330
B
100
AcDbEntity
 67
     1
  8
0
100
AcDbBlockBegin
  2
*PAPER_SPACE
 70
     0
 10
0.0
 20
0.0
 30
0.0
  3
*PAPER_SPACE
  1

  0
ENDBLK
  5
10
330
B
100
AcDbEntity
 67
     1
  8
0
100
AcDbBlockEnd
  0
BLOCK
  5
2A1
330
2A0
100
AcDbEntity
  8
0
  6
solid
 62
     7
100
AcDbBlockBegin
  2
*D0
 70
     0
 10
0.0
 20
0.0
 30
0.0
  3
*D0
  1

  0
LINE
  5
2A2
330
2A0
100
AcDbEntity
  8
0
  6
solid
 62
     7
100
AcDbLine
 10
-1.786678075790405
 20
0.4676195681095125
 30
0.0
 11
-2.53302554306151
 21
0.4676195681095132
 31
0.0
  0
LINE
  5
2A3
330
2A0
100
AcDbEntity
  8
0
  6
solid
 62
     7
100
AcDbLine
 10
-1.06226372718811
 20
1.229286551475524
 30
0.0
 11
-2.53302554306151
 21
1.229286551475526
 31
0.0
  0
LINE
  5
2A4
330
2A0
100
AcDbEntity
  8
0
  6
solid
 62
     7
100
AcDbLine
 10
-2.47052554306151
 20
0.4676195681095131
 30
0.0
 11
-2.47052554306151
 21
0.8484530597925196
 31
0.0
  0
LINE
  5
2A5
330
2A0
100
AcDbEntity
  8
0
  6
solid
 62
     7
100
AcDbLine
 10
-2.47052554306151
 20
1.229286551475526
 30
0.0
 11
-2.47052554306151
 21
0.8484530597925196
 31
0.0
  0
MTEXT
  5
2A6
330
2A0
100
AcDbEntity
  8
0
  6
solid
 62
     7
100
AcDbMText
 10
-2.70998804306151
 20
0.8484530597925195
 30
0.0
 40
0.125
 41
0.0
 71
     5
 72
     1
  1
{\H0.125000;3/4}
 73
     1
 44
1.0
  0
SOLID
  5
2A7
330
2A0
100
AcDbEntity
  8
0
  6
solid
 62
     7
100
AcDbTrace
 10
-2.49134054306151
 20
0.5926195681095132
 30
0.0
 11
-2.44971054306151
 21
0.5926195681095131
 31
0.0
 12
-2.47052554306151
 22
0.4676195681095131
 32
0.0
 13
-2.47052554306151
 23
0.4676195681095131
 33
0.0
  0
SOLID
  5
2A8
330
2A0
100
AcDbEntity
  8
0
  6
solid
 62
     7
100
AcDbTrace
 10
-2.44971054306151
 20
1.104286551475526
 30
0.0
 11
-2.49134054306151
 21
1.104286551475526
 31
0.0
 12
-2.47052554306151
 22
1.229286551475526
 32
0.0
 13
-2.47052554306151
 23
1.229286551475526
 33
0.0
  0
ENDBLK
  5
2A9
330
2A0
100
AcDbEntity
  8
0
  6
solid
 62
     7
100
AcDbBlockEnd
  0
BLOCK
  5
2AC
330
2AB
100
AcDbEntity
  8
0
  6
solid
 62
     7
100
AcDbBlockBegin
  2
*D1
 70
     0
 10
0.0
 20
0.0
 30
0.0
  3
*D1
  1

  0
LINE
  5
2AD
330
2AB
100
AcDbEntity
  8
0
  6
solid
 62
     7
100
AcDbLine
 10
-2.246486186981201
 20
0.8631377220153808
 30
0.0
 11
-2.246486186981201
 21
0.1371754705697039
 31
0.0
  0
LINE
  5
2AE
330
2AB
100
AcDbEntity
  8
0
  6
solid
 62
     7
100
AcDbLine
 10
-0.6013619303703308
 20
0.7683847546577454
 30
0.0
 11
-0.6013619303703308
 21
0.1371754705697039
 31
0.0
  0
LINE
  5
2AF
330
2AB
100
AcDbEntity
  8
0
  6
solid
 62
     7
100
AcDbLine
 10
-2.246486186981201
 20
0.1996754705697039
 30
0.0
 11
-1.423924058675765
 21
0.1996754705697039
 31
0.0
  0
LINE
  5
2B0
330
2AB
100
AcDbEntity
  8
0
  6
solid
 62
     7
100
AcDbLine
 10
-0.6013619303703308
 20
0.1996754705697039
 30
0.0
 11
-1.423924058675765
 21
0.1996754705697039
 31
0.0
  0
MTEXT
  5
2B1
330
2AB
100
AcDbEntity
  8
0
  6
solid
 62
     7
100
AcDbMText
 10
-1.423924058675765
 20
0.30326056672355
 30
0.0
 40
0.125
 41
0.0
 71
     5
 72
     1
  1
{\H0.125000;1 5/8}
 73
     1
 44
1.0
  0
SOLID
  5
2B2
330
2AB
100
AcDbEntity
  8
0
  6
solid
 62
     7
100
AcDbTrace
 10
-2.121486186981201
 20
0.2204904705697039
 30
0.0
 11
-2.121486186981201
 21
0.1788604705697038
 31
0.0
 12
-2.246486186981201
 22
0.1996754705697039
 32
0.0
 13
-2.246486186981201
 23
0.1996754705697039
 33
0.0
  0
SOLID
  5
2B3
330
2AB
100
AcDbEntity
  8
0
  6
solid
 62
     7
100
AcDbTrace
 10
-0.7263619303703308
 20
0.1788604705697039
 30
0.0
 11
-0.7263619303703308
 21
0.2204904705697039
 31
0.0
 12
-0.6013619303703308
 22
0.1996754705697039
 32
0.0
 13
-0.6013619303703308
 23
0.1996754705697039
 33
0.0
  0
ENDBLK
  5
2B4
330
2AB
100
AcDbEntity
  8
0
  6
solid
 62
     7
100
AcDbBlockEnd
  0
ENDSEC
  0
SECTION
  2
ENTITIES
  0
LINE
  5
28
330
A
100
AcDbEntity
  8
1
  6
solid
 62
     7
100
AcDbLine
 10
0.3000751879699247
 20
0.1026315789
 30
0.0
 11
1.184172932330826
 21
0.1026315789
 31
0.0
  0
LINE
  5
29
330
A
100
AcDbEntity
  8
1
  6
solid
 62
     7
100
AcDbLine
 10
1.184172987937927
 20
0.102631576359272
 30
0.0
 11
1.419790296052631
 21
0.3123466870300752
 31
0.0
  0
LINE
  5
2A
330
A
100
AcDbEntity
  8
1
  6
solid
 62
     7
100
AcDbLine
 10
1.4197902679
 20
0.3123466968536377
 30
0.0
 11
1.4197902679
 21
0.6948445806288182
 31
0.0
  0
LINE
  5
2B
330
A
100
AcDbEntity
  8
1
  6
solid
 62
     7
100
AcDbLine
 10
1.4197902679
 20
0.6948445806
 30
0.0
 11
1.704122781968654
 21
0.6948445806
 31
0.0
  0
ARC
  5
2C
330
A
100
AcDbEntity
  8
1
  6
solid
 62
     7
100
AcDbCircle
 10
0.3532210832653124
 20
0.6334928304847712
 30
0.0
 40
1.352294139244571
100
AcDbArc
 50
2.600325310468456
 51
11.82336982083523
  0
ARC
  5
2D
330
A
100
AcDbEntity
  8
1
  6
solid
 62
     7
100
AcDbCircle
 10
1.341024971438795
 20
0.9022970812258879
 30
0.0
 40
0.3359017662638356
100
AcDbArc
 50
1.411538053570238
 51
173.0954612211021
  0
LINE
  5
2E
330
A
100
AcDbEntity
  8
1
  6
solid
 62
     7
100
AcDbLine
 10
1.007559180259704
 20
0.9426776766777038
 30
0.0
 11
0.9248831376183012
 21
0.9059899670347839
 31
0.0
  0
LINE
  5
2F
330
A
100
AcDbEntity
  8
1
  6
solid
 62
     7
100
AcDbLine
 10
0.9248831272125244
 20
0.9059899449348449
 30
0.0
 11
0.925813333719445
 21
0.5930719986099972
 31
0.0
  0
ARC
  5
30
330
A
100
AcDbEntity
  8
1
  6
solid
 62
     7
100
AcDbCircle
 10
0.4339739098060793
 20
0.6954383410985031
 30
0.0
 40
0.5023792104904934
100
AcDbArc
 50
333.7548756885488
 51
348.2428984803606
  0
ARC
  5
31
330
A
100
AcDbEntity
  8
1
  6
solid
 62
     7
100
AcDbCircle
 10
0.7990952719908044
 20
0.5086567642037786
 30
0.0
 40
0.0924999994648571
100
AcDbArc
 50
230.8754814259905
 51
337.5144108763285
  0
ARC
  5
32
330
A
100
AcDbEntity
  8
1
  6
solid
 62
     7
100
AcDbCircle
 10
0.5948368907536893
 20
0.2349626770849113
 30
0.0
 40
0.2044407379702069
100
AcDbArc
 50
124.7567123285929
 51
163.5660606756163
  0
ARC
  5
33
330
A
100
AcDbEntity
  8
1
  6
solid
 62
     7
100
AcDbCircle
 10
0.0722332552790508
 20
0.4611697021878307
 30
0.0
 40
0.3673691377901259
100
AcDbArc
 50
315.7935245469693
 51
332.7219231209161
  0
ARC
  5
34
330
A
100
AcDbEntity
  8
1
  6
solid
 62
     7
100
AcDbCircle
 10
0.4141471303351569
 20
0.1204316481115792
 30
0.0
 40
0.1154523881018702
100
AcDbArc
 50
132.8872289598862
 51
188.8690524671761
  0
ARC
  5
35
330
A
100
AcDbEntity
  8
1
  6
solid
 62
     7
100
AcDbCircle
 10
0.7623126186000471
 20
1.107316086819162
 30
0.0
 40
0.3359017662638356
100
AcDbArc
 50
91.49575129005397
 51
173.0954612211021
  0
LINE
  5
36
330
A
100
AcDbEntity
  8
1
  6
solid
 62
     7
100
AcDbLine
 10
0.4288468274209566
 20
1.147696682270978
 30
0.0
 11
0.3461707847795532
 21
1.111008972628058
 31
0.0
  0
LINE
  5
37
330
A
100
AcDbEntity
  8
1
  6
solid
 62
     7
100
AcDbLine
 10
0.3461707743737763
 20
1.111008950528119
 30
0.0
 11
0.3471009808806971
 21
0.7980910042032721
 31
0.0
  0
ARC
  5
38
330
A
100
AcDbEntity
  8
1
  6
solid
 62
     7
100
AcDbCircle
 10
-0.1447384430326689
 20
0.9004573466917779
 30
0.0
 40
0.5023792104904934
100
AcDbArc
 50
333.7548756885488
 51
348.2428984803606
  0
ARC
  5
39
330
A
100
AcDbEntity
  8
1
  6
solid
 62
     7
100
AcDbCircle
 10
0.2203829191520562
 20
0.7136757697970535
 30
0.0
 40
0.0924999994648571
100
AcDbArc
 50
273.589966945622
 51
337.5144108763285
  0
ARC
  5
3A
330
A
100
AcDbEntity
  8
1
  6
solid
 62
     7
100
AcDbCircle
 10
0.0535180424852283
 20
0.4493788724542625
 30
0.0
 40
0.2210028308497861
100
AcDbArc
 50
75.33734761264624
 51
134.152381352813
  0
ARC
  5
3B
330
A
100
AcDbEntity
  8
1
  6
solid
 62
     7
100
AcDbCircle
 10
0.0161245379149411
 20
0.4399816826781862
 30
0.0
 40
0.2044407379702069
100
AcDbArc
 50
124.7567123285929
 51
163.5660606756163
  0
ARC
  5
3C
330
A
100
AcDbEntity
  8
1
  6
solid
 62
     7
100
AcDbCircle
 10
-0.5064790975596974
 20
0.6661887077811056
 30
0.0
 40
0.3673691377901259
100
AcDbArc
 50
315.7935245469693
 51
332.7219231209161
  0
ARC
  5
3D
330
A
100
AcDbEntity
  8
1
  6
solid
 62
     7
100
AcDbCircle
 10
-0.1645652225035912
 20
0.3254506537048541
 30
0.0
 40
0.1154523881018702
100
AcDbArc
 50
132.8872289598862
 51
188.8690524671761
  0
LINE
  5
3E
330
A
100
AcDbEntity
  8
1
  6
solid
 62
     7
100
AcDbLine
 10
0.3000751733779907
 20
0.102631576359272
 30
0.0
 11
-0.278637170791626
 21
0.3076505959033966
 31
0.0
  0
LINE
  5
3F
330
A
100
AcDbEntity
  8
1
  6
solid
 62
     7
100
AcDbLine
 10
0.9248831272125244
 20
0.9059899449348449
 30
0.0
 11
0.3461707830429077
 21
1.111009001731872
 31
0.0
  0
LINE
  5
40
330
A
100
AcDbEntity
  8
1
  6
solid
 62
     7
100
AcDbLine
 10
1.007559180259704
 20
0.9426776766777038
 30
0.0
 11
0.4288468360900879
 21
1.147696733474731
 31
0.0
  0
LINE
  5
41
330
A
100
AcDbEntity
  8
1
  6
solid
 62
     7
100
AcDbLine
 10
0.7970608840822015
 20
1.436487294520143
 30
0.0
 11
1.39100246703035
 21
1.234460063079014
 31
0.0
  0
ARC
  5
42
330
A
100
AcDbEntity
  8
1
  6
solid
 62
     7
100
AcDbCircle
 10
0.7568074878273537
 20
1.318145991122089
 30
0.0
 40
0.125
100
AcDbArc
 50
71.21443607620065
 51
91.49575129005397
  0
ARC
  5
43
330
A
100
AcDbEntity
  8
1
  6
solid
 62
     7
100
AcDbCircle
 10
0.6322304015560062
 20
0.2443598752618796
 30
0.0
 40
0.2210028308497861
100
AcDbArc
 50
60.59834770375187
 51
134.152381352813
  0
LINE
  5
44
330
A
100
AcDbEntity
  8
1
  6
solid
 62
     7
100
AcDbLine
 10
0.1094599142670631
 20
0.6631842851638794
 30
0.0
 11
0.6710571531317047
 21
0.4619253472598467
 31
0.0
  0
LINE
  5
45
330
A
100
AcDbEntity
  8
1
  6
solid
 62
     7
100
AcDbLine
 10
1.016687790266494
 20
0.7817907997409637
 30
0.0
 11
1.016687790266494
 21
0.7939602708948099
 31
0.0
  0
LINE
  5
46
330
A
100
AcDbEntity
  8
1
  6
solid
 62
     7
100
AcDbLine
 10
1.016687790266494
 20
0.7939602708948099
 30
0.0
 11
1.025511319678259
 21
0.7939602708948099
 31
0.0
  0
LINE
  5
47
330
A
100
AcDbEntity
  8
1
  6
solid
 62
     7
100
AcDbLine
 10
1.025511319678259
 20
0.7939602708948099
 30
0.0
 11
1.025511319678259
 21
0.8633713285871175
 31
0.0
  0
LINE
  5
48
330
A
100
AcDbEntity
  8
1
  6
solid
 62
     7
100
AcDbLine
 10
1.025511319678259
 20
0.8633713285871175
 30
0.0
 11
1.016687790266494
 21
0.8633713285871175
 31
0.0
  0
LINE
  5
49
330
A
100
AcDbEntity
  8
1
  6
solid
 62
     7
100
AcDbLine
 10
1.016687790266494
 20
0.8633713285871175
 30
0.0
 11
1.016687790266494
 21
0.8755407997409637
 31
0.0
  0
LINE
  5
4A
330
A
100
AcDbEntity
  8
1
  6
solid
 62
     7
100
AcDbLine
 10
1.016687790266494
 20
0.8755407997409637
 30
0.0
 11
1.043526025560612
 21
0.8755407997409637
 31
0.0
  0
LINE
  5
4B
330
A
100
AcDbEntity
  8
1
  6
solid
 62
     7
100
AcDbLine
 10
1.043526025560612
 20
0.8755407997409637
 30
0.0
 11
1.043526025560612
 21
0.8633713285871175
 31
0.0
  0
LINE
  5
4C
330
A
100
AcDbEntity
  8
1
  6
solid
 62
     7
100
AcDbLine
 10
1.043526025560612
 20
0.8633713285871175
 30
0.0
 11
1.035805437325317
 21
0.8633713285871175
 31
0.0
  0
LINE
  5
4D
330
A
100
AcDbEntity
  8
1
  6
solid
 62
     7
100
AcDbLine
 10
1.035805437325317
 20
0.8633713285871175
 30
0.0
 11
1.035805437325317
 21
0.7939602708948099
 31
0.0
  0
LINE
  5
4E
330
A
100
AcDbEntity
  8
1
  6
solid
 62
     7
100
AcDbLine
 10
1.035805437325317
 20
0.7939602708948099
 30
0.0
 11
1.054739260854729
 21
0.7939602708948099
 31
0.0
  0
LINE
  5
4F
330
A
100
AcDbEntity
  8
1
  6
solid
 62
     7
100
AcDbLine
 10
1.054739260854729
 20
0.7939602708948099
 30
0.0
 11
1.054739260854729
 21
0.8110876747409637
 31
0.0
  0
LINE
  5
50
330
A
100
AcDbEntity
  8
1
  6
solid
 62
     7
100
AcDbLine
 10
1.054739260854729
 20
0.8110876747409637
 30
0.0
 11
1.063562790266494
 21
0.8110876747409637
 31
0.0
  0
LINE
  5
51
330
A
100
AcDbEntity
  8
1
  6
solid
 62
     7
100
AcDbLine
 10
1.063562790266494
 20
0.8110876747409637
 30
0.0
 11
1.063562790266494
 21
0.7817907997409637
 31
0.0
  0
LINE
  5
52
330
A
100
AcDbEntity
  8
1
  6
solid
 62
     7
100
AcDbLine
 10
1.063562790266494
 20
0.7817907997409637
 30
0.0
 11
1.016687790266494
 21
0.7817907997409637
 31
0.0
  0
LINE
  5
53
330
A
100
AcDbEntity
  8
1
  6
solid
 62
     7
100
AcDbLine
 10
1.072937790266494
 20
0.7817907997409637
 30
0.0
 11
1.093526025560612
 21
0.7817907997409637
 31
0.0
  0
LINE
  5
54
330
A
100
AcDbEntity
  8
1
  6
solid
 62
     7
100
AcDbLine
 10
1.093526025560612
 20
0.7817907997409637
 30
0.0
 11
1.097937790266494
 21
0.7826922420486559
 31
0.0
  0
LINE
  5
55
330
A
100
AcDbEntity
  8
1
  6
solid
 62
     7
100
AcDbLine
 10
1.097937790266494
 20
0.7826922420486559
 30
0.0
 11
1.103084849090023
 21
0.7844951266640406
 31
0.0
  0
LINE
  5
56
330
A
100
AcDbEntity
  8
1
  6
solid
 62
     7
100
AcDbLine
 10
1.103084849090023
 20
0.7844951266640406
 30
0.0
 11
1.106761319678259
 21
0.7871994535871175
 31
0.0
  0
LINE
  5
57
330
A
100
AcDbEntity
  8
1
  6
solid
 62
     7
100
AcDbLine
 10
1.106761319678259
 20
0.7871994535871175
 30
0.0
 11
1.109886319678259
 21
0.791255943971733
 31
0.0
  0
LINE
  5
58
330
A
100
AcDbEntity
  8
1
  6
solid
 62
     7
100
AcDbLine
 10
1.109886319678259
 20
0.791255943971733
 30
0.0
 11
1.113011319678259
 21
0.7962138766640406
 31
0.0
  0
LINE
  5
59
330
A
100
AcDbEntity
  8
1
  6
solid
 62
     7
100
AcDbLine
 10
1.113011319678259
 20
0.7962138766640406
 30
0.0
 11
1.115768672619435
 21
0.8020732516640405
 31
0.0
  0
LINE
  5
5A
330
A
100
AcDbEntity
  8
1
  6
solid
 62
     7
100
AcDbLine
 10
1.115768672619435
 20
0.8020732516640405
 30
0.0
 11
1.117423084384141
 21
0.8074819055101944
 31
0.0
  0
LINE
  5
5B
330
A
100
AcDbEntity
  8
1
  6
solid
 62
     7
100
AcDbLine
 10
1.117423084384141
 20
0.8074819055101944
 30
0.0
 11
1.118709849090023
 21
0.8142427228178867
 31
0.0
  0
LINE
  5
5C
330
A
100
AcDbEntity
  8
1
  6
solid
 62
     7
100
AcDbLine
 10
1.118709849090023
 20
0.8142427228178867
 30
0.0
 11
1.119812790266494
 21
0.8237078670486559
 31
0.0
  0
LINE
  5
5D
330
A
100
AcDbEntity
  8
1
  6
solid
 62
     7
100
AcDbLine
 10
1.119812790266494
 20
0.8237078670486559
 30
0.0
 11
1.119812790266494
 21
0.8336237324332714
 31
0.0
  0
LINE
  5
5E
330
A
100
AcDbEntity
  8
1
  6
solid
 62
     7
100
AcDbLine
 10
1.119812790266494
 20
0.8336237324332714
 30
0.0
 11
1.118709849090023
 21
0.8430888766640405
 31
0.0
  0
LINE
  5
5F
330
A
100
AcDbEntity
  8
1
  6
solid
 62
     7
100
AcDbLine
 10
1.118709849090023
 20
0.8430888766640405
 30
0.0
 11
1.117423084384141
 21
0.8498496939717329
 31
0.0
  0
LINE
  5
60
330
A
100
AcDbEntity
  8
1
  6
solid
 62
     7
100
AcDbLine
 10
1.117423084384141
 20
0.8498496939717329
 30
0.0
 11
1.115768672619435
 21
0.8552583478178867
 31
0.0
  0
LINE
  5
61
330
A
100
AcDbEntity
  8
1
  6
solid
 62
     7
100
AcDbLine
 10
1.115768672619435
 20
0.8552583478178867
 30
0.0
 11
1.113562790266494
 21
0.8597655593563482
 31
0.0
  0
LINE
  5
62
330
A
100
AcDbEntity
  8
1
  6
solid
 62
     7
100
AcDbLine
 10
1.113562790266494
 20
0.8597655593563482
 30
0.0
 11
1.110989260854729
 21
0.8647234920486559
 31
0.0
  0
LINE
  5
63
330
A
100
AcDbEntity
  8
1
  6
solid
 62
     7
100
AcDbLine
 10
1.110989260854729
 20
0.8647234920486559
 30
0.0
 11
1.107864260854729
 21
0.8687799824332714
 31
0.0
  0
LINE
  5
64
330
A
100
AcDbEntity
  8
1
  6
solid
 62
     7
100
AcDbLine
 10
1.107864260854729
 20
0.8687799824332714
 30
0.0
 11
1.104371613795906
 21
0.8719350305101944
 31
0.0
  0
LINE
  5
65
330
A
100
AcDbEntity
  8
1
  6
solid
 62
     7
100
AcDbLine
 10
1.104371613795906
 20
0.8719350305101944
 30
0.0
 11
1.10069514320767
 21
0.8741886362794252
 31
0.0
  0
LINE
  5
66
330
A
100
AcDbEntity
  8
1
  6
solid
 62
     7
100
AcDbLine
 10
1.10069514320767
 20
0.8741886362794252
 30
0.0
 11
1.093893672619435
 21
0.8755407997409637
 31
0.0
  0
LINE
  5
67
330
A
100
AcDbEntity
  8
1
  6
solid
 62
     7
100
AcDbLine
 10
1.093893672619435
 20
0.8755407997409637
 30
0.0
 11
1.072937790266494
 21
0.8755407997409637
 31
0.0
  0
LINE
  5
68
330
A
100
AcDbEntity
  8
1
  6
solid
 62
     7
100
AcDbLine
 10
1.072937790266494
 20
0.8755407997409637
 30
0.0
 11
1.072937790266494
 21
0.8633713285871175
 31
0.0
  0
LINE
  5
69
330
A
100
AcDbEntity
  8
1
  6
solid
 62
     7
100
AcDbLine
 10
1.072937790266494
 20
0.8633713285871175
 30
0.0
 11
1.07882014320767
 21
0.8633713285871175
 31
0.0
  0
LINE
  5
6A
330
A
100
AcDbEntity
  8
1
  6
solid
 62
     7
100
AcDbLine
 10
1.07882014320767
 20
0.8633713285871175
 30
0.0
 11
1.07882014320767
 21
0.7939602708948099
 31
0.0
  0
LINE
  5
6B
330
A
100
AcDbEntity
  8
1
  6
solid
 62
     7
100
AcDbLine
 10
1.07882014320767
 20
0.7939602708948099
 30
0.0
 11
1.072937790266494
 21
0.7939602708948099
 31
0.0
  0
LINE
  5
6C
330
A
100
AcDbEntity
  8
1
  6
solid
 62
     7
100
AcDbLine
 10
1.072937790266494
 20
0.7939602708948099
 30
0.0
 11
1.072937790266494
 21
0.7817907997409637
 31
0.0
  0
LINE
  5
6D
330
A
100
AcDbEntity
  8
1
  6
solid
 62
     7
100
AcDbLine
 10
1.085989260854729
 20
0.7939602708948099
 30
0.0
 11
1.093526025560612
 21
0.7939602708948099
 31
0.0
  0
LINE
  5
6E
330
A
100
AcDbEntity
  8
1
  6
solid
 62
     7
100
AcDbLine
 10
1.093526025560612
 20
0.7939602708948099
 30
0.0
 11
1.097937790266494
 21
0.7948617132025021
 31
0.0
  0
LINE
  5
6F
330
A
100
AcDbEntity
  8
1
  6
solid
 62
     7
100
AcDbLine
 10
1.097937790266494
 20
0.7948617132025021
 30
0.0
 11
1.101062790266494
 21
0.7962138766640406
 31
0.0
  0
LINE
  5
70
330
A
100
AcDbEntity
  8
1
  6
solid
 62
     7
100
AcDbLine
 10
1.101062790266494
 20
0.7962138766640406
 30
0.0
 11
1.104003966737082
 21
0.7989182035871175
 31
0.0
  0
LINE
  5
71
330
A
100
AcDbEntity
  8
1
  6
solid
 62
     7
100
AcDbLine
 10
1.104003966737082
 20
0.7989182035871175
 30
0.0
 11
1.107128966737082
 21
0.8029746939717329
 31
0.0
  0
LINE
  5
72
330
A
100
AcDbEntity
  8
1
  6
solid
 62
     7
100
AcDbLine
 10
1.107128966737082
 20
0.8029746939717329
 30
0.0
 11
1.109886319678259
 21
0.8097355112794252
 31
0.0
  0
LINE
  5
73
330
A
100
AcDbEntity
  8
1
  6
solid
 62
     7
100
AcDbLine
 10
1.109886319678259
 20
0.8097355112794252
 30
0.0
 11
1.111540731442965
 21
0.8164963285871175
 31
0.0
  0
LINE
  5
74
330
A
100
AcDbEntity
  8
1
  6
solid
 62
     7
100
AcDbLine
 10
1.111540731442965
 20
0.8164963285871175
 30
0.0
 11
1.112276025560611
 21
0.8205528189717329
 31
0.0
  0
LINE
  5
75
330
A
100
AcDbEntity
  8
1
  6
solid
 62
     7
100
AcDbLine
 10
1.112276025560611
 20
0.8205528189717329
 30
0.0
 11
1.112643672619435
 21
0.8264121939717329
 31
0.0
  0
LINE
  5
76
330
A
100
AcDbEntity
  8
1
  6
solid
 62
     7
100
AcDbLine
 10
1.112643672619435
 20
0.8264121939717329
 30
0.0
 11
1.112643672619435
 21
0.8313701266640405
 31
0.0
  0
LINE
  5
77
330
A
100
AcDbEntity
  8
1
  6
solid
 62
     7
100
AcDbLine
 10
1.112643672619435
 20
0.8313701266640405
 30
0.0
 11
1.112276025560611
 21
0.8367787805101944
 31
0.0
  0
LINE
  5
78
330
A
100
AcDbEntity
  8
1
  6
solid
 62
     7
100
AcDbLine
 10
1.112276025560611
 20
0.8367787805101944
 30
0.0
 11
1.111173084384141
 21
0.8430888766640405
 31
0.0
  0
LINE
  5
79
330
A
100
AcDbEntity
  8
1
  6
solid
 62
     7
100
AcDbLine
 10
1.111173084384141
 20
0.8430888766640405
 30
0.0
 11
1.110253966737082
 21
0.8471453670486559
 31
0.0
  0
LINE
  5
7A
330
A
100
AcDbEntity
  8
1
  6
solid
 62
     7
100
AcDbLine
 10
1.110253966737082
 20
0.8471453670486559
 30
0.0
 11
1.108231907913553
 21
0.8516525785871175
 31
0.0
  0
LINE
  5
7B
330
A
100
AcDbEntity
  8
1
  6
solid
 62
     7
100
AcDbLine
 10
1.108231907913553
 20
0.8516525785871175
 30
0.0
 11
1.106209849090023
 21
0.8557090689717329
 31
0.0
  0
LINE
  5
7C
330
A
100
AcDbEntity
  8
1
  6
solid
 62
     7
100
AcDbLine
 10
1.106209849090023
 20
0.8557090689717329
 30
0.0
 11
1.103452496148847
 21
0.859314838202502
 31
0.0
  0
LINE
  5
7D
330
A
100
AcDbEntity
  8
1
  6
solid
 62
     7
100
AcDbLine
 10
1.103452496148847
 20
0.859314838202502
 30
0.0
 11
1.10069514320767
 21
0.8611177228178867
 31
0.0
  0
LINE
  5
7E
330
A
100
AcDbEntity
  8
1
  6
solid
 62
     7
100
AcDbLine
 10
1.10069514320767
 20
0.8611177228178867
 30
0.0
 11
1.097937790266494
 21
0.8624698862794252
 31
0.0
  0
LINE
  5
7F
330
A
100
AcDbEntity
  8
1
  6
solid
 62
     7
100
AcDbLine
 10
1.097937790266494
 20
0.8624698862794252
 30
0.0
 11
1.093893672619435
 21
0.8633713285871175
 31
0.0
  0
LINE
  5
80
330
A
100
AcDbEntity
  8
1
  6
solid
 62
     7
100
AcDbLine
 10
1.093893672619435
 20
0.8633713285871175
 30
0.0
 11
1.085989260854729
 21
0.8633713285871175
 31
0.0
  0
LINE
  5
81
330
A
100
AcDbEntity
  8
1
  6
solid
 62
     7
100
AcDbLine
 10
1.085989260854729
 20
0.8633713285871175
 30
0.0
 11
1.085989260854729
 21
0.7939602708948099
 31
0.0
  0
LINE
  5
82
330
A
100
AcDbEntity
  8
1
  6
solid
 62
     7
100
AcDbLine
 10
1.151981907913553
 20
0.8755407997409637
 30
0.0
 11
1.13194514320767
 21
0.8304686843563482
 31
0.0
  0
LINE
  5
83
330
A
100
AcDbEntity
  8
1
  6
solid
 62
     7
100
AcDbLine
 10
1.13194514320767
 20
0.8304686843563482
 30
0.0
 11
1.130658378501788
 21
0.8250600305101944
 31
0.0
  0
LINE
  5
84
330
A
100
AcDbEntity
  8
1
  6
solid
 62
     7
100
AcDbLine
 10
1.130658378501788
 20
0.8250600305101944
 30
0.0
 11
1.129739260854729
 21
0.818299213202502
 31
0.0
  0
LINE
  5
85
330
A
100
AcDbEntity
  8
1
  6
solid
 62
     7
100
AcDbLine
 10
1.129739260854729
 20
0.818299213202502
 30
0.0
 11
1.129187790266494
 21
0.8137920016640405
 31
0.0
  0
LINE
  5
86
330
A
100
AcDbEntity
  8
1
  6
solid
 62
     7
100
AcDbLine
 10
1.129187790266494
 20
0.8137920016640405
 30
0.0
 11
1.130106907913553
 21
0.8079326266640405
 31
0.0
  0
LINE
  5
87
330
A
100
AcDbEntity
  8
1
  6
solid
 62
     7
100
AcDbLine
 10
1.130106907913553
 20
0.8079326266640405
 30
0.0
 11
1.131577496148847
 21
0.8016225305101944
 31
0.0
  0
LINE
  5
88
330
A
100
AcDbEntity
  8
1
  6
solid
 62
     7
100
AcDbLine
 10
1.131577496148847
 20
0.8016225305101944
 30
0.0
 11
1.133415731442964
 21
0.7962138766640406
 31
0.0
  0
LINE
  5
89
330
A
100
AcDbEntity
  8
1
  6
solid
 62
     7
100
AcDbLine
 10
1.133415731442964
 20
0.7962138766640406
 30
0.0
 11
1.136173084384141
 21
0.7917066651255791
 31
0.0
  0
LINE
  5
8A
330
A
100
AcDbEntity
  8
1
  6
solid
 62
     7
100
AcDbLine
 10
1.136173084384141
 20
0.7917066651255791
 30
0.0
 11
1.138930437325317
 21
0.7885516170486559
 31
0.0
  0
LINE
  5
8B
330
A
100
AcDbEntity
  8
1
  6
solid
 62
     7
100
AcDbLine
 10
1.138930437325317
 20
0.7885516170486559
 30
0.0
 11
1.141687790266494
 21
0.7858472901255791
 31
0.0
  0
LINE
  5
8C
330
A
100
AcDbEntity
  8
1
  6
solid
 62
     7
100
AcDbLine
 10
1.141687790266494
 20
0.7858472901255791
 30
0.0
 11
1.144996613795906
 21
0.7835936843563483
 31
0.0
  0
LINE
  5
8D
330
A
100
AcDbEntity
  8
1
  6
solid
 62
     7
100
AcDbLine
 10
1.144996613795906
 20
0.7835936843563483
 30
0.0
 11
1.148305437325317
 21
0.7822415208948099
 31
0.0
  0
LINE
  5
8E
330
A
100
AcDbEntity
  8
1
  6
solid
 62
     7
100
AcDbLine
 10
1.148305437325317
 20
0.7822415208948099
 30
0.0
 11
1.151430437325317
 21
0.7817907997409637
 31
0.0
  0
LINE
  5
8F
330
A
100
AcDbEntity
  8
1
  6
solid
 62
     7
100
AcDbLine
 10
1.151430437325317
 20
0.7817907997409637
 30
0.0
 11
1.154187790266494
 21
0.7817907997409637
 31
0.0
  0
LINE
  5
90
330
A
100
AcDbEntity
  8
1
  6
solid
 62
     7
100
AcDbLine
 10
1.154187790266494
 20
0.7817907997409637
 30
0.0
 11
1.157496613795906
 21
0.7822415208948099
 31
0.0
  0
LINE
  5
91
330
A
100
AcDbEntity
  8
1
  6
solid
 62
     7
100
AcDbLine
 10
1.157496613795906
 20
0.7822415208948099
 30
0.0
 11
1.161173084384141
 21
0.7844951266640406
 31
0.0
  0
LINE
  5
92
330
A
100
AcDbEntity
  8
1
  6
solid
 62
     7
100
AcDbLine
 10
1.161173084384141
 20
0.7844951266640406
 30
0.0
 11
1.165768672619435
 21
0.7876501747409637
 31
0.0
  0
LINE
  5
93
330
A
100
AcDbEntity
  8
1
  6
solid
 62
     7
100
AcDbLine
 10
1.165768672619435
 20
0.7876501747409637
 30
0.0
 11
1.169628966737082
 21
0.7926081074332715
 31
0.0
  0
LINE
  5
94
330
A
100
AcDbEntity
  8
1
  6
solid
 62
     7
100
AcDbLine
 10
1.169628966737082
 20
0.7926081074332715
 30
0.0
 11
1.172753966737082
 21
0.7984674824332715
 31
0.0
  0
LINE
  5
95
330
A
100
AcDbEntity
  8
1
  6
solid
 62
     7
100
AcDbLine
 10
1.172753966737082
 20
0.7984674824332715
 30
0.0
 11
1.1745922020312
 21
0.8038761362794252
 31
0.0
  0
LINE
  5
96
330
A
100
AcDbEntity
  8
1
  6
solid
 62
     7
100
AcDbLine
 10
1.1745922020312
 20
0.8038761362794252
 30
0.0
 11
1.175511319678259
 21
0.8088340689717329
 31
0.0
  0
LINE
  5
97
330
A
100
AcDbEntity
  8
1
  6
solid
 62
     7
100
AcDbLine
 10
1.175511319678259
 20
0.8088340689717329
 30
0.0
 11
1.176062790266494
 21
0.8128905593563482
 31
0.0
  0
LINE
  5
98
330
A
100
AcDbEntity
  8
1
  6
solid
 62
     7
100
AcDbLine
 10
1.176062790266494
 20
0.8128905593563482
 30
0.0
 11
1.176062790266494
 21
0.8178484920486559
 31
0.0
  0
LINE
  5
99
330
A
100
AcDbEntity
  8
1
  6
solid
 62
     7
100
AcDbLine
 10
1.176062790266494
 20
0.8178484920486559
 30
0.0
 11
1.1745922020312
 21
0.8255107516640405
 31
0.0
  0
LINE
  5
9A
330
A
100
AcDbEntity
  8
1
  6
solid
 62
     7
100
AcDbLine
 10
1.1745922020312
 20
0.8255107516640405
 30
0.0
 11
1.172753966737082
 21
0.8322715689717329
 31
0.0
  0
LINE
  5
9B
330
A
100
AcDbEntity
  8
1
  6
solid
 62
     7
100
AcDbLine
 10
1.172753966737082
 20
0.8322715689717329
 30
0.0
 11
1.169628966737082
 21
0.8381309439717329
 31
0.0
  0
LINE
  5
9C
330
A
100
AcDbEntity
  8
1
  6
solid
 62
     7
100
AcDbLine
 10
1.169628966737082
 20
0.8381309439717329
 30
0.0
 11
1.16632014320767
 21
0.8421874343563482
 31
0.0
  0
LINE
  5
9D
330
A
100
AcDbEntity
  8
1
  6
solid
 62
     7
100
AcDbLine
 10
1.16632014320767
 20
0.8421874343563482
 30
0.0
 11
1.162643672619435
 21
0.8448917612794252
 31
0.0
  0
LINE
  5
9E
330
A
100
AcDbEntity
  8
1
  6
solid
 62
     7
100
AcDbLine
 10
1.162643672619435
 20
0.8448917612794252
 30
0.0
 11
1.159886319678259
 21
0.8471453670486559
 31
0.0
  0
LINE
  5
9F
330
A
100
AcDbEntity
  8
1
  6
solid
 62
     7
100
AcDbLine
 10
1.159886319678259
 20
0.8471453670486559
 30
0.0
 11
1.15694514320767
 21
0.847596088202502
 31
0.0
  0
LINE
  5
A0
330
A
100
AcDbEntity
  8
1
  6
solid
 62
     7
100
AcDbLine
 10
1.15694514320767
 20
0.847596088202502
 30
0.0
 11
1.153268672619435
 21
0.8484975305101944
 31
0.0
  0
LINE
  5
A1
330
A
100
AcDbEntity
  8
1
  6
solid
 62
     7
100
AcDbLine
 10
1.153268672619435
 20
0.8484975305101944
 30
0.0
 11
1.150511319678259
 21
0.8484975305101944
 31
0.0
  0
LINE
  5
A2
330
A
100
AcDbEntity
  8
1
  6
solid
 62
     7
100
AcDbLine
 10
1.150511319678259
 20
0.8484975305101944
 30
0.0
 11
1.149224554972376
 21
0.847596088202502
 31
0.0
  0
LINE
  5
A3
330
A
100
AcDbEntity
  8
1
  6
solid
 62
     7
100
AcDbLine
 10
1.149224554972376
 20
0.847596088202502
 30
0.0
 11
1.161724554972376
 21
0.8755407997409637
 31
0.0
  0
LINE
  5
A4
330
A
100
AcDbEntity
  8
1
  6
solid
 62
     7
100
AcDbLine
 10
1.161724554972376
 20
0.8755407997409637
 30
0.0
 11
1.151981907913553
 21
0.8755407997409637
 31
0.0
  0
LINE
  5
A5
330
A
100
AcDbEntity
  8
1
  6
solid
 62
     7
100
AcDbLine
 10
1.167790731442964
 20
0.8178484920486559
 30
0.0
 11
1.167239260854729
 21
0.8223557035871175
 31
0.0
  0
LINE
  5
A6
330
A
100
AcDbEntity
  8
1
  6
solid
 62
     7
100
AcDbLine
 10
1.167239260854729
 20
0.8223557035871175
 30
0.0
 11
1.165768672619435
 21
0.8264121939717329
 31
0.0
  0
LINE
  5
A7
330
A
100
AcDbEntity
  8
1
  6
solid
 62
     7
100
AcDbLine
 10
1.165768672619435
 20
0.8264121939717329
 30
0.0
 11
1.164481907913553
 21
0.8291165208948097
 31
0.0
  0
LINE
  5
A8
330
A
100
AcDbEntity
  8
1
  6
solid
 62
     7
100
AcDbLine
 10
1.164481907913553
 20
0.8291165208948097
 30
0.0
 11
1.162643672619435
 21
0.8318208478178867
 31
0.0
  0
LINE
  5
A9
330
A
100
AcDbEntity
  8
1
  6
solid
 62
     7
100
AcDbLine
 10
1.162643672619435
 20
0.8318208478178867
 30
0.0
 11
1.159886319678259
 21
0.8345251747409637
 31
0.0
  0
LINE
  5
AA
330
A
100
AcDbEntity
  8
1
  6
solid
 62
     7
100
AcDbLine
 10
1.159886319678259
 20
0.8345251747409637
 30
0.0
 11
1.156577496148847
 21
0.8363280593563482
 31
0.0
  0
LINE
  5
AB
330
A
100
AcDbEntity
  8
1
  6
solid
 62
     7
100
AcDbLine
 10
1.156577496148847
 20
0.8363280593563482
 30
0.0
 11
1.153268672619435
 21
0.8367787805101944
 31
0.0
  0
LINE
  5
AC
330
A
100
AcDbEntity
  8
1
  6
solid
 62
     7
100
AcDbLine
 10
1.153268672619435
 20
0.8367787805101944
 30
0.0
 11
1.151062790266494
 21
0.8367787805101944
 31
0.0
  0
LINE
  5
AD
330
A
100
AcDbEntity
  8
1
  6
solid
 62
     7
100
AcDbLine
 10
1.151062790266494
 20
0.8367787805101944
 30
0.0
 11
1.147202496148847
 21
0.8354266170486559
 31
0.0
  0
LINE
  5
AE
330
A
100
AcDbEntity
  8
1
  6
solid
 62
     7
100
AcDbLine
 10
1.147202496148847
 20
0.8354266170486559
 30
0.0
 11
1.144077496148847
 21
0.8336237324332714
 31
0.0
  0
LINE
  5
AF
330
A
100
AcDbEntity
  8
1
  6
solid
 62
     7
100
AcDbLine
 10
1.144077496148847
 20
0.8336237324332714
 30
0.0
 11
1.141687790266494
 21
0.8304686843563482
 31
0.0
  0
LINE
  5
B0
330
A
100
AcDbEntity
  8
1
  6
solid
 62
     7
100
AcDbLine
 10
1.141687790266494
 20
0.8304686843563482
 30
0.0
 11
1.139849554972376
 21
0.826862915125579
 31
0.0
  0
LINE
  5
B1
330
A
100
AcDbEntity
  8
1
  6
solid
 62
     7
100
AcDbLine
 10
1.139849554972376
 20
0.826862915125579
 30
0.0
 11
1.138378966737082
 21
0.8228064247409637
 31
0.0
  0
LINE
  5
B2
330
A
100
AcDbEntity
  8
1
  6
solid
 62
     7
100
AcDbLine
 10
1.138378966737082
 20
0.8228064247409637
 30
0.0
 11
1.137459849090023
 21
0.818299213202502
 31
0.0
  0
LINE
  5
B3
330
A
100
AcDbEntity
  8
1
  6
solid
 62
     7
100
AcDbLine
 10
1.137459849090023
 20
0.818299213202502
 30
0.0
 11
1.137459849090023
 21
0.8128905593563482
 31
0.0
  0
LINE
  5
B4
330
A
100
AcDbEntity
  8
1
  6
solid
 62
     7
100
AcDbLine
 10
1.137459849090023
 20
0.8128905593563482
 30
0.0
 11
1.138378966737082
 21
0.8079326266640405
 31
0.0
  0
LINE
  5
B5
330
A
100
AcDbEntity
  8
1
  6
solid
 62
     7
100
AcDbLine
 10
1.138378966737082
 20
0.8079326266640405
 30
0.0
 11
1.139849554972376
 21
0.8029746939717329
 31
0.0
  0
LINE
  5
B6
330
A
100
AcDbEntity
  8
1
  6
solid
 62
     7
100
AcDbLine
 10
1.139849554972376
 20
0.8029746939717329
 30
0.0
 11
1.142606907913553
 21
0.7989182035871175
 31
0.0
  0
LINE
  5
B7
330
A
100
AcDbEntity
  8
1
  6
solid
 62
     7
100
AcDbLine
 10
1.142606907913553
 20
0.7989182035871175
 30
0.0
 11
1.145364260854729
 21
0.7957631555101944
 31
0.0
  0
LINE
  5
B8
330
A
100
AcDbEntity
  8
1
  6
solid
 62
     7
100
AcDbLine
 10
1.145364260854729
 20
0.7957631555101944
 30
0.0
 11
1.147753966737082
 21
0.7944109920486559
 31
0.0
  0
LINE
  5
B9
330
A
100
AcDbEntity
  8
1
  6
solid
 62
     7
100
AcDbLine
 10
1.147753966737082
 20
0.7944109920486559
 30
0.0
 11
1.151430437325317
 21
0.7930588285871175
 31
0.0
  0
LINE
  5
BA
330
A
100
AcDbEntity
  8
1
  6
solid
 62
     7
100
AcDbLine
 10
1.151430437325317
 20
0.7930588285871175
 30
0.0
 11
1.15382014320767
 21
0.7930588285871175
 31
0.0
  0
LINE
  5
BB
330
A
100
AcDbEntity
  8
1
  6
solid
 62
     7
100
AcDbLine
 10
1.15382014320767
 20
0.7930588285871175
 30
0.0
 11
1.157496613795906
 21
0.7944109920486559
 31
0.0
  0
LINE
  5
BC
330
A
100
AcDbEntity
  8
1
  6
solid
 62
     7
100
AcDbLine
 10
1.157496613795906
 20
0.7944109920486559
 30
0.0
 11
1.160805437325317
 21
0.7962138766640406
 31
0.0
  0
LINE
  5
BD
330
A
100
AcDbEntity
  8
1
  6
solid
 62
     7
100
AcDbLine
 10
1.160805437325317
 20
0.7962138766640406
 30
0.0
 11
1.163562790266494
 21
0.7998196458948099
 31
0.0
  0
LINE
  5
BE
330
A
100
AcDbEntity
  8
1
  6
solid
 62
     7
100
AcDbLine
 10
1.163562790266494
 20
0.7998196458948099
 30
0.0
 11
1.165768672619435
 21
0.8038761362794252
 31
0.0
  0
LINE
  5
BF
330
A
100
AcDbEntity
  8
1
  6
solid
 62
     7
100
AcDbLine
 10
1.165768672619435
 20
0.8038761362794252
 30
0.0
 11
1.167239260854729
 21
0.8083833478178867
 31
0.0
  0
LINE
  5
C0
330
A
100
AcDbEntity
  8
1
  6
solid
 62
     7
100
AcDbLine
 10
1.167239260854729
 20
0.8083833478178867
 30
0.0
 11
1.167790731442964
 21
0.812439838202502
 31
0.0
  0
LINE
  5
C1
330
A
100
AcDbEntity
  8
1
  6
solid
 62
     7
100
AcDbLine
 10
1.167790731442964
 20
0.812439838202502
 30
0.0
 11
1.167790731442964
 21
0.8178484920486559
 31
0.0
  0
LINE
  5
C2
330
A
100
AcDbEntity
  8
1
  6
solid
 62
     7
100
AcDbLine
 10
1.191871613795906
 20
0.7817907997409637
 30
0.0
 11
1.191871613795906
 21
0.7939602708948099
 31
0.0
  0
LINE
  5
C3
330
A
100
AcDbEntity
  8
1
  6
solid
 62
     7
100
AcDbLine
 10
1.191871613795906
 20
0.7939602708948099
 30
0.0
 11
1.201981907913553
 21
0.7939602708948099
 31
0.0
  0
LINE
  5
C4
330
A
100
AcDbEntity
  8
1
  6
solid
 62
     7
100
AcDbLine
 10
1.201981907913553
 20
0.7939602708948099
 30
0.0
 11
1.201981907913553
 21
0.8633713285871175
 31
0.0
  0
LINE
  5
C5
330
A
100
AcDbEntity
  8
1
  6
solid
 62
     7
100
AcDbLine
 10
1.201981907913553
 20
0.8633713285871175
 30
0.0
 11
1.19132014320767
 21
0.8633713285871175
 31
0.0
  0
LINE
  5
C6
330
A
100
AcDbEntity
  8
1
  6
solid
 62
     7
100
AcDbLine
 10
1.19132014320767
 20
0.8633713285871175
 30
0.0
 11
1.19132014320767
 21
0.8755407997409637
 31
0.0
  0
LINE
  5
C7
330
A
100
AcDbEntity
  8
1
  6
solid
 62
     7
100
AcDbLine
 10
1.19132014320767
 20
0.8755407997409637
 30
0.0
 11
1.2152172020312
 21
0.8755407997409637
 31
0.0
  0
LINE
  5
C8
330
A
100
AcDbEntity
  8
1
  6
solid
 62
     7
100
AcDbLine
 10
1.2152172020312
 20
0.8755407997409637
 30
0.0
 11
1.2152172020312
 21
0.7939602708948099
 31
0.0
  0
LINE
  5
C9
330
A
100
AcDbEntity
  8
1
  6
solid
 62
     7
100
AcDbLine
 10
1.2152172020312
 20
0.7939602708948099
 30
0.0
 11
1.226430437325317
 21
0.7939602708948099
 31
0.0
  0
LINE
  5
CA
330
A
100
AcDbEntity
  8
1
  6
solid
 62
     7
100
AcDbLine
 10
1.226430437325317
 20
0.7939602708948099
 30
0.0
 11
1.226430437325317
 21
0.7817907997409637
 31
0.0
  0
LINE
  5
CB
330
A
100
AcDbEntity
  8
1
  6
solid
 62
     7
100
AcDbLine
 10
1.226430437325317
 20
0.7817907997409637
 30
0.0
 11
1.191871613795906
 21
0.7817907997409637
 31
0.0
  0
LINE
  5
CC
330
A
100
AcDbEntity
  8
1
  6
solid
 62
     7
100
AcDbLine
 10
1.241687790266494
 20
0.8128905593563482
 30
0.0
 11
1.242239260854729
 21
0.8070311843563482
 31
0.0
  0
LINE
  5
CD
330
A
100
AcDbEntity
  8
1
  6
solid
 62
     7
100
AcDbLine
 10
1.242239260854729
 20
0.8070311843563482
 30
0.0
 11
1.243158378501788
 21
0.8020732516640405
 31
0.0
  0
LINE
  5
CE
330
A
100
AcDbEntity
  8
1
  6
solid
 62
     7
100
AcDbLine
 10
1.243158378501788
 20
0.8020732516640405
 30
0.0
 11
1.244628966737082
 21
0.7980167612794253
 31
0.0
  0
LINE
  5
CF
330
A
100
AcDbEntity
  8
1
  6
solid
 62
     7
100
AcDbLine
 10
1.244628966737082
 20
0.7980167612794253
 30
0.0
 11
1.247018672619435
 21
0.7935095497409637
 31
0.0
  0
LINE
  5
D0
330
A
100
AcDbEntity
  8
1
  6
solid
 62
     7
100
AcDbLine
 10
1.247018672619435
 20
0.7935095497409637
 30
0.0
 11
1.2495922020312
 21
0.7903545016640406
 31
0.0
  0
LINE
  5
D1
330
A
100
AcDbEntity
  8
1
  6
solid
 62
     7
100
AcDbLine
 10
1.2495922020312
 20
0.7903545016640406
 30
0.0
 11
1.251981907913553
 21
0.7871994535871175
 31
0.0
  0
LINE
  5
D2
330
A
100
AcDbEntity
  8
1
  6
solid
 62
     7
100
AcDbLine
 10
1.251981907913553
 20
0.7871994535871175
 30
0.0
 11
1.254923084384141
 21
0.7849458478178868
 31
0.0
  0
LINE
  5
D3
330
A
100
AcDbEntity
  8
1
  6
solid
 62
     7
100
AcDbLine
 10
1.254923084384141
 20
0.7849458478178868
 30
0.0
 11
1.257864260854729
 21
0.7835936843563483
 31
0.0
  0
LINE
  5
D4
330
A
100
AcDbEntity
  8
1
  6
solid
 62
     7
100
AcDbLine
 10
1.257864260854729
 20
0.7835936843563483
 30
0.0
 11
1.260253966737082
 21
0.7822415208948099
 31
0.0
  0
LINE
  5
D5
330
A
100
AcDbEntity
  8
1
  6
solid
 62
     7
100
AcDbLine
 10
1.260253966737082
 20
0.7822415208948099
 30
0.0
 11
1.263746613795906
 21
0.7817907997409637
 31
0.0
  0
LINE
  5
D6
330
A
100
AcDbEntity
  8
1
  6
solid
 62
     7
100
AcDbLine
 10
1.263746613795906
 20
0.7817907997409637
 30
0.0
 11
1.267055437325317
 21
0.7817907997409637
 31
0.0
  0
LINE
  5
D7
330
A
100
AcDbEntity
  8
1
  6
solid
 62
     7
100
AcDbLine
 10
1.267055437325317
 20
0.7817907997409637
 30
0.0
 11
1.270915731442964
 21
0.7831429632025021
 31
0.0
  0
LINE
  5
D8
330
A
100
AcDbEntity
  8
1
  6
solid
 62
     7
100
AcDbLine
 10
1.270915731442964
 20
0.7831429632025021
 30
0.0
 11
1.275327496148847
 21
0.7849458478178868
 31
0.0
  0
LINE
  5
D9
330
A
100
AcDbEntity
  8
1
  6
solid
 62
     7
100
AcDbLine
 10
1.275327496148847
 20
0.7849458478178868
 30
0.0
 11
1.279371613795906
 21
0.7881008958948099
 31
0.0
  0
LINE
  5
DA
330
A
100
AcDbEntity
  8
1
  6
solid
 62
     7
100
AcDbLine
 10
1.279371613795906
 20
0.7881008958948099
 30
0.0
 11
1.282128966737082
 21
0.7921573862794253
 31
0.0
  0
LINE
  5
DB
330
A
100
AcDbEntity
  8
1
  6
solid
 62
     7
100
AcDbLine
 10
1.282128966737082
 20
0.7921573862794253
 30
0.0
 11
1.28507014320767
 21
0.7975660401255791
 31
0.0
  0
LINE
  5
DC
330
A
100
AcDbEntity
  8
1
  6
solid
 62
     7
100
AcDbLine
 10
1.28507014320767
 20
0.7975660401255791
 30
0.0
 11
1.2870922020312
 21
0.8025239728178867
 31
0.0
  0
LINE
  5
DD
330
A
100
AcDbEntity
  8
1
  6
solid
 62
     7
100
AcDbLine
 10
1.2870922020312
 20
0.8025239728178867
 30
0.0
 11
1.288011319678258
 21
0.806580463202502
 31
0.0
  0
LINE
  5
DE
330
A
100
AcDbEntity
  8
1
  6
solid
 62
     7
100
AcDbLine
 10
1.288011319678258
 20
0.806580463202502
 30
0.0
 11
1.288562790266494
 21
0.8110876747409637
 31
0.0
  0
LINE
  5
DF
330
A
100
AcDbEntity
  8
1
  6
solid
 62
     7
100
AcDbLine
 10
1.288562790266494
 20
0.8110876747409637
 30
0.0
 11
1.288562790266494
 21
0.815144165125579
 31
0.0
  0
LINE
  5
E0
330
A
100
AcDbEntity
  8
1
  6
solid
 62
     7
100
AcDbLine
 10
1.288562790266494
 20
0.815144165125579
 30
0.0
 11
1.287643672619435
 21
0.821003540125579
 31
0.0
  0
LINE
  5
E1
330
A
100
AcDbEntity
  8
1
  6
solid
 62
     7
100
AcDbLine
 10
1.287643672619435
 20
0.821003540125579
 30
0.0
 11
1.286173084384141
 21
0.826862915125579
 31
0.0
  0
LINE
  5
E2
330
A
100
AcDbEntity
  8
1
  6
solid
 62
     7
100
AcDbLine
 10
1.286173084384141
 20
0.826862915125579
 30
0.0
 11
1.284151025560611
 21
0.8304686843563482
 31
0.0
  0
LINE
  5
E3
330
A
100
AcDbEntity
  8
1
  6
solid
 62
     7
100
AcDbLine
 10
1.284151025560611
 20
0.8304686843563482
 30
0.0
 11
1.282680437325317
 21
0.8340744535871175
 31
0.0
  0
LINE
  5
E4
330
A
100
AcDbEntity
  8
1
  6
solid
 62
     7
100
AcDbLine
 10
1.282680437325317
 20
0.8340744535871175
 30
0.0
 11
1.280290731442964
 21
0.8363280593563482
 31
0.0
  0
LINE
  5
E5
330
A
100
AcDbEntity
  8
1
  6
solid
 62
     7
100
AcDbLine
 10
1.280290731442964
 20
0.8363280593563482
 30
0.0
 11
1.278268672619435
 21
0.838581665125579
 31
0.0
  0
LINE
  5
E6
330
A
100
AcDbEntity
  8
1
  6
solid
 62
     7
100
AcDbLine
 10
1.278268672619435
 20
0.838581665125579
 30
0.0
 11
1.280290731442964
 21
0.8430888766640405
 31
0.0
  0
LINE
  5
E7
330
A
100
AcDbEntity
  8
1
  6
solid
 62
     7
100
AcDbLine
 10
1.280290731442964
 20
0.8430888766640405
 30
0.0
 11
1.281761319678258
 21
0.8466946458948097
 31
0.0
  0
LINE
  5
E8
330
A
100
AcDbEntity
  8
1
  6
solid
 62
     7
100
AcDbLine
 10
1.281761319678258
 20
0.8466946458948097
 30
0.0
 11
1.282128966737082
 21
0.8507511362794252
 31
0.0
  0
LINE
  5
E9
330
A
100
AcDbEntity
  8
1
  6
solid
 62
     7
100
AcDbLine
 10
1.282128966737082
 20
0.8507511362794252
 30
0.0
 11
1.282128966737082
 21
0.856159790125579
 31
0.0
  0
LINE
  5
EA
330
A
100
AcDbEntity
  8
1
  6
solid
 62
     7
100
AcDbLine
 10
1.282128966737082
 20
0.856159790125579
 30
0.0
 11
1.2808422020312
 21
0.862019165125579
 31
0.0
  0
LINE
  5
EB
330
A
100
AcDbEntity
  8
1
  6
solid
 62
     7
100
AcDbLine
 10
1.2808422020312
 20
0.862019165125579
 30
0.0
 11
1.279371613795906
 21
0.8656249343563482
 31
0.0
  0
LINE
  5
EC
330
A
100
AcDbEntity
  8
1
  6
solid
 62
     7
100
AcDbLine
 10
1.279371613795906
 20
0.8656249343563482
 30
0.0
 11
1.277349554972376
 21
0.8692307035871175
 31
0.0
  0
LINE
  5
ED
330
A
100
AcDbEntity
  8
1
  6
solid
 62
     7
100
AcDbLine
 10
1.277349554972376
 20
0.8692307035871175
 30
0.0
 11
1.274408378501788
 21
0.8714843093563482
 31
0.0
  0
LINE
  5
EE
330
A
100
AcDbEntity
  8
1
  6
solid
 62
     7
100
AcDbLine
 10
1.274408378501788
 20
0.8714843093563482
 30
0.0
 11
1.2714672020312
 21
0.873737915125579
 31
0.0
  0
LINE
  5
EF
330
A
100
AcDbEntity
  8
1
  6
solid
 62
     7
100
AcDbLine
 10
1.2714672020312
 20
0.873737915125579
 30
0.0
 11
1.269077496148847
 21
0.8750900785871175
 31
0.0
  0
LINE
  5
F0
330
A
100
AcDbEntity
  8
1
  6
solid
 62
     7
100
AcDbLine
 10
1.269077496148847
 20
0.8750900785871175
 30
0.0
 11
1.265584849090023
 21
0.8755407997409637
 31
0.0
  0
LINE
  5
F1
330
A
100
AcDbEntity
  8
1
  6
solid
 62
     7
100
AcDbLine
 10
1.265584849090023
 20
0.8755407997409637
 30
0.0
 11
1.263746613795906
 21
0.8755407997409637
 31
0.0
  0
LINE
  5
F2
330
A
100
AcDbEntity
  8
1
  6
solid
 62
     7
100
AcDbLine
 10
1.263746613795906
 20
0.8755407997409637
 30
0.0
 11
1.260253966737082
 21
0.8750900785871175
 31
0.0
  0
LINE
  5
F3
330
A
100
AcDbEntity
  8
1
  6
solid
 62
     7
100
AcDbLine
 10
1.260253966737082
 20
0.8750900785871175
 30
0.0
 11
1.256761319678258
 21
0.8728364728178867
 31
0.0
  0
LINE
  5
F4
330
A
100
AcDbEntity
  8
1
  6
solid
 62
     7
100
AcDbLine
 10
1.256761319678258
 20
0.8728364728178867
 30
0.0
 11
1.25382014320767
 21
0.8701321458948097
 31
0.0
  0
LINE
  5
F5
330
A
100
AcDbEntity
  8
1
  6
solid
 62
     7
100
AcDbLine
 10
1.25382014320767
 20
0.8701321458948097
 30
0.0
 11
1.251981907913553
 21
0.867878540125579
 31
0.0
  0
LINE
  5
F6
330
A
100
AcDbEntity
  8
1
  6
solid
 62
     7
100
AcDbLine
 10
1.251981907913553
 20
0.867878540125579
 30
0.0
 11
1.249959849090023
 21
0.8638220497409637
 31
0.0
  0
LINE
  5
F7
330
A
100
AcDbEntity
  8
1
  6
solid
 62
     7
100
AcDbLine
 10
1.249959849090023
 20
0.8638220497409637
 30
0.0
 11
1.249040731442965
 21
0.8611177228178867
 31
0.0
  0
LINE
  5
F8
330
A
100
AcDbEntity
  8
1
  6
solid
 62
     7
100
AcDbLine
 10
1.249040731442965
 20
0.8611177228178867
 30
0.0
 11
1.248489260854729
 21
0.859314838202502
 31
0.0
  0
LINE
  5
F9
330
A
100
AcDbEntity
  8
1
  6
solid
 62
     7
100
AcDbLine
 10
1.248489260854729
 20
0.859314838202502
 30
0.0
 11
1.248121613795906
 21
0.8525540208948097
 31
0.0
  0
LINE
  5
FA
330
A
100
AcDbEntity
  8
1
  6
solid
 62
     7
100
AcDbLine
 10
1.248121613795906
 20
0.8525540208948097
 30
0.0
 11
1.256393672619435
 21
0.8525540208948097
 31
0.0
  0
LINE
  5
FB
330
A
100
AcDbEntity
  8
1
  6
solid
 62
     7
100
AcDbLine
 10
1.256393672619435
 20
0.8525540208948097
 30
0.0
 11
1.256761319678258
 21
0.856159790125579
 31
0.0
  0
LINE
  5
FC
330
A
100
AcDbEntity
  8
1
  6
solid
 62
     7
100
AcDbLine
 10
1.256761319678258
 20
0.856159790125579
 30
0.0
 11
1.257864260854729
 21
0.859314838202502
 31
0.0
  0
LINE
  5
FD
330
A
100
AcDbEntity
  8
1
  6
solid
 62
     7
100
AcDbLine
 10
1.257864260854729
 20
0.859314838202502
 30
0.0
 11
1.259334849090023
 21
0.862019165125579
 31
0.0
  0
LINE
  5
FE
330
A
100
AcDbEntity
  8
1
  6
solid
 62
     7
100
AcDbLine
 10
1.259334849090023
 20
0.862019165125579
 30
0.0
 11
1.260805437325317
 21
0.8633713285871175
 31
0.0
  0
LINE
  5
FF
330
A
100
AcDbEntity
  8
1
  6
solid
 62
     7
100
AcDbLine
 10
1.260805437325317
 20
0.8633713285871175
 30
0.0
 11
1.262276025560612
 21
0.8638220497409637
 31
0.0
  0
LINE
  5
100
330
A
100
AcDbEntity
  8
1
  6
solid
 62
     7
100
AcDbLine
 10
1.262276025560612
 20
0.8638220497409637
 30
0.0
 11
1.264114260854729
 21
0.8642727708948097
 31
0.0
  0
LINE
  5
101
330
A
100
AcDbEntity
  8
1
  6
solid
 62
     7
100
AcDbLine
 10
1.264114260854729
 20
0.8642727708948097
 30
0.0
 11
1.265584849090023
 21
0.8642727708948097
 31
0.0
  0
LINE
  5
102
330
A
100
AcDbEntity
  8
1
  6
solid
 62
     7
100
AcDbLine
 10
1.265584849090023
 20
0.8642727708948097
 30
0.0
 11
1.267606907913553
 21
0.8638220497409637
 31
0.0
  0
LINE
  5
103
330
A
100
AcDbEntity
  8
1
  6
solid
 62
     7
100
AcDbLine
 10
1.267606907913553
 20
0.8638220497409637
 30
0.0
 11
1.26944514320767
 21
0.8624698862794252
 31
0.0
  0
LINE
  5
104
330
A
100
AcDbEntity
  8
1
  6
solid
 62
     7
100
AcDbLine
 10
1.26944514320767
 20
0.8624698862794252
 30
0.0
 11
1.270915731442964
 21
0.8611177228178867
 31
0.0
  0
LINE
  5
105
330
A
100
AcDbEntity
  8
1
  6
solid
 62
     7
100
AcDbLine
 10
1.270915731442964
 20
0.8611177228178867
 30
0.0
 11
1.272386319678258
 21
0.859314838202502
 31
0.0
  0
LINE
  5
106
330
A
100
AcDbEntity
  8
1
  6
solid
 62
     7
100
AcDbLine
 10
1.272386319678258
 20
0.859314838202502
 30
0.0
 11
1.273489260854729
 21
0.8566105112794252
 31
0.0
  0
LINE
  5
107
330
A
100
AcDbEntity
  8
1
  6
solid
 62
     7
100
AcDbLine
 10
1.273489260854729
 20
0.8566105112794252
 30
0.0
 11
1.273856907913553
 21
0.8539061843563482
 31
0.0
  0
LINE
  5
108
330
A
100
AcDbEntity
  8
1
  6
solid
 62
     7
100
AcDbLine
 10
1.273856907913553
 20
0.8539061843563482
 30
0.0
 11
1.273856907913553
 21
0.8521032997409637
 31
0.0
  0
LINE
  5
109
330
A
100
AcDbEntity
  8
1
  6
solid
 62
     7
100
AcDbLine
 10
1.273856907913553
 20
0.8521032997409637
 30
0.0
 11
1.272937790266494
 21
0.8480468093563482
 31
0.0
  0
LINE
  5
10A
330
A
100
AcDbEntity
  8
1
  6
solid
 62
     7
100
AcDbLine
 10
1.272937790266494
 20
0.8480468093563482
 30
0.0
 11
1.272018672619435
 21
0.8462439247409637
 31
0.0
  0
LINE
  5
10B
330
A
100
AcDbEntity
  8
1
  6
solid
 62
     7
100
AcDbLine
 10
1.272018672619435
 20
0.8462439247409637
 30
0.0
 11
1.270548084384141
 21
0.844441040125579
 31
0.0
  0
LINE
  5
10C
330
A
100
AcDbEntity
  8
1
  6
solid
 62
     7
100
AcDbLine
 10
1.270548084384141
 20
0.844441040125579
 30
0.0
 11
1.269077496148847
 21
0.8430888766640405
 31
0.0
  0
LINE
  5
10D
330
A
100
AcDbEntity
  8
1
  6
solid
 62
     7
100
AcDbLine
 10
1.269077496148847
 20
0.8430888766640405
 30
0.0
 11
1.267055437325317
 21
0.841736713202502
 31
0.0
  0
LINE
  5
10E
330
A
100
AcDbEntity
  8
1
  6
solid
 62
     7
100
AcDbLine
 10
1.267055437325317
 20
0.841736713202502
 30
0.0
 11
1.261724554972376
 21
0.8408352708948097
 31
0.0
  0
LINE
  5
10F
330
A
100
AcDbEntity
  8
1
  6
solid
 62
     7
100
AcDbLine
 10
1.261724554972376
 20
0.8408352708948097
 30
0.0
 11
1.261724554972376
 21
0.832722290125579
 31
0.0
  0
LINE
  5
110
330
A
100
AcDbEntity
  8
1
  6
solid
 62
     7
100
AcDbLine
 10
1.261724554972376
 20
0.832722290125579
 30
0.0
 11
1.268526025560611
 21
0.8318208478178867
 31
0.0
  0
LINE
  5
111
330
A
100
AcDbEntity
  8
1
  6
solid
 62
     7
100
AcDbLine
 10
1.268526025560611
 20
0.8318208478178867
 30
0.0
 11
1.270548084384141
 21
0.8313701266640405
 31
0.0
  0
LINE
  5
112
330
A
100
AcDbEntity
  8
1
  6
solid
 62
     7
100
AcDbLine
 10
1.270548084384141
 20
0.8313701266640405
 30
0.0
 11
1.273489260854729
 21
0.8291165208948097
 31
0.0
  0
LINE
  5
113
330
A
100
AcDbEntity
  8
1
  6
solid
 62
     7
100
AcDbLine
 10
1.273489260854729
 20
0.8291165208948097
 30
0.0
 11
1.275327496148847
 21
0.8273136362794252
 31
0.0
  0
LINE
  5
114
330
A
100
AcDbEntity
  8
1
  6
solid
 62
     7
100
AcDbLine
 10
1.275327496148847
 20
0.8273136362794252
 30
0.0
 11
1.276798084384141
 21
0.8255107516640405
 31
0.0
  0
LINE
  5
115
330
A
100
AcDbEntity
  8
1
  6
solid
 62
     7
100
AcDbLine
 10
1.276798084384141
 20
0.8255107516640405
 30
0.0
 11
1.278268672619435
 21
0.8223557035871175
 31
0.0
  0
LINE
  5
116
330
A
100
AcDbEntity
  8
1
  6
solid
 62
     7
100
AcDbLine
 10
1.278268672619435
 20
0.8223557035871175
 30
0.0
 11
1.279371613795906
 21
0.8187499343563482
 31
0.0
  0
LINE
  5
117
330
A
100
AcDbEntity
  8
1
  6
solid
 62
     7
100
AcDbLine
 10
1.279371613795906
 20
0.8187499343563482
 30
0.0
 11
1.279739260854729
 21
0.8142427228178867
 31
0.0
  0
LINE
  5
118
330
A
100
AcDbEntity
  8
1
  6
solid
 62
     7
100
AcDbLine
 10
1.279739260854729
 20
0.8142427228178867
 30
0.0
 11
1.279739260854729
 21
0.8110876747409637
 31
0.0
  0
LINE
  5
119
330
A
100
AcDbEntity
  8
1
  6
solid
 62
     7
100
AcDbLine
 10
1.279739260854729
 20
0.8110876747409637
 30
0.0
 11
1.27882014320767
 21
0.8052282997409637
 31
0.0
  0
LINE
  5
11A
330
A
100
AcDbEntity
  8
1
  6
solid
 62
     7
100
AcDbLine
 10
1.27882014320767
 20
0.8052282997409637
 30
0.0
 11
1.276798084384141
 21
0.8011718093563482
 31
0.0
  0
LINE
  5
11B
330
A
100
AcDbEntity
  8
1
  6
solid
 62
     7
100
AcDbLine
 10
1.276798084384141
 20
0.8011718093563482
 30
0.0
 11
1.274959849090023
 21
0.7980167612794253
 31
0.0
  0
LINE
  5
11C
330
A
100
AcDbEntity
  8
1
  6
solid
 62
     7
100
AcDbLine
 10
1.274959849090023
 20
0.7980167612794253
 30
0.0
 11
1.272937790266494
 21
0.7962138766640406
 31
0.0
  0
LINE
  5
11D
330
A
100
AcDbEntity
  8
1
  6
solid
 62
     7
100
AcDbLine
 10
1.272937790266494
 20
0.7962138766640406
 30
0.0
 11
1.270915731442964
 21
0.7948617132025021
 31
0.0
  0
LINE
  5
11E
330
A
100
AcDbEntity
  8
1
  6
solid
 62
     7
100
AcDbLine
 10
1.270915731442964
 20
0.7948617132025021
 30
0.0
 11
1.268526025560611
 21
0.7935095497409637
 31
0.0
  0
LINE
  5
11F
330
A
100
AcDbEntity
  8
1
  6
solid
 62
     7
100
AcDbLine
 10
1.268526025560611
 20
0.7935095497409637
 30
0.0
 11
1.2652172020312
 21
0.7930588285871175
 31
0.0
  0
LINE
  5
120
330
A
100
AcDbEntity
  8
1
  6
solid
 62
     7
100
AcDbLine
 10
1.2652172020312
 20
0.7930588285871175
 30
0.0
 11
1.26319514320767
 21
0.7930588285871175
 31
0.0
  0
LINE
  5
121
330
A
100
AcDbEntity
  8
1
  6
solid
 62
     7
100
AcDbLine
 10
1.26319514320767
 20
0.7930588285871175
 30
0.0
 11
1.259334849090023
 21
0.7948617132025021
 31
0.0
  0
LINE
  5
122
330
A
100
AcDbEntity
  8
1
  6
solid
 62
     7
100
AcDbLine
 10
1.259334849090023
 20
0.7948617132025021
 30
0.0
 11
1.256393672619435
 21
0.7966645978178868
 31
0.0
  0
LINE
  5
123
330
A
100
AcDbEntity
  8
1
  6
solid
 62
     7
100
AcDbLine
 10
1.256393672619435
 20
0.7966645978178868
 30
0.0
 11
1.254371613795906
 21
0.7993689247409637
 31
0.0
  0
LINE
  5
124
330
A
100
AcDbEntity
  8
1
  6
solid
 62
     7
100
AcDbLine
 10
1.254371613795906
 20
0.7993689247409637
 30
0.0
 11
1.251981907913553
 21
0.803425415125579
 31
0.0
  0
LINE
  5
125
330
A
100
AcDbEntity
  8
1
  6
solid
 62
     7
100
AcDbLine
 10
1.251981907913553
 20
0.803425415125579
 30
0.0
 11
1.250878966737082
 21
0.8056790208948097
 31
0.0
  0
LINE
  5
126
330
A
100
AcDbEntity
  8
1
  6
solid
 62
     7
100
AcDbLine
 10
1.250878966737082
 20
0.8056790208948097
 30
0.0
 11
1.249959849090023
 21
0.8128905593563482
 31
0.0
  0
LINE
  5
127
330
A
100
AcDbEntity
  8
1
  6
solid
 62
     7
100
AcDbLine
 10
1.249959849090023
 20
0.8128905593563482
 30
0.0
 11
1.241687790266494
 21
0.8128905593563482
 31
0.0
  0
LINE
  5
128
330
A
100
AcDbEntity
  8
1
  6
solid
 62
     7
100
AcDbLine
 10
1.298673084384141
 20
0.8755407997409637
 30
0.0
 11
1.298673084384141
 21
0.8633713285871175
 31
0.0
  0
LINE
  5
129
330
A
100
AcDbEntity
  8
1
  6
solid
 62
     7
100
AcDbLine
 10
1.298673084384141
 20
0.8633713285871175
 30
0.0
 11
1.305290731442964
 21
0.8633713285871175
 31
0.0
  0
LINE
  5
12A
330
A
100
AcDbEntity
  8
1
  6
solid
 62
     7
100
AcDbLine
 10
1.305290731442964
 20
0.8633713285871175
 30
0.0
 11
1.317606907913553
 21
0.8295672420486559
 31
0.0
  0
LINE
  5
12B
330
A
100
AcDbEntity
  8
1
  6
solid
 62
     7
100
AcDbLine
 10
1.317606907913553
 20
0.8295672420486559
 30
0.0
 11
1.304003966737082
 21
0.7939602708948099
 31
0.0
  0
LINE
  5
12C
330
A
100
AcDbEntity
  8
1
  6
solid
 62
     7
100
AcDbLine
 10
1.304003966737082
 20
0.7939602708948099
 30
0.0
 11
1.297937790266494
 21
0.7939602708948099
 31
0.0
  0
LINE
  5
12D
330
A
100
AcDbEntity
  8
1
  6
solid
 62
     7
100
AcDbLine
 10
1.297937790266494
 20
0.7939602708948099
 30
0.0
 11
1.297937790266494
 21
0.7817907997409637
 31
0.0
  0
LINE
  5
12E
330
A
100
AcDbEntity
  8
1
  6
solid
 62
     7
100
AcDbLine
 10
1.297937790266494
 20
0.7817907997409637
 30
0.0
 11
1.317606907913553
 21
0.7817907997409637
 31
0.0
  0
LINE
  5
12F
330
A
100
AcDbEntity
  8
1
  6
solid
 62
     7
100
AcDbLine
 10
1.317606907913553
 20
0.7817907997409637
 30
0.0
 11
1.317606907913553
 21
0.7939602708948099
 31
0.0
  0
LINE
  5
130
330
A
100
AcDbEntity
  8
1
  6
solid
 62
     7
100
AcDbLine
 10
1.317606907913553
 20
0.7939602708948099
 30
0.0
 11
1.312459849090023
 21
0.7939602708948099
 31
0.0
  0
LINE
  5
131
330
A
100
AcDbEntity
  8
1
  6
solid
 62
     7
100
AcDbLine
 10
1.312459849090023
 20
0.7939602708948099
 30
0.0
 11
1.3214672020312
 21
0.8187499343563482
 31
0.0
  0
LINE
  5
132
330
A
100
AcDbEntity
  8
1
  6
solid
 62
     7
100
AcDbLine
 10
1.3214672020312
 20
0.8187499343563482
 30
0.0
 11
1.330290731442965
 21
0.7939602708948099
 31
0.0
  0
LINE
  5
133
330
A
100
AcDbEntity
  8
1
  6
solid
 62
     7
100
AcDbLine
 10
1.330290731442965
 20
0.7939602708948099
 30
0.0
 11
1.325511319678259
 21
0.7939602708948099
 31
0.0
  0
LINE
  5
134
330
A
100
AcDbEntity
  8
1
  6
solid
 62
     7
100
AcDbLine
 10
1.325511319678259
 20
0.7939602708948099
 30
0.0
 11
1.325511319678259
 21
0.7817907997409637
 31
0.0
  0
LINE
  5
135
330
A
100
AcDbEntity
  8
1
  6
solid
 62
     7
100
AcDbLine
 10
1.325511319678259
 20
0.7817907997409637
 30
0.0
 11
1.344812790266494
 21
0.7817907997409637
 31
0.0
  0
LINE
  5
136
330
A
100
AcDbEntity
  8
1
  6
solid
 62
     7
100
AcDbLine
 10
1.344812790266494
 20
0.7817907997409637
 30
0.0
 11
1.344812790266494
 21
0.7939602708948099
 31
0.0
  0
LINE
  5
137
330
A
100
AcDbEntity
  8
1
  6
solid
 62
     7
100
AcDbLine
 10
1.344812790266494
 20
0.7939602708948099
 30
0.0
 11
1.338746613795906
 21
0.7939602708948099
 31
0.0
  0
LINE
  5
138
330
A
100
AcDbEntity
  8
1
  6
solid
 62
     7
100
AcDbLine
 10
1.338746613795906
 20
0.7939602708948099
 30
0.0
 11
1.325511319678259
 21
0.8295672420486559
 31
0.0
  0
LINE
  5
139
330
A
100
AcDbEntity
  8
1
  6
solid
 62
     7
100
AcDbLine
 10
1.325511319678259
 20
0.8295672420486559
 30
0.0
 11
1.337459849090023
 21
0.8633713285871175
 31
0.0
  0
LINE
  5
13A
330
A
100
AcDbEntity
  8
1
  6
solid
 62
     7
100
AcDbLine
 10
1.337459849090023
 20
0.8633713285871175
 30
0.0
 11
1.344077496148847
 21
0.8633713285871175
 31
0.0
  0
LINE
  5
13B
330
A
100
AcDbEntity
  8
1
  6
solid
 62
     7
100
AcDbLine
 10
1.344077496148847
 20
0.8633713285871175
 30
0.0
 11
1.344077496148847
 21
0.8755407997409637
 31
0.0
  0
LINE
  5
13C
330
A
100
AcDbEntity
  8
1
  6
solid
 62
     7
100
AcDbLine
 10
1.344077496148847
 20
0.8755407997409637
 30
0.0
 11
1.324408378501788
 21
0.8755407997409637
 31
0.0
  0
LINE
  5
13D
330
A
100
AcDbEntity
  8
1
  6
solid
 62
     7
100
AcDbLine
 10
1.324408378501788
 20
0.8755407997409637
 30
0.0
 11
1.324408378501788
 21
0.8633713285871175
 31
0.0
  0
LINE
  5
13E
330
A
100
AcDbEntity
  8
1
  6
solid
 62
     7
100
AcDbLine
 10
1.324408378501788
 20
0.8633713285871175
 30
0.0
 11
1.329371613795906
 21
0.8633713285871175
 31
0.0
  0
LINE
  5
13F
330
A
100
AcDbEntity
  8
1
  6
solid
 62
     7
100
AcDbLine
 10
1.329371613795906
 20
0.8633713285871175
 30
0.0
 11
1.3214672020312
 21
0.8412859920486559
 31
0.0
  0
LINE
  5
140
330
A
100
AcDbEntity
  8
1
  6
solid
 62
     7
100
AcDbLine
 10
1.3214672020312
 20
0.8412859920486559
 30
0.0
 11
1.313378966737082
 21
0.8633713285871175
 31
0.0
  0
LINE
  5
141
330
A
100
AcDbEntity
  8
1
  6
solid
 62
     7
100
AcDbLine
 10
1.313378966737082
 20
0.8633713285871175
 30
0.0
 11
1.3183422020312
 21
0.8633713285871175
 31
0.0
  0
LINE
  5
142
330
A
100
AcDbEntity
  8
1
  6
solid
 62
     7
100
AcDbLine
 10
1.3183422020312
 20
0.8633713285871175
 30
0.0
 11
1.3183422020312
 21
0.8755407997409637
 31
0.0
  0
LINE
  5
143
330
A
100
AcDbEntity
  8
1
  6
solid
 62
     7
100
AcDbLine
 10
1.3183422020312
 20
0.8755407997409637
 30
0.0
 11
1.298673084384141
 21
0.8755407997409637
 31
0.0
  0
LINE
  5
144
330
A
100
AcDbEntity
  8
1
  6
solid
 62
     7
100
AcDbLine
 10
0.2510460012951814
 20
-0.059439019881459
 30
0.0
 11
0.2515974718834167
 21
-0.065298394881459
 31
0.0
  0
LINE
  5
145
330
A
100
AcDbEntity
  8
1
  6
solid
 62
     7
100
AcDbLine
 10
0.2515974718834167
 20
-0.065298394881459
 30
0.0
 11
0.2525165895304755
 21
-0.0702563275737667
 31
0.0
  0
LINE
  5
146
330
A
100
AcDbEntity
  8
1
  6
solid
 62
     7
100
AcDbLine
 10
0.2525165895304755
 20
-0.0702563275737667
 30
0.0
 11
0.2539871777657696
 21
-0.0743128179583821
 31
0.0
  0
LINE
  5
147
330
A
100
AcDbEntity
  8
1
  6
solid
 62
     7
100
AcDbLine
 10
0.2539871777657696
 20
-0.0743128179583821
 30
0.0
 11
0.2563768836481226
 21
-0.0788200294968436
 31
0.0
  0
LINE
  5
148
330
A
100
AcDbEntity
  8
1
  6
solid
 62
     7
100
AcDbLine
 10
0.2563768836481226
 20
-0.0788200294968436
 30
0.0
 11
0.2589504130598873
 21
-0.0819750775737667
 31
0.0
  0
LINE
  5
149
330
A
100
AcDbEntity
  8
1
  6
solid
 62
     7
100
AcDbLine
 10
0.2589504130598873
 20
-0.0819750775737667
 30
0.0
 11
0.2613401189422402
 21
-0.0851301256506898
 31
0.0
  0
LINE
  5
14A
330
A
100
AcDbEntity
  8
1
  6
solid
 62
     7
100
AcDbLine
 10
0.2613401189422402
 20
-0.0851301256506898
 30
0.0
 11
0.2642812954128284
 21
-0.0873837314199206
 31
0.0
  0
LINE
  5
14B
330
A
100
AcDbEntity
  8
1
  6
solid
 62
     7
100
AcDbLine
 10
0.2642812954128284
 20
-0.0873837314199206
 30
0.0
 11
0.2672224718834167
 21
-0.0887358948814591
 31
0.0
  0
LINE
  5
14C
330
A
100
AcDbEntity
  8
1
  6
solid
 62
     7
100
AcDbLine
 10
0.2672224718834167
 20
-0.0887358948814591
 30
0.0
 11
0.2696121777657696
 21
-0.0900880583429975
 31
0.0
  0
LINE
  5
14D
330
A
100
AcDbEntity
  8
1
  6
solid
 62
     7
100
AcDbLine
 10
0.2696121777657696
 20
-0.0900880583429975
 30
0.0
 11
0.2731048248245931
 21
-0.0905387794968437
 31
0.0
  0
LINE
  5
14E
330
A
100
AcDbEntity
  8
1
  6
solid
 62
     7
100
AcDbLine
 10
0.2731048248245931
 20
-0.0905387794968437
 30
0.0
 11
0.2764136483540049
 21
-0.0905387794968437
 31
0.0
  0
LINE
  5
14F
330
A
100
AcDbEntity
  8
1
  6
solid
 62
     7
100
AcDbLine
 10
0.2764136483540049
 20
-0.0905387794968437
 30
0.0
 11
0.280273942471652
 21
-0.0891866160353052
 31
0.0
  0
LINE
  5
150
330
A
100
AcDbEntity
  8
1
  6
solid
 62
     7
100
AcDbLine
 10
0.280273942471652
 20
-0.0891866160353052
 30
0.0
 11
0.2846857071775343
 21
-0.0873837314199206
 31
0.0
  0
LINE
  5
151
330
A
100
AcDbEntity
  8
1
  6
solid
 62
     7
100
AcDbLine
 10
0.2846857071775343
 20
-0.0873837314199206
 30
0.0
 11
0.2887298248245932
 21
-0.0842286833429975
 31
0.0
  0
LINE
  5
152
330
A
100
AcDbEntity
  8
1
  6
solid
 62
     7
100
AcDbLine
 10
0.2887298248245932
 20
-0.0842286833429975
 30
0.0
 11
0.2914871777657697
 21
-0.0801721929583821
 31
0.0
  0
LINE
  5
153
330
A
100
AcDbEntity
  8
1
  6
solid
 62
     7
100
AcDbLine
 10
0.2914871777657697
 20
-0.0801721929583821
 30
0.0
 11
0.2944283542363579
 21
-0.0747635391122283
 31
0.0
  0
LINE
  5
154
330
A
100
AcDbEntity
  8
1
  6
solid
 62
     7
100
AcDbLine
 10
0.2944283542363579
 20
-0.0747635391122283
 30
0.0
 11
0.2964504130598873
 21
-0.0698056064199206
 31
0.0
  0
LINE
  5
155
330
A
100
AcDbEntity
  8
1
  6
solid
 62
     7
100
AcDbLine
 10
0.2964504130598873
 20
-0.0698056064199206
 30
0.0
 11
0.2973695307069461
 21
-0.0657491160353052
 31
0.0
  0
LINE
  5
156
330
A
100
AcDbEntity
  8
1
  6
solid
 62
     7
100
AcDbLine
 10
0.2973695307069461
 20
-0.0657491160353052
 30
0.0
 11
0.2979210012951814
 21
-0.0612419044968436
 31
0.0
  0
LINE
  5
157
330
A
100
AcDbEntity
  8
1
  6
solid
 62
     7
100
AcDbLine
 10
0.2979210012951814
 20
-0.0612419044968436
 30
0.0
 11
0.2979210012951814
 21
-0.0571854141122283
 31
0.0
  0
LINE
  5
158
330
A
100
AcDbEntity
  8
1
  6
solid
 62
     7
100
AcDbLine
 10
0.2979210012951814
 20
-0.0571854141122283
 30
0.0
 11
0.2970018836481226
 21
-0.0513260391122283
 31
0.0
  0
LINE
  5
159
330
A
100
AcDbEntity
  8
1
  6
solid
 62
     7
100
AcDbLine
 10
0.2970018836481226
 20
-0.0513260391122283
 30
0.0
 11
0.2955312954128284
 21
-0.0454666641122283
 31
0.0
  0
LINE
  5
15A
330
A
100
AcDbEntity
  8
1
  6
solid
 62
     7
100
AcDbLine
 10
0.2955312954128284
 20
-0.0454666641122283
 30
0.0
 11
0.2935092365892991
 21
-0.041860894881459
 31
0.0
  0
LINE
  5
15B
330
A
100
AcDbEntity
  8
1
  6
solid
 62
     7
100
AcDbLine
 10
0.2935092365892991
 20
-0.041860894881459
 30
0.0
 11
0.2920386483540049
 21
-0.0382551256506898
 31
0.0
  0
LINE
  5
15C
330
A
100
AcDbEntity
  8
1
  6
solid
 62
     7
100
AcDbLine
 10
0.2920386483540049
 20
-0.0382551256506898
 30
0.0
 11
0.289648942471652
 21
-0.036001519881459
 31
0.0
  0
LINE
  5
15D
330
A
100
AcDbEntity
  8
1
  6
solid
 62
     7
100
AcDbLine
 10
0.289648942471652
 20
-0.036001519881459
 30
0.0
 11
0.2876268836481226
 21
-0.0337479141122283
 31
0.0
  0
LINE
  5
15E
330
A
100
AcDbEntity
  8
1
  6
solid
 62
     7
100
AcDbLine
 10
0.2876268836481226
 20
-0.0337479141122283
 30
0.0
 11
0.289648942471652
 21
-0.0292407025737667
 31
0.0
  0
LINE
  5
15F
330
A
100
AcDbEntity
  8
1
  6
solid
 62
     7
100
AcDbLine
 10
0.289648942471652
 20
-0.0292407025737667
 30
0.0
 11
0.2911195307069461
 21
-0.0256349333429975
 31
0.0
  0
LINE
  5
160
330
A
100
AcDbEntity
  8
1
  6
solid
 62
     7
100
AcDbLine
 10
0.2911195307069461
 20
-0.0256349333429975
 30
0.0
 11
0.2914871777657697
 21
-0.0215784429583821
 31
0.0
  0
LINE
  5
161
330
A
100
AcDbEntity
  8
1
  6
solid
 62
     7
100
AcDbLine
 10
0.2914871777657697
 20
-0.0215784429583821
 30
0.0
 11
0.2914871777657697
 21
-0.0161697891122283
 31
0.0
  0
LINE
  5
162
330
A
100
AcDbEntity
  8
1
  6
solid
 62
     7
100
AcDbLine
 10
0.2914871777657697
 20
-0.0161697891122283
 30
0.0
 11
0.2902004130598873
 21
-0.0103104141122283
 31
0.0
  0
LINE
  5
163
330
A
100
AcDbEntity
  8
1
  6
solid
 62
     7
100
AcDbLine
 10
0.2902004130598873
 20
-0.0103104141122283
 30
0.0
 11
0.2887298248245932
 21
-0.006704644881459
 31
0.0
  0
LINE
  5
164
330
A
100
AcDbEntity
  8
1
  6
solid
 62
     7
100
AcDbLine
 10
0.2887298248245932
 20
-0.006704644881459
 30
0.0
 11
0.2867077660010637
 21
-0.0030988756506898
 31
0.0
  0
LINE
  5
165
330
A
100
AcDbEntity
  8
1
  6
solid
 62
     7
100
AcDbLine
 10
0.2867077660010637
 20
-0.0030988756506898
 30
0.0
 11
0.2837665895304755
 21
-0.000845269881459
 31
0.0
  0
LINE
  5
166
330
A
100
AcDbEntity
  8
1
  6
solid
 62
     7
100
AcDbLine
 10
0.2837665895304755
 20
-0.000845269881459
 30
0.0
 11
0.2808254130598873
 21
0.0014083358877718
 31
0.0
  0
LINE
  5
167
330
A
100
AcDbEntity
  8
1
  6
solid
 62
     7
100
AcDbLine
 10
0.2808254130598873
 20
0.0014083358877718
 30
0.0
 11
0.2784357071775343
 21
0.0027604993493102
 31
0.0
  0
LINE
  5
168
330
A
100
AcDbEntity
  8
1
  6
solid
 62
     7
100
AcDbLine
 10
0.2784357071775343
 20
0.0027604993493102
 30
0.0
 11
0.2749430601187108
 21
0.0032112205031564
 31
0.0
  0
LINE
  5
169
330
A
100
AcDbEntity
  8
1
  6
solid
 62
     7
100
AcDbLine
 10
0.2749430601187108
 20
0.0032112205031564
 30
0.0
 11
0.2731048248245931
 21
0.0032112205031564
 31
0.0
  0
LINE
  5
16A
330
A
100
AcDbEntity
  8
1
  6
solid
 62
     7
100
AcDbLine
 10
0.2731048248245931
 20
0.0032112205031564
 30
0.0
 11
0.2696121777657696
 21
0.0027604993493102
 31
0.0
  0
LINE
  5
16B
330
A
100
AcDbEntity
  8
1
  6
solid
 62
     7
100
AcDbLine
 10
0.2696121777657696
 20
0.0027604993493102
 30
0.0
 11
0.2661195307069461
 21
0.0005068935800795
 31
0.0
  0
LINE
  5
16C
330
A
100
AcDbEntity
  8
1
  6
solid
 62
     7
100
AcDbLine
 10
0.2661195307069461
 20
0.0005068935800795
 30
0.0
 11
0.2631783542363579
 21
-0.0021974333429975
 31
0.0
  0
LINE
  5
16D
330
A
100
AcDbEntity
  8
1
  6
solid
 62
     7
100
AcDbLine
 10
0.2631783542363579
 20
-0.0021974333429975
 30
0.0
 11
0.2613401189422402
 21
-0.0044510391122282
 31
0.0
  0
LINE
  5
16E
330
A
100
AcDbEntity
  8
1
  6
solid
 62
     7
100
AcDbLine
 10
0.2613401189422402
 20
-0.0044510391122282
 30
0.0
 11
0.2593180601187108
 21
-0.0085075294968436
 31
0.0
  0
LINE
  5
16F
330
A
100
AcDbEntity
  8
1
  6
solid
 62
     7
100
AcDbLine
 10
0.2593180601187108
 20
-0.0085075294968436
 30
0.0
 11
0.258398942471652
 21
-0.0112118564199206
 31
0.0
  0
LINE
  5
170
330
A
100
AcDbEntity
  8
1
  6
solid
 62
     7
100
AcDbLine
 10
0.258398942471652
 20
-0.0112118564199206
 30
0.0
 11
0.2578474718834167
 21
-0.0130147410353052
 31
0.0
  0
LINE
  5
171
330
A
100
AcDbEntity
  8
1
  6
solid
 62
     7
100
AcDbLine
 10
0.2578474718834167
 20
-0.0130147410353052
 30
0.0
 11
0.2574798248245931
 21
-0.0197755583429975
 31
0.0
  0
LINE
  5
172
330
A
100
AcDbEntity
  8
1
  6
solid
 62
     7
100
AcDbLine
 10
0.2574798248245931
 20
-0.0197755583429975
 30
0.0
 11
0.2657518836481226
 21
-0.0197755583429975
 31
0.0
  0
LINE
  5
173
330
A
100
AcDbEntity
  8
1
  6
solid
 62
     7
100
AcDbLine
 10
0.2657518836481226
 20
-0.0197755583429975
 30
0.0
 11
0.2661195307069461
 21
-0.0161697891122283
 31
0.0
  0
LINE
  5
174
330
A
100
AcDbEntity
  8
1
  6
solid
 62
     7
100
AcDbLine
 10
0.2661195307069461
 20
-0.0161697891122283
 30
0.0
 11
0.2672224718834167
 21
-0.0130147410353052
 31
0.0
  0
LINE
  5
175
330
A
100
AcDbEntity
  8
1
  6
solid
 62
     7
100
AcDbLine
 10
0.2672224718834167
 20
-0.0130147410353052
 30
0.0
 11
0.2686930601187108
 21
-0.0103104141122283
 31
0.0
  0
LINE
  5
176
330
A
100
AcDbEntity
  8
1
  6
solid
 62
     7
100
AcDbLine
 10
0.2686930601187108
 20
-0.0103104141122283
 30
0.0
 11
0.2701636483540049
 21
-0.0089582506506898
 31
0.0
  0
LINE
  5
177
330
A
100
AcDbEntity
  8
1
  6
solid
 62
     7
100
AcDbLine
 10
0.2701636483540049
 20
-0.0089582506506898
 30
0.0
 11
0.271634236589299
 21
-0.0085075294968436
 31
0.0
  0
LINE
  5
178
330
A
100
AcDbEntity
  8
1
  6
solid
 62
     7
100
AcDbLine
 10
0.271634236589299
 20
-0.0085075294968436
 30
0.0
 11
0.2734724718834167
 21
-0.0080568083429975
 31
0.0
  0
LINE
  5
179
330
A
100
AcDbEntity
  8
1
  6
solid
 62
     7
100
AcDbLine
 10
0.2734724718834167
 20
-0.0080568083429975
 30
0.0
 11
0.2749430601187108
 21
-0.0080568083429975
 31
0.0
  0
LINE
  5
17A
330
A
100
AcDbEntity
  8
1
  6
solid
 62
     7
100
AcDbLine
 10
0.2749430601187108
 20
-0.0080568083429975
 30
0.0
 11
0.2769651189422402
 21
-0.0085075294968436
 31
0.0
  0
LINE
  5
17B
330
A
100
AcDbEntity
  8
1
  6
solid
 62
     7
100
AcDbLine
 10
0.2769651189422402
 20
-0.0085075294968436
 30
0.0
 11
0.2788033542363579
 21
-0.0098596929583821
 31
0.0
  0
LINE
  5
17C
330
A
100
AcDbEntity
  8
1
  6
solid
 62
     7
100
AcDbLine
 10
0.2788033542363579
 20
-0.0098596929583821
 30
0.0
 11
0.280273942471652
 21
-0.0112118564199206
 31
0.0
  0
LINE
  5
17D
330
A
100
AcDbEntity
  8
1
  6
solid
 62
     7
100
AcDbLine
 10
0.280273942471652
 20
-0.0112118564199206
 30
0.0
 11
0.2817445307069461
 21
-0.0130147410353052
 31
0.0
  0
LINE
  5
17E
330
A
100
AcDbEntity
  8
1
  6
solid
 62
     7
100
AcDbLine
 10
0.2817445307069461
 20
-0.0130147410353052
 30
0.0
 11
0.2828474718834167
 21
-0.0157190679583821
 31
0.0
  0
LINE
  5
17F
330
A
100
AcDbEntity
  8
1
  6
solid
 62
     7
100
AcDbLine
 10
0.2828474718834167
 20
-0.0157190679583821
 30
0.0
 11
0.2832151189422402
 21
-0.018423394881459
 31
0.0
  0
LINE
  5
180
330
A
100
AcDbEntity
  8
1
  6
solid
 62
     7
100
AcDbLine
 10
0.2832151189422402
 20
-0.018423394881459
 30
0.0
 11
0.2832151189422402
 21
-0.0202262794968436
 31
0.0
  0
LINE
  5
181
330
A
100
AcDbEntity
  8
1
  6
solid
 62
     7
100
AcDbLine
 10
0.2832151189422402
 20
-0.0202262794968436
 30
0.0
 11
0.2822960012951814
 21
-0.024282769881459
 31
0.0
  0
LINE
  5
182
330
A
100
AcDbEntity
  8
1
  6
solid
 62
     7
100
AcDbLine
 10
0.2822960012951814
 20
-0.024282769881459
 30
0.0
 11
0.2813768836481226
 21
-0.0260856544968436
 31
0.0
  0
LINE
  5
183
330
A
100
AcDbEntity
  8
1
  6
solid
 62
     7
100
AcDbLine
 10
0.2813768836481226
 20
-0.0260856544968436
 30
0.0
 11
0.2799062954128284
 21
-0.0278885391122283
 31
0.0
  0
LINE
  5
184
330
A
100
AcDbEntity
  8
1
  6
solid
 62
     7
100
AcDbLine
 10
0.2799062954128284
 20
-0.0278885391122283
 30
0.0
 11
0.2784357071775343
 21
-0.0292407025737667
 31
0.0
  0
LINE
  5
185
330
A
100
AcDbEntity
  8
1
  6
solid
 62
     7
100
AcDbLine
 10
0.2784357071775343
 20
-0.0292407025737667
 30
0.0
 11
0.2764136483540049
 21
-0.0305928660353052
 31
0.0
  0
LINE
  5
186
330
A
100
AcDbEntity
  8
1
  6
solid
 62
     7
100
AcDbLine
 10
0.2764136483540049
 20
-0.0305928660353052
 30
0.0
 11
0.2710827660010637
 21
-0.0314943083429975
 31
0.0
  0
LINE
  5
187
330
A
100
AcDbEntity
  8
1
  6
solid
 62
     7
100
AcDbLine
 10
0.2710827660010637
 20
-0.0314943083429975
 30
0.0
 11
0.2710827660010637
 21
-0.0396072891122283
 31
0.0
  0
LINE
  5
188
330
A
100
AcDbEntity
  8
1
  6
solid
 62
     7
100
AcDbLine
 10
0.2710827660010637
 20
-0.0396072891122283
 30
0.0
 11
0.2778842365892991
 21
-0.0405087314199206
 31
0.0
  0
LINE
  5
189
330
A
100
AcDbEntity
  8
1
  6
solid
 62
     7
100
AcDbLine
 10
0.2778842365892991
 20
-0.0405087314199206
 30
0.0
 11
0.2799062954128284
 21
-0.0409594525737667
 31
0.0
  0
LINE
  5
18A
330
A
100
AcDbEntity
  8
1
  6
solid
 62
     7
100
AcDbLine
 10
0.2799062954128284
 20
-0.0409594525737667
 30
0.0
 11
0.2828474718834167
 21
-0.0432130583429975
 31
0.0
  0
LINE
  5
18B
330
A
100
AcDbEntity
  8
1
  6
solid
 62
     7
100
AcDbLine
 10
0.2828474718834167
 20
-0.0432130583429975
 30
0.0
 11
0.2846857071775343
 21
-0.0450159429583821
 31
0.0
  0
LINE
  5
18C
330
A
100
AcDbEntity
  8
1
  6
solid
 62
     7
100
AcDbLine
 10
0.2846857071775343
 20
-0.0450159429583821
 30
0.0
 11
0.2861562954128284
 21
-0.0468188275737667
 31
0.0
  0
LINE
  5
18D
330
A
100
AcDbEntity
  8
1
  6
solid
 62
     7
100
AcDbLine
 10
0.2861562954128284
 20
-0.0468188275737667
 30
0.0
 11
0.2876268836481226
 21
-0.0499738756506898
 31
0.0
  0
LINE
  5
18E
330
A
100
AcDbEntity
  8
1
  6
solid
 62
     7
100
AcDbLine
 10
0.2876268836481226
 20
-0.0499738756506898
 30
0.0
 11
0.2887298248245932
 21
-0.053579644881459
 31
0.0
  0
LINE
  5
18F
330
A
100
AcDbEntity
  8
1
  6
solid
 62
     7
100
AcDbLine
 10
0.2887298248245932
 20
-0.053579644881459
 30
0.0
 11
0.2890974718834167
 21
-0.0580868564199206
 31
0.0
  0
LINE
  5
190
330
A
100
AcDbEntity
  8
1
  6
solid
 62
     7
100
AcDbLine
 10
0.2890974718834167
 20
-0.0580868564199206
 30
0.0
 11
0.2890974718834167
 21
-0.0612419044968436
 31
0.0
  0
LINE
  5
191
330
A
100
AcDbEntity
  8
1
  6
solid
 62
     7
100
AcDbLine
 10
0.2890974718834167
 20
-0.0612419044968436
 30
0.0
 11
0.2881783542363578
 21
-0.0671012794968436
 31
0.0
  0
LINE
  5
192
330
A
100
AcDbEntity
  8
1
  6
solid
 62
     7
100
AcDbLine
 10
0.2881783542363578
 20
-0.0671012794968436
 30
0.0
 11
0.2861562954128284
 21
-0.071157769881459
 31
0.0
  0
LINE
  5
193
330
A
100
AcDbEntity
  8
1
  6
solid
 62
     7
100
AcDbLine
 10
0.2861562954128284
 20
-0.071157769881459
 30
0.0
 11
0.2843180601187108
 21
-0.0743128179583821
 31
0.0
  0
LINE
  5
194
330
A
100
AcDbEntity
  8
1
  6
solid
 62
     7
100
AcDbLine
 10
0.2843180601187108
 20
-0.0743128179583821
 30
0.0
 11
0.2822960012951814
 21
-0.0761157025737667
 31
0.0
  0
LINE
  5
195
330
A
100
AcDbEntity
  8
1
  6
solid
 62
     7
100
AcDbLine
 10
0.2822960012951814
 20
-0.0761157025737667
 30
0.0
 11
0.280273942471652
 21
-0.0774678660353052
 31
0.0
  0
LINE
  5
196
330
A
100
AcDbEntity
  8
1
  6
solid
 62
     7
100
AcDbLine
 10
0.280273942471652
 20
-0.0774678660353052
 30
0.0
 11
0.2778842365892991
 21
-0.0788200294968436
 31
0.0
  0
LINE
  5
197
330
A
100
AcDbEntity
  8
1
  6
solid
 62
     7
100
AcDbLine
 10
0.2778842365892991
 20
-0.0788200294968436
 30
0.0
 11
0.2745754130598873
 21
-0.0792707506506898
 31
0.0
  0
LINE
  5
198
330
A
100
AcDbEntity
  8
1
  6
solid
 62
     7
100
AcDbLine
 10
0.2745754130598873
 20
-0.0792707506506898
 30
0.0
 11
0.2725533542363578
 21
-0.0792707506506898
 31
0.0
  0
LINE
  5
199
330
A
100
AcDbEntity
  8
1
  6
solid
 62
     7
100
AcDbLine
 10
0.2725533542363578
 20
-0.0792707506506898
 30
0.0
 11
0.2686930601187108
 21
-0.0774678660353052
 31
0.0
  0
LINE
  5
19A
330
A
100
AcDbEntity
  8
1
  6
solid
 62
     7
100
AcDbLine
 10
0.2686930601187108
 20
-0.0774678660353052
 30
0.0
 11
0.2657518836481226
 21
-0.0756649814199206
 31
0.0
  0
LINE
  5
19B
330
A
100
AcDbEntity
  8
1
  6
solid
 62
     7
100
AcDbLine
 10
0.2657518836481226
 20
-0.0756649814199206
 30
0.0
 11
0.2637298248245932
 21
-0.0729606544968436
 31
0.0
  0
LINE
  5
19C
330
A
100
AcDbEntity
  8
1
  6
solid
 62
     7
100
AcDbLine
 10
0.2637298248245932
 20
-0.0729606544968436
 30
0.0
 11
0.2613401189422402
 21
-0.0689041641122283
 31
0.0
  0
LINE
  5
19D
330
A
100
AcDbEntity
  8
1
  6
solid
 62
     7
100
AcDbLine
 10
0.2613401189422402
 20
-0.0689041641122283
 30
0.0
 11
0.2602371777657697
 21
-0.0666505583429975
 31
0.0
  0
LINE
  5
19E
330
A
100
AcDbEntity
  8
1
  6
solid
 62
     7
100
AcDbLine
 10
0.2602371777657697
 20
-0.0666505583429975
 30
0.0
 11
0.2593180601187108
 21
-0.059439019881459
 31
0.0
  0
LINE
  5
19F
330
A
100
AcDbEntity
  8
1
  6
solid
 62
     7
100
AcDbLine
 10
0.2593180601187108
 20
-0.059439019881459
 30
0.0
 11
0.2510460012951814
 21
-0.059439019881459
 31
0.0
  0
LINE
  5
1A0
330
A
100
AcDbEntity
  8
1
  6
solid
 62
     7
100
AcDbLine
 10
0.3541710012951814
 20
0.0032112205031564
 30
0.0
 11
0.3144651189422402
 21
-0.0905387794968437
 31
0.0
  0
LINE
  5
1A1
330
A
100
AcDbEntity
  8
1
  6
solid
 62
     7
100
AcDbLine
 10
0.3144651189422402
 20
-0.0905387794968437
 30
0.0
 11
0.3072960012951814
 21
-0.0905387794968437
 31
0.0
  0
LINE
  5
1A2
330
A
100
AcDbEntity
  8
1
  6
solid
 62
     7
100
AcDbLine
 10
0.3072960012951814
 20
-0.0905387794968437
 30
0.0
 11
0.3470018836481226
 21
0.0032112205031564
 31
0.0
  0
LINE
  5
1A3
330
A
100
AcDbEntity
  8
1
  6
solid
 62
     7
100
AcDbLine
 10
0.3470018836481226
 20
0.0032112205031564
 30
0.0
 11
0.3541710012951814
 21
0.0032112205031564
 31
0.0
  0
LINE
  5
1A4
330
A
100
AcDbEntity
  8
1
  6
solid
 62
     7
100
AcDbLine
 10
0.3846857071775344
 20
-0.0905387794968437
 30
0.0
 11
0.3846857071775344
 21
-0.0783693083429975
 31
0.0
  0
LINE
  5
1A5
330
A
100
AcDbEntity
  8
1
  6
solid
 62
     7
100
AcDbLine
 10
0.3846857071775344
 20
-0.0783693083429975
 30
0.0
 11
0.3925901189422402
 21
-0.0783693083429975
 31
0.0
  0
LINE
  5
1A6
330
A
100
AcDbEntity
  8
1
  6
solid
 62
     7
100
AcDbLine
 10
0.3925901189422402
 20
-0.0783693083429975
 30
0.0
 11
0.3925901189422402
 21
-0.0675520006506898
 31
0.0
  0
LINE
  5
1A7
330
A
100
AcDbEntity
  8
1
  6
solid
 62
     7
100
AcDbLine
 10
0.3925901189422402
 20
-0.0675520006506898
 30
0.0
 11
0.3635460012951814
 21
-0.0675520006506898
 31
0.0
  0
LINE
  5
1A8
330
A
100
AcDbEntity
  8
1
  6
solid
 62
     7
100
AcDbLine
 10
0.3635460012951814
 20
-0.0675520006506898
 30
0.0
 11
0.3635460012951814
 21
-0.0558332506506898
 31
0.0
  0
LINE
  5
1A9
330
A
100
AcDbEntity
  8
1
  6
solid
 62
     7
100
AcDbLine
 10
0.3635460012951814
 20
-0.0558332506506898
 30
0.0
 11
0.3925901189422402
 21
0.0032112205031564
 31
0.0
  0
LINE
  5
1AA
330
A
100
AcDbEntity
  8
1
  6
solid
 62
     7
100
AcDbLine
 10
0.3925901189422402
 20
0.0032112205031564
 30
0.0
 11
0.4021489424716521
 21
0.0032112205031564
 31
0.0
  0
LINE
  5
1AB
330
A
100
AcDbEntity
  8
1
  6
solid
 62
     7
100
AcDbLine
 10
0.4021489424716521
 20
0.0032112205031564
 30
0.0
 11
0.4021489424716521
 21
-0.0553825294968436
 31
0.0
  0
LINE
  5
1AC
330
A
100
AcDbEntity
  8
1
  6
solid
 62
     7
100
AcDbLine
 10
0.4021489424716521
 20
-0.0553825294968436
 30
0.0
 11
0.4104210012951814
 21
-0.0553825294968436
 31
0.0
  0
LINE
  5
1AD
330
A
100
AcDbEntity
  8
1
  6
solid
 62
     7
100
AcDbLine
 10
0.4104210012951814
 20
-0.0553825294968436
 30
0.0
 11
0.4104210012951814
 21
-0.0675520006506898
 31
0.0
  0
LINE
  5
1AE
330
A
100
AcDbEntity
  8
1
  6
solid
 62
     7
100
AcDbLine
 10
0.4104210012951814
 20
-0.0675520006506898
 30
0.0
 11
0.4021489424716521
 21
-0.0675520006506898
 31
0.0
  0
LINE
  5
1AF
330
A
100
AcDbEntity
  8
1
  6
solid
 62
     7
100
AcDbLine
 10
0.4021489424716521
 20
-0.0675520006506898
 30
0.0
 11
0.4021489424716521
 21
-0.0783693083429975
 31
0.0
  0
LINE
  5
1B0
330
A
100
AcDbEntity
  8
1
  6
solid
 62
     7
100
AcDbLine
 10
0.4021489424716521
 20
-0.0783693083429975
 30
0.0
 11
0.4104210012951814
 21
-0.0783693083429975
 31
0.0
  0
LINE
  5
1B1
330
A
100
AcDbEntity
  8
1
  6
solid
 62
     7
100
AcDbLine
 10
0.4104210012951814
 20
-0.0783693083429975
 30
0.0
 11
0.4104210012951814
 21
-0.0905387794968437
 31
0.0
  0
LINE
  5
1B2
330
A
100
AcDbEntity
  8
1
  6
solid
 62
     7
100
AcDbLine
 10
0.4104210012951814
 20
-0.0905387794968437
 30
0.0
 11
0.3846857071775344
 21
-0.0905387794968437
 31
0.0
  0
LINE
  5
1B3
330
A
100
AcDbEntity
  8
1
  6
solid
 62
     7
100
AcDbLine
 10
0.3736562954128284
 20
-0.0553825294968436
 30
0.0
 11
0.3925901189422402
 21
-0.0166205102660744
 31
0.0
  0
LINE
  5
1B4
330
A
100
AcDbEntity
  8
1
  6
solid
 62
     7
100
AcDbLine
 10
0.3925901189422402
 20
-0.0166205102660744
 30
0.0
 11
0.3925901189422402
 21
-0.0553825294968436
 31
0.0
  0
LINE
  5
1B5
330
A
100
AcDbEntity
  8
1
  6
solid
 62
     7
100
AcDbLine
 10
0.3925901189422402
 20
-0.0553825294968436
 30
0.0
 11
0.3736562954128284
 21
-0.0553825294968436
 31
0.0
  0
LINE
  5
1B6
330
A
100
AcDbEntity
  8
1
  6
solid
 62
     7
100
AcDbLine
 10
0.4767812954128284
 20
0.0032112205031564
 30
0.0
 11
0.4767812954128284
 21
-0.0089582506506898
 31
0.0
  0
LINE
  5
1B7
330
A
100
AcDbEntity
  8
1
  6
solid
 62
     7
100
AcDbLine
 10
0.4767812954128284
 20
-0.0089582506506898
 30
0.0
 11
0.483398942471652
 21
-0.0089582506506898
 31
0.0
  0
LINE
  5
1B8
330
A
100
AcDbEntity
  8
1
  6
solid
 62
     7
100
AcDbLine
 10
0.483398942471652
 20
-0.0089582506506898
 30
0.0
 11
0.4957151189422403
 21
-0.0427623371891513
 31
0.0
  0
LINE
  5
1B9
330
A
100
AcDbEntity
  8
1
  6
solid
 62
     7
100
AcDbLine
 10
0.4957151189422403
 20
-0.0427623371891513
 30
0.0
 11
0.4821121777657697
 21
-0.0783693083429975
 31
0.0
  0
LINE
  5
1BA
330
A
100
AcDbEntity
  8
1
  6
solid
 62
     7
100
AcDbLine
 10
0.4821121777657697
 20
-0.0783693083429975
 30
0.0
 11
0.4760460012951814
 21
-0.0783693083429975
 31
0.0
  0
LINE
  5
1BB
330
A
100
AcDbEntity
  8
1
  6
solid
 62
     7
100
AcDbLine
 10
0.4760460012951814
 20
-0.0783693083429975
 30
0.0
 11
0.4760460012951814
 21
-0.0905387794968437
 31
0.0
  0
LINE
  5
1BC
330
A
100
AcDbEntity
  8
1
  6
solid
 62
     7
100
AcDbLine
 10
0.4760460012951814
 20
-0.0905387794968437
 30
0.0
 11
0.4957151189422403
 21
-0.0905387794968437
 31
0.0
  0
LINE
  5
1BD
330
A
100
AcDbEntity
  8
1
  6
solid
 62
     7
100
AcDbLine
 10
0.4957151189422403
 20
-0.0905387794968437
 30
0.0
 11
0.4957151189422403
 21
-0.0783693083429975
 31
0.0
  0
LINE
  5
1BE
330
A
100
AcDbEntity
  8
1
  6
solid
 62
     7
100
AcDbLine
 10
0.4957151189422403
 20
-0.0783693083429975
 30
0.0
 11
0.4905680601187108
 21
-0.0783693083429975
 31
0.0
  0
LINE
  5
1BF
330
A
100
AcDbEntity
  8
1
  6
solid
 62
     7
100
AcDbLine
 10
0.4905680601187108
 20
-0.0783693083429975
 30
0.0
 11
0.4995754130598873
 21
-0.053579644881459
 31
0.0
  0
LINE
  5
1C0
330
A
100
AcDbEntity
  8
1
  6
solid
 62
     7
100
AcDbLine
 10
0.4995754130598873
 20
-0.053579644881459
 30
0.0
 11
0.508398942471652
 21
-0.0783693083429975
 31
0.0
  0
LINE
  5
1C1
330
A
100
AcDbEntity
  8
1
  6
solid
 62
     7
100
AcDbLine
 10
0.508398942471652
 20
-0.0783693083429975
 30
0.0
 11
0.5036195307069461
 21
-0.0783693083429975
 31
0.0
  0
LINE
  5
1C2
330
A
100
AcDbEntity
  8
1
  6
solid
 62
     7
100
AcDbLine
 10
0.5036195307069461
 20
-0.0783693083429975
 30
0.0
 11
0.5036195307069461
 21
-0.0905387794968437
 31
0.0
  0
LINE
  5
1C3
330
A
100
AcDbEntity
  8
1
  6
solid
 62
     7
100
AcDbLine
 10
0.5036195307069461
 20
-0.0905387794968437
 30
0.0
 11
0.5229210012951814
 21
-0.0905387794968437
 31
0.0
  0
LINE
  5
1C4
330
A
100
AcDbEntity
  8
1
  6
solid
 62
     7
100
AcDbLine
 10
0.5229210012951814
 20
-0.0905387794968437
 30
0.0
 11
0.5229210012951814
 21
-0.0783693083429975
 31
0.0
  0
LINE
  5
1C5
330
A
100
AcDbEntity
  8
1
  6
solid
 62
     7
100
AcDbLine
 10
0.5229210012951814
 20
-0.0783693083429975
 30
0.0
 11
0.5168548248245931
 21
-0.0783693083429975
 31
0.0
  0
LINE
  5
1C6
330
A
100
AcDbEntity
  8
1
  6
solid
 62
     7
100
AcDbLine
 10
0.5168548248245931
 20
-0.0783693083429975
 30
0.0
 11
0.5036195307069461
 21
-0.0427623371891513
 31
0.0
  0
LINE
  5
1C7
330
A
100
AcDbEntity
  8
1
  6
solid
 62
     7
100
AcDbLine
 10
0.5036195307069461
 20
-0.0427623371891513
 30
0.0
 11
0.5155680601187109
 21
-0.0089582506506898
 31
0.0
  0
LINE
  5
1C8
330
A
100
AcDbEntity
  8
1
  6
solid
 62
     7
100
AcDbLine
 10
0.5155680601187109
 20
-0.0089582506506898
 30
0.0
 11
0.5221857071775343
 21
-0.0089582506506898
 31
0.0
  0
LINE
  5
1C9
330
A
100
AcDbEntity
  8
1
  6
solid
 62
     7
100
AcDbLine
 10
0.5221857071775343
 20
-0.0089582506506898
 30
0.0
 11
0.5221857071775343
 21
0.0032112205031564
 31
0.0
  0
LINE
  5
1CA
330
A
100
AcDbEntity
  8
1
  6
solid
 62
     7
100
AcDbLine
 10
0.5221857071775343
 20
0.0032112205031564
 30
0.0
 11
0.5025165895304755
 21
0.0032112205031564
 31
0.0
  0
LINE
  5
1CB
330
A
100
AcDbEntity
  8
1
  6
solid
 62
     7
100
AcDbLine
 10
0.5025165895304755
 20
0.0032112205031564
 30
0.0
 11
0.5025165895304755
 21
-0.0089582506506898
 31
0.0
  0
LINE
  5
1CC
330
A
100
AcDbEntity
  8
1
  6
solid
 62
     7
100
AcDbLine
 10
0.5025165895304755
 20
-0.0089582506506898
 30
0.0
 11
0.5074798248245932
 21
-0.0089582506506898
 31
0.0
  0
LINE
  5
1CD
330
A
100
AcDbEntity
  8
1
  6
solid
 62
     7
100
AcDbLine
 10
0.5074798248245932
 20
-0.0089582506506898
 30
0.0
 11
0.4995754130598873
 21
-0.0310435871891513
 31
0.0
  0
LINE
  5
1CE
330
A
100
AcDbEntity
  8
1
  6
solid
 62
     7
100
AcDbLine
 10
0.4995754130598873
 20
-0.0310435871891513
 30
0.0
 11
0.4914871777657697
 21
-0.0089582506506898
 31
0.0
  0
LINE
  5
1CF
330
A
100
AcDbEntity
  8
1
  6
solid
 62
     7
100
AcDbLine
 10
0.4914871777657697
 20
-0.0089582506506898
 30
0.0
 11
0.4964504130598873
 21
-0.0089582506506898
 31
0.0
  0
LINE
  5
1D0
330
A
100
AcDbEntity
  8
1
  6
solid
 62
     7
100
AcDbLine
 10
0.4964504130598873
 20
-0.0089582506506898
 30
0.0
 11
0.4964504130598873
 21
0.0032112205031564
 31
0.0
  0
LINE
  5
1D1
330
A
100
AcDbEntity
  8
1
  6
solid
 62
     7
100
AcDbLine
 10
0.4964504130598873
 20
0.0032112205031564
 30
0.0
 11
0.4767812954128284
 21
0.0032112205031564
 31
0.0
  0
LINE
  5
1D2
330
A
100
AcDbEntity
  8
1
  6
solid
 62
     7
100
AcDbLine
 10
0.5949798248245932
 20
-0.0905387794968437
 30
0.0
 11
0.5949798248245932
 21
-0.0783693083429975
 31
0.0
  0
LINE
  5
1D3
330
A
100
AcDbEntity
  8
1
  6
solid
 62
     7
100
AcDbLine
 10
0.5949798248245932
 20
-0.0783693083429975
 30
0.0
 11
0.6050901189422402
 21
-0.0783693083429975
 31
0.0
  0
LINE
  5
1D4
330
A
100
AcDbEntity
  8
1
  6
solid
 62
     7
100
AcDbLine
 10
0.6050901189422402
 20
-0.0783693083429975
 30
0.0
 11
0.6050901189422402
 21
-0.0089582506506898
 31
0.0
  0
LINE
  5
1D5
330
A
100
AcDbEntity
  8
1
  6
solid
 62
     7
100
AcDbLine
 10
0.6050901189422402
 20
-0.0089582506506898
 30
0.0
 11
0.5944283542363579
 21
-0.0089582506506898
 31
0.0
  0
LINE
  5
1D6
330
A
100
AcDbEntity
  8
1
  6
solid
 62
     7
100
AcDbLine
 10
0.5944283542363579
 20
-0.0089582506506898
 30
0.0
 11
0.5944283542363579
 21
0.0032112205031564
 31
0.0
  0
LINE
  5
1D7
330
A
100
AcDbEntity
  8
1
  6
solid
 62
     7
100
AcDbLine
 10
0.5944283542363579
 20
0.0032112205031564
 30
0.0
 11
0.6183254130598873
 21
0.0032112205031564
 31
0.0
  0
LINE
  5
1D8
330
A
100
AcDbEntity
  8
1
  6
solid
 62
     7
100
AcDbLine
 10
0.6183254130598873
 20
0.0032112205031564
 30
0.0
 11
0.6183254130598873
 21
-0.0783693083429975
 31
0.0
  0
LINE
  5
1D9
330
A
100
AcDbEntity
  8
1
  6
solid
 62
     7
100
AcDbLine
 10
0.6183254130598873
 20
-0.0783693083429975
 30
0.0
 11
0.6295386483540049
 21
-0.0783693083429975
 31
0.0
  0
LINE
  5
1DA
330
A
100
AcDbEntity
  8
1
  6
solid
 62
     7
100
AcDbLine
 10
0.6295386483540049
 20
-0.0783693083429975
 30
0.0
 11
0.6295386483540049
 21
-0.0905387794968437
 31
0.0
  0
LINE
  5
1DB
330
A
100
AcDbEntity
  8
1
  6
solid
 62
     7
100
AcDbLine
 10
0.6295386483540049
 20
-0.0905387794968437
 30
0.0
 11
0.5949798248245932
 21
-0.0905387794968437
 31
0.0
  0
LINE
  5
1DC
330
A
100
AcDbEntity
  8
1
  6
solid
 62
     7
100
AcDbLine
 10
0.6447960012951814
 20
-0.0698056064199206
 30
0.0
 11
0.6916710012951814
 21
-0.0698056064199206
 31
0.0
  0
LINE
  5
1DD
330
A
100
AcDbEntity
  8
1
  6
solid
 62
     7
100
AcDbLine
 10
0.6916710012951814
 20
-0.0698056064199206
 30
0.0
 11
0.6916710012951814
 21
-0.0499738756506898
 31
0.0
  0
LINE
  5
1DE
330
A
100
AcDbEntity
  8
1
  6
solid
 62
     7
100
AcDbLine
 10
0.6916710012951814
 20
-0.0499738756506898
 30
0.0
 11
0.6447960012951814
 21
-0.0499738756506898
 31
0.0
  0
LINE
  5
1DF
330
A
100
AcDbEntity
  8
1
  6
solid
 62
     7
100
AcDbLine
 10
0.6447960012951814
 20
-0.0499738756506898
 30
0.0
 11
0.6447960012951814
 21
-0.0698056064199206
 31
0.0
  0
LINE
  5
1E0
330
A
100
AcDbEntity
  8
1
  6
solid
 62
     7
100
AcDbLine
 10
0.7010460012951814
 20
-0.0643969525737667
 30
0.0
 11
0.7025165895304755
 21
-0.0707070487276129
 31
0.0
  0
LINE
  5
1E1
330
A
100
AcDbEntity
  8
1
  6
solid
 62
     7
100
AcDbLine
 10
0.7025165895304755
 20
-0.0707070487276129
 30
0.0
 11
0.7049062954128285
 21
-0.0761157025737667
 31
0.0
  0
LINE
  5
1E2
330
A
100
AcDbEntity
  8
1
  6
solid
 62
     7
100
AcDbLine
 10
0.7049062954128285
 20
-0.0761157025737667
 30
0.0
 11
0.7076636483540049
 21
-0.0806229141122283
 31
0.0
  0
LINE
  5
1E3
330
A
100
AcDbEntity
  8
1
  6
solid
 62
     7
100
AcDbLine
 10
0.7076636483540049
 20
-0.0806229141122283
 30
0.0
 11
0.7106048248245931
 21
-0.0846794044968437
 31
0.0
  0
LINE
  5
1E4
330
A
100
AcDbEntity
  8
1
  6
solid
 62
     7
100
AcDbLine
 10
0.7106048248245931
 20
-0.0846794044968437
 30
0.0
 11
0.7142812954128285
 21
-0.0873837314199206
 31
0.0
  0
LINE
  5
1E5
330
A
100
AcDbEntity
  8
1
  6
solid
 62
     7
100
AcDbLine
 10
0.7142812954128285
 20
-0.0873837314199206
 30
0.0
 11
0.7185092365892992
 21
-0.0891866160353052
 31
0.0
  0
LINE
  5
1E6
330
A
100
AcDbEntity
  8
1
  6
solid
 62
     7
100
AcDbLine
 10
0.7185092365892992
 20
-0.0891866160353052
 30
0.0
 11
0.7232886483540049
 21
-0.0905387794968437
 31
0.0
  0
LINE
  5
1E7
330
A
100
AcDbEntity
  8
1
  6
solid
 62
     7
100
AcDbLine
 10
0.7232886483540049
 20
-0.0905387794968437
 30
0.0
 11
0.7262298248245931
 21
-0.0905387794968437
 31
0.0
  0
LINE
  5
1E8
330
A
100
AcDbEntity
  8
1
  6
solid
 62
     7
100
AcDbLine
 10
0.7262298248245931
 20
-0.0905387794968437
 30
0.0
 11
0.7322960012951814
 21
-0.0887358948814591
 31
0.0
  0
LINE
  5
1E9
330
A
100
AcDbEntity
  8
1
  6
solid
 62
     7
100
AcDbLine
 10
0.7322960012951814
 20
-0.0887358948814591
 30
0.0
 11
0.7370754130598872
 21
-0.0851301256506898
 31
0.0
  0
LINE
  5
1EA
330
A
100
AcDbEntity
  8
1
  6
solid
 62
     7
100
AcDbLine
 10
0.7370754130598872
 20
-0.0851301256506898
 30
0.0
 11
0.7407518836481226
 21
-0.0810736352660744
 31
0.0
  0
LINE
  5
1EB
330
A
100
AcDbEntity
  8
1
  6
solid
 62
     7
100
AcDbLine
 10
0.7407518836481226
 20
-0.0810736352660744
 30
0.0
 11
0.7440607071775344
 21
-0.0761157025737667
 31
0.0
  0
LINE
  5
1EC
330
A
100
AcDbEntity
  8
1
  6
solid
 62
     7
100
AcDbLine
 10
0.7440607071775344
 20
-0.0761157025737667
 30
0.0
 11
0.7464504130598872
 21
-0.0693548852660744
 31
0.0
  0
LINE
  5
1ED
330
A
100
AcDbEntity
  8
1
  6
solid
 62
     7
100
AcDbLine
 10
0.7464504130598872
 20
-0.0693548852660744
 30
0.0
 11
0.7473695307069461
 21
-0.0639462314199206
 31
0.0
  0
LINE
  5
1EE
330
A
100
AcDbEntity
  8
1
  6
solid
 62
     7
100
AcDbLine
 10
0.7473695307069461
 20
-0.0639462314199206
 30
0.0
 11
0.7479210012951814
 21
-0.059439019881459
 31
0.0
  0
LINE
  5
1EF
330
A
100
AcDbEntity
  8
1
  6
solid
 62
     7
100
AcDbLine
 10
0.7479210012951814
 20
-0.059439019881459
 30
0.0
 11
0.7479210012951814
 21
-0.0544810871891513
 31
0.0
  0
LINE
  5
1F0
330
A
100
AcDbEntity
  8
1
  6
solid
 62
     7
100
AcDbLine
 10
0.7479210012951814
 20
-0.0544810871891513
 30
0.0
 11
0.7470018836481226
 21
-0.0468188275737667
 31
0.0
  0
LINE
  5
1F1
330
A
100
AcDbEntity
  8
1
  6
solid
 62
     7
100
AcDbLine
 10
0.7470018836481226
 20
-0.0468188275737667
 30
0.0
 11
0.7446121777657697
 21
-0.0400580102660744
 31
0.0
  0
LINE
  5
1F2
330
A
100
AcDbEntity
  8
1
  6
solid
 62
     7
100
AcDbLine
 10
0.7446121777657697
 20
-0.0400580102660744
 30
0.0
 11
0.742773942471652
 21
-0.036001519881459
 31
0.0
  0
LINE
  5
1F3
330
A
100
AcDbEntity
  8
1
  6
solid
 62
     7
100
AcDbLine
 10
0.742773942471652
 20
-0.036001519881459
 30
0.0
 11
0.7398327660010638
 21
-0.0319450294968436
 31
0.0
  0
LINE
  5
1F4
330
A
100
AcDbEntity
  8
1
  6
solid
 62
     7
100
AcDbLine
 10
0.7398327660010638
 20
-0.0319450294968436
 30
0.0
 11
0.7365239424716519
 21
-0.0287899814199206
 31
0.0
  0
LINE
  5
1F5
330
A
100
AcDbEntity
  8
1
  6
solid
 62
     7
100
AcDbLine
 10
0.7365239424716519
 20
-0.0287899814199206
 30
0.0
 11
0.7332151189422403
 21
-0.0260856544968436
 31
0.0
  0
LINE
  5
1F6
330
A
100
AcDbEntity
  8
1
  6
solid
 62
     7
100
AcDbLine
 10
0.7332151189422403
 20
-0.0260856544968436
 30
0.0
 11
0.7299062954128284
 21
-0.0247334910353052
 31
0.0
  0
LINE
  5
1F7
330
A
100
AcDbEntity
  8
1
  6
solid
 62
     7
100
AcDbLine
 10
0.7299062954128284
 20
-0.0247334910353052
 30
0.0
 11
0.7251268836481226
 21
-0.0238320487276129
 31
0.0
  0
LINE
  5
1F8
330
A
100
AcDbEntity
  8
1
  6
solid
 62
     7
100
AcDbLine
 10
0.7251268836481226
 20
-0.0238320487276129
 30
0.0
 11
0.7223695307069461
 21
-0.0238320487276129
 31
0.0
  0
LINE
  5
1F9
330
A
100
AcDbEntity
  8
1
  6
solid
 62
     7
100
AcDbLine
 10
0.7223695307069461
 20
-0.0238320487276129
 30
0.0
 11
0.7185092365892992
 21
-0.0247334910353052
 31
0.0
  0
LINE
  5
1FA
330
A
100
AcDbEntity
  8
1
  6
solid
 62
     7
100
AcDbLine
 10
0.7185092365892992
 20
-0.0247334910353052
 30
0.0
 11
0.7152004130598872
 21
-0.0260856544968436
 31
0.0
  0
LINE
  5
1FB
330
A
100
AcDbEntity
  8
1
  6
solid
 62
     7
100
AcDbLine
 10
0.7152004130598872
 20
-0.0260856544968436
 30
0.0
 11
0.7133621777657698
 21
-0.0274378179583821
 31
0.0
  0
LINE
  5
1FC
330
A
100
AcDbEntity
  8
1
  6
solid
 62
     7
100
AcDbLine
 10
0.7133621777657698
 20
-0.0274378179583821
 30
0.0
 11
0.7166710012951814
 21
-0.0080568083429975
 31
0.0
  0
LINE
  5
1FD
330
A
100
AcDbEntity
  8
1
  6
solid
 62
     7
100
AcDbLine
 10
0.7166710012951814
 20
-0.0080568083429975
 30
0.0
 11
0.7398327660010638
 21
-0.0080568083429975
 31
0.0
  0
LINE
  5
1FE
330
A
100
AcDbEntity
  8
1
  6
solid
 62
     7
100
AcDbLine
 10
0.7398327660010638
 20
-0.0080568083429975
 30
0.0
 11
0.7398327660010638
 21
0.0032112205031564
 31
0.0
  0
LINE
  5
1FF
330
A
100
AcDbEntity
  8
1
  6
solid
 62
     7
100
AcDbLine
 10
0.7398327660010638
 20
0.0032112205031564
 30
0.0
 11
0.7106048248245931
 21
0.0032112205031564
 31
0.0
  0
LINE
  5
200
330
A
100
AcDbEntity
  8
1
  6
solid
 62
     7
100
AcDbLine
 10
0.7106048248245931
 20
0.0032112205031564
 30
0.0
 11
0.7010460012951814
 21
-0.0495231544968436
 31
0.0
  0
LINE
  5
201
330
A
100
AcDbEntity
  8
1
  6
solid
 62
     7
100
AcDbLine
 10
0.7010460012951814
 20
-0.0495231544968436
 30
0.0
 11
0.709134236589299
 21
-0.0517767602660744
 31
0.0
  0
LINE
  5
202
330
A
100
AcDbEntity
  8
1
  6
solid
 62
     7
100
AcDbLine
 10
0.709134236589299
 20
-0.0517767602660744
 30
0.0
 11
0.7100533542363579
 21
-0.0481709910353052
 31
0.0
  0
LINE
  5
203
330
A
100
AcDbEntity
  8
1
  6
solid
 62
     7
100
AcDbLine
 10
0.7100533542363579
 20
-0.0481709910353052
 30
0.0
 11
0.711523942471652
 21
-0.0445652218045359
 31
0.0
  0
LINE
  5
204
330
A
100
AcDbEntity
  8
1
  6
solid
 62
     7
100
AcDbLine
 10
0.711523942471652
 20
-0.0445652218045359
 30
0.0
 11
0.7133621777657698
 21
-0.0414101737276129
 31
0.0
  0
LINE
  5
205
330
A
100
AcDbEntity
  8
1
  6
solid
 62
     7
100
AcDbLine
 10
0.7133621777657698
 20
-0.0414101737276129
 30
0.0
 11
0.7157518836481226
 21
-0.038705846804536
 31
0.0
  0
LINE
  5
206
330
A
100
AcDbEntity
  8
1
  6
solid
 62
     7
100
AcDbLine
 10
0.7157518836481226
 20
-0.038705846804536
 30
0.0
 11
0.7185092365892992
 21
-0.0369029621891513
 31
0.0
  0
LINE
  5
207
330
A
100
AcDbEntity
  8
1
  6
solid
 62
     7
100
AcDbLine
 10
0.7185092365892992
 20
-0.0369029621891513
 30
0.0
 11
0.7218180601187108
 21
-0.0355507987276129
 31
0.0
  0
LINE
  5
208
330
A
100
AcDbEntity
  8
1
  6
solid
 62
     7
100
AcDbLine
 10
0.7218180601187108
 20
-0.0355507987276129
 30
0.0
 11
0.7251268836481226
 21
-0.0355507987276129
 31
0.0
  0
LINE
  5
209
330
A
100
AcDbEntity
  8
1
  6
solid
 62
     7
100
AcDbLine
 10
0.7251268836481226
 20
-0.0355507987276129
 30
0.0
 11
0.7289871777657697
 21
-0.036001519881459
 31
0.0
  0
LINE
  5
20A
330
A
100
AcDbEntity
  8
1
  6
solid
 62
     7
100
AcDbLine
 10
0.7289871777657697
 20
-0.036001519881459
 30
0.0
 11
0.7317445307069461
 21
-0.0378044044968436
 31
0.0
  0
LINE
  5
20B
330
A
100
AcDbEntity
  8
1
  6
solid
 62
     7
100
AcDbLine
 10
0.7317445307069461
 20
-0.0378044044968436
 30
0.0
 11
0.734134236589299
 21
-0.0400580102660744
 31
0.0
  0
LINE
  5
20C
330
A
100
AcDbEntity
  8
1
  6
solid
 62
     7
100
AcDbLine
 10
0.734134236589299
 20
-0.0400580102660744
 30
0.0
 11
0.7365239424716519
 21
-0.0432130583429975
 31
0.0
  0
LINE
  5
20D
330
A
100
AcDbEntity
  8
1
  6
solid
 62
     7
100
AcDbLine
 10
0.7365239424716519
 20
-0.0432130583429975
 30
0.0
 11
0.7383621777657697
 21
-0.0472695487276129
 31
0.0
  0
LINE
  5
20E
330
A
100
AcDbEntity
  8
1
  6
solid
 62
     7
100
AcDbLine
 10
0.7383621777657697
 20
-0.0472695487276129
 30
0.0
 11
0.7394651189422402
 21
-0.0513260391122283
 31
0.0
  0
LINE
  5
20F
330
A
100
AcDbEntity
  8
1
  6
solid
 62
     7
100
AcDbLine
 10
0.7394651189422402
 20
-0.0513260391122283
 30
0.0
 11
0.7398327660010638
 21
-0.0553825294968436
 31
0.0
  0
LINE
  5
210
330
A
100
AcDbEntity
  8
1
  6
solid
 62
     7
100
AcDbLine
 10
0.7398327660010638
 20
-0.0553825294968436
 30
0.0
 11
0.7398327660010638
 21
-0.0585375775737667
 31
0.0
  0
LINE
  5
211
330
A
100
AcDbEntity
  8
1
  6
solid
 62
     7
100
AcDbLine
 10
0.7398327660010638
 20
-0.0585375775737667
 30
0.0
 11
0.738913648354005
 21
-0.0639462314199206
 31
0.0
  0
LINE
  5
212
330
A
100
AcDbEntity
  8
1
  6
solid
 62
     7
100
AcDbLine
 10
0.738913648354005
 20
-0.0639462314199206
 30
0.0
 11
0.7374430601187109
 21
-0.0684534429583821
 31
0.0
  0
LINE
  5
213
330
A
100
AcDbEntity
  8
1
  6
solid
 62
     7
100
AcDbLine
 10
0.7374430601187109
 20
-0.0684534429583821
 30
0.0
 11
0.7350533542363578
 21
-0.0725099333429975
 31
0.0
  0
LINE
  5
214
330
A
100
AcDbEntity
  8
1
  6
solid
 62
     7
100
AcDbLine
 10
0.7350533542363578
 20
-0.0725099333429975
 30
0.0
 11
0.7328474718834166
 21
-0.0752142602660744
 31
0.0
  0
LINE
  5
215
330
A
100
AcDbEntity
  8
1
  6
solid
 62
     7
100
AcDbLine
 10
0.7328474718834166
 20
-0.0752142602660744
 30
0.0
 11
0.7299062954128284
 21
-0.077017144881459
 31
0.0
  0
LINE
  5
216
330
A
100
AcDbEntity
  8
1
  6
solid
 62
     7
100
AcDbLine
 10
0.7299062954128284
 20
-0.077017144881459
 30
0.0
 11
0.7265974718834168
 21
-0.0783693083429975
 31
0.0
  0
LINE
  5
217
330
A
100
AcDbEntity
  8
1
  6
solid
 62
     7
100
AcDbLine
 10
0.7265974718834168
 20
-0.0783693083429975
 30
0.0
 11
0.7232886483540049
 21
-0.0783693083429975
 31
0.0
  0
LINE
  5
218
330
A
100
AcDbEntity
  8
1
  6
solid
 62
     7
100
AcDbLine
 10
0.7232886483540049
 20
-0.0783693083429975
 30
0.0
 11
0.7194283542363579
 21
-0.0779185871891513
 31
0.0
  0
LINE
  5
219
330
A
100
AcDbEntity
  8
1
  6
solid
 62
     7
100
AcDbLine
 10
0.7194283542363579
 20
-0.0779185871891513
 30
0.0
 11
0.7157518836481226
 21
-0.0752142602660744
 31
0.0
  0
LINE
  5
21A
330
A
100
AcDbEntity
  8
1
  6
solid
 62
     7
100
AcDbLine
 10
0.7157518836481226
 20
-0.0752142602660744
 30
0.0
 11
0.7133621777657698
 21
-0.0725099333429975
 31
0.0
  0
LINE
  5
21B
330
A
100
AcDbEntity
  8
1
  6
solid
 62
     7
100
AcDbLine
 10
0.7133621777657698
 20
-0.0725099333429975
 30
0.0
 11
0.7109724718834167
 21
-0.0684534429583821
 31
0.0
  0
LINE
  5
21C
330
A
100
AcDbEntity
  8
1
  6
solid
 62
     7
100
AcDbLine
 10
0.7109724718834167
 20
-0.0684534429583821
 30
0.0
 11
0.7095018836481226
 21
-0.0643969525737667
 31
0.0
  0
LINE
  5
21D
330
A
100
AcDbEntity
  8
1
  6
solid
 62
     7
100
AcDbLine
 10
0.7095018836481226
 20
-0.0643969525737667
 30
0.0
 11
0.7010460012951814
 21
-0.0643969525737667
 31
0.0
  0
LINE
  5
21E
330
A
100
AcDbEntity
  8
1
  6
solid
 62
     7
100
AcDbLine
 10
0.8041710012951813
 20
0.0032112205031564
 30
0.0
 11
0.7644651189422401
 21
-0.0905387794968437
 31
0.0
  0
LINE
  5
21F
330
A
100
AcDbEntity
  8
1
  6
solid
 62
     7
100
AcDbLine
 10
0.7644651189422401
 20
-0.0905387794968437
 30
0.0
 11
0.7572960012951814
 21
-0.0905387794968437
 31
0.0
  0
LINE
  5
220
330
A
100
AcDbEntity
  8
1
  6
solid
 62
     7
100
AcDbLine
 10
0.7572960012951814
 20
-0.0905387794968437
 30
0.0
 11
0.7970018836481226
 21
0.0032112205031564
 31
0.0
  0
LINE
  5
221
330
A
100
AcDbEntity
  8
1
  6
solid
 62
     7
100
AcDbLine
 10
0.7970018836481226
 20
0.0032112205031564
 30
0.0
 11
0.8041710012951813
 21
0.0032112205031564
 31
0.0
  0
LINE
  5
222
330
A
100
AcDbEntity
  8
1
  6
solid
 62
     7
100
AcDbLine
 10
0.8247592365892989
 20
-0.0351000775737667
 30
0.0
 11
0.8221857071775342
 21
-0.0378044044968436
 31
0.0
  0
LINE
  5
223
330
A
100
AcDbEntity
  8
1
  6
solid
 62
     7
100
AcDbLine
 10
0.8221857071775342
 20
-0.0378044044968436
 30
0.0
 11
0.8196121777657696
 21
-0.0409594525737667
 31
0.0
  0
LINE
  5
224
330
A
100
AcDbEntity
  8
1
  6
solid
 62
     7
100
AcDbLine
 10
0.8196121777657696
 20
-0.0409594525737667
 30
0.0
 11
0.81759011894224
 21
-0.0441145006506898
 31
0.0
  0
LINE
  5
225
330
A
100
AcDbEntity
  8
1
  6
solid
 62
     7
100
AcDbLine
 10
0.81759011894224
 20
-0.0441145006506898
 30
0.0
 11
0.8161195307069458
 21
-0.047720269881459
 31
0.0
  0
LINE
  5
226
330
A
100
AcDbEntity
  8
1
  6
solid
 62
     7
100
AcDbLine
 10
0.8161195307069458
 20
-0.047720269881459
 30
0.0
 11
0.8150165895304754
 21
-0.0508753179583821
 31
0.0
  0
LINE
  5
227
330
A
100
AcDbEntity
  8
1
  6
solid
 62
     7
100
AcDbLine
 10
0.8150165895304754
 20
-0.0508753179583821
 30
0.0
 11
0.8140974718834165
 21
-0.0553825294968436
 31
0.0
  0
LINE
  5
228
330
A
100
AcDbEntity
  8
1
  6
solid
 62
     7
100
AcDbLine
 10
0.8140974718834165
 20
-0.0553825294968436
 30
0.0
 11
0.8135460012951812
 21
-0.0585375775737667
 31
0.0
  0
LINE
  5
229
330
A
100
AcDbEntity
  8
1
  6
solid
 62
     7
100
AcDbLine
 10
0.8135460012951812
 20
-0.0585375775737667
 30
0.0
 11
0.8135460012951812
 21
-0.0607911833429975
 31
0.0
  0
LINE
  5
22A
330
A
100
AcDbEntity
  8
1
  6
solid
 62
     7
100
AcDbLine
 10
0.8135460012951812
 20
-0.0607911833429975
 30
0.0
 11
0.8140974718834165
 21
-0.0643969525737667
 31
0.0
  0
LINE
  5
22B
330
A
100
AcDbEntity
  8
1
  6
solid
 62
     7
100
AcDbLine
 10
0.8140974718834165
 20
-0.0643969525737667
 30
0.0
 11
0.8146489424716518
 21
-0.0684534429583821
 31
0.0
  0
LINE
  5
22C
330
A
100
AcDbEntity
  8
1
  6
solid
 62
     7
100
AcDbLine
 10
0.8146489424716518
 20
-0.0684534429583821
 30
0.0
 11
0.8155680601187107
 21
-0.0725099333429975
 31
0.0
  0
LINE
  5
22D
330
A
100
AcDbEntity
  8
1
  6
solid
 62
     7
100
AcDbLine
 10
0.8155680601187107
 20
-0.0725099333429975
 30
0.0
 11
0.81759011894224
 21
-0.0774678660353052
 31
0.0
  0
LINE
  5
22E
330
A
100
AcDbEntity
  8
1
  6
solid
 62
     7
100
AcDbLine
 10
0.81759011894224
 20
-0.0774678660353052
 30
0.0
 11
0.82071511894224
 21
-0.0815243564199206
 31
0.0
  0
LINE
  5
22F
330
A
100
AcDbEntity
  8
1
  6
solid
 62
     7
100
AcDbLine
 10
0.82071511894224
 20
-0.0815243564199206
 30
0.0
 11
0.8232886483540047
 21
-0.0846794044968437
 31
0.0
  0
LINE
  5
230
330
A
100
AcDbEntity
  8
1
  6
solid
 62
     7
100
AcDbLine
 10
0.8232886483540047
 20
-0.0846794044968437
 30
0.0
 11
0.8278842365892989
 21
-0.0878344525737667
 31
0.0
  0
LINE
  5
231
330
A
100
AcDbEntity
  8
1
  6
solid
 62
     7
100
AcDbLine
 10
0.8278842365892989
 20
-0.0878344525737667
 30
0.0
 11
0.8324798248245929
 21
-0.0900880583429975
 31
0.0
  0
LINE
  5
232
330
A
100
AcDbEntity
  8
1
  6
solid
 62
     7
100
AcDbLine
 10
0.8324798248245929
 20
-0.0900880583429975
 30
0.0
 11
0.8359724718834165
 21
-0.0905387794968437
 31
0.0
  0
LINE
  5
233
330
A
100
AcDbEntity
  8
1
  6
solid
 62
     7
100
AcDbLine
 10
0.8359724718834165
 20
-0.0905387794968437
 30
0.0
 11
0.8400165895304754
 21
-0.0905387794968437
 31
0.0
  0
LINE
  5
234
330
A
100
AcDbEntity
  8
1
  6
solid
 62
     7
100
AcDbLine
 10
0.8400165895304754
 20
-0.0905387794968437
 30
0.0
 11
0.8440607071775342
 21
-0.0891866160353052
 31
0.0
  0
LINE
  5
235
330
A
100
AcDbEntity
  8
1
  6
solid
 62
     7
100
AcDbLine
 10
0.8440607071775342
 20
-0.0891866160353052
 30
0.0
 11
0.8486562954128283
 21
-0.0860315679583821
 31
0.0
  0
LINE
  5
236
330
A
100
AcDbEntity
  8
1
  6
solid
 62
     7
100
AcDbLine
 10
0.8486562954128283
 20
-0.0860315679583821
 30
0.0
 11
0.8532518836481225
 21
-0.0819750775737667
 31
0.0
  0
LINE
  5
237
330
A
100
AcDbEntity
  8
1
  6
solid
 62
     7
100
AcDbLine
 10
0.8532518836481225
 20
-0.0819750775737667
 30
0.0
 11
0.8563768836481225
 21
-0.077017144881459
 31
0.0
  0
LINE
  5
238
330
A
100
AcDbEntity
  8
1
  6
solid
 62
     7
100
AcDbLine
 10
0.8563768836481225
 20
-0.077017144881459
 30
0.0
 11
0.8583989424716518
 21
-0.0716084910353052
 31
0.0
  0
LINE
  5
239
330
A
100
AcDbEntity
  8
1
  6
solid
 62
     7
100
AcDbLine
 10
0.8583989424716518
 20
-0.0716084910353052
 30
0.0
 11
0.8593180601187107
 21
-0.0689041641122283
 31
0.0
  0
LINE
  5
23A
330
A
100
AcDbEntity
  8
1
  6
solid
 62
     7
100
AcDbLine
 10
0.8593180601187107
 20
-0.0689041641122283
 30
0.0
 11
0.8604210012951812
 21
-0.0630447891122283
 31
0.0
  0
LINE
  5
23B
330
A
100
AcDbEntity
  8
1
  6
solid
 62
     7
100
AcDbLine
 10
0.8604210012951812
 20
-0.0630447891122283
 30
0.0
 11
0.8604210012951812
 21
-0.0580868564199206
 31
0.0
  0
LINE
  5
23C
330
A
100
AcDbEntity
  8
1
  6
solid
 62
     7
100
AcDbLine
 10
0.8604210012951812
 20
-0.0580868564199206
 30
0.0
 11
0.8593180601187107
 21
-0.0522274814199206
 31
0.0
  0
LINE
  5
23D
330
A
100
AcDbEntity
  8
1
  6
solid
 62
     7
100
AcDbLine
 10
0.8593180601187107
 20
-0.0522274814199206
 30
0.0
 11
0.8578474718834165
 21
-0.047720269881459
 31
0.0
  0
LINE
  5
23E
330
A
100
AcDbEntity
  8
1
  6
solid
 62
     7
100
AcDbLine
 10
0.8578474718834165
 20
-0.047720269881459
 30
0.0
 11
0.8558254130598871
 21
-0.0423116160353052
 31
0.0
  0
LINE
  5
23F
330
A
100
AcDbEntity
  8
1
  6
solid
 62
     7
100
AcDbLine
 10
0.8558254130598871
 20
-0.0423116160353052
 30
0.0
 11
0.8532518836481225
 21
-0.0391565679583821
 31
0.0
  0
LINE
  5
240
330
A
100
AcDbEntity
  8
1
  6
solid
 62
     7
100
AcDbLine
 10
0.8532518836481225
 20
-0.0391565679583821
 30
0.0
 11
0.8506783542363578
 21
-0.0364522410353052
 31
0.0
  0
LINE
  5
241
330
A
100
AcDbEntity
  8
1
  6
solid
 62
     7
100
AcDbLine
 10
0.8506783542363578
 20
-0.0364522410353052
 30
0.0
 11
0.8492077660010636
 21
-0.0351000775737667
 31
0.0
  0
LINE
  5
242
330
A
100
AcDbEntity
  8
1
  6
solid
 62
     7
100
AcDbLine
 10
0.8492077660010636
 20
-0.0351000775737667
 30
0.0
 11
0.8517812954128284
 21
-0.0319450294968436
 31
0.0
  0
LINE
  5
243
330
A
100
AcDbEntity
  8
1
  6
solid
 62
     7
100
AcDbLine
 10
0.8517812954128284
 20
-0.0319450294968436
 30
0.0
 11
0.8532518836481225
 21
-0.0287899814199206
 31
0.0
  0
LINE
  5
244
330
A
100
AcDbEntity
  8
1
  6
solid
 62
     7
100
AcDbLine
 10
0.8532518836481225
 20
-0.0287899814199206
 30
0.0
 11
0.8543548248245931
 21
-0.0256349333429975
 31
0.0
  0
LINE
  5
245
330
A
100
AcDbEntity
  8
1
  6
solid
 62
     7
100
AcDbLine
 10
0.8543548248245931
 20
-0.0256349333429975
 30
0.0
 11
0.8549062954128283
 21
-0.0206770006506898
 31
0.0
  0
LINE
  5
246
330
A
100
AcDbEntity
  8
1
  6
solid
 62
     7
100
AcDbLine
 10
0.8549062954128283
 20
-0.0206770006506898
 30
0.0
 11
0.8549062954128283
 21
-0.0170712314199206
 31
0.0
  0
LINE
  5
247
330
A
100
AcDbEntity
  8
1
  6
solid
 62
     7
100
AcDbLine
 10
0.8549062954128283
 20
-0.0170712314199206
 30
0.0
 11
0.8543548248245931
 21
-0.0139161833429975
 31
0.0
  0
LINE
  5
248
330
A
100
AcDbEntity
  8
1
  6
solid
 62
     7
100
AcDbLine
 10
0.8543548248245931
 20
-0.0139161833429975
 30
0.0
 11
0.8532518836481225
 21
-0.0103104141122283
 31
0.0
  0
LINE
  5
249
330
A
100
AcDbEntity
  8
1
  6
solid
 62
     7
100
AcDbLine
 10
0.8532518836481225
 20
-0.0103104141122283
 30
0.0
 11
0.8517812954128284
 21
-0.006704644881459
 31
0.0
  0
LINE
  5
24A
330
A
100
AcDbEntity
  8
1
  6
solid
 62
     7
100
AcDbLine
 10
0.8517812954128284
 20
-0.006704644881459
 30
0.0
 11
0.8503107071775342
 21
-0.0040003179583821
 31
0.0
  0
LINE
  5
24B
330
A
100
AcDbEntity
  8
1
  6
solid
 62
     7
100
AcDbLine
 10
0.8503107071775342
 20
-0.0040003179583821
 30
0.0
 11
0.8477371777657694
 21
-0.0012959910353052
 31
0.0
  0
LINE
  5
24C
330
A
100
AcDbEntity
  8
1
  6
solid
 62
     7
100
AcDbLine
 10
0.8477371777657694
 20
-0.0012959910353052
 30
0.0
 11
0.84571511894224
 21
0.0005068935800795
 31
0.0
  0
LINE
  5
24D
330
A
100
AcDbEntity
  8
1
  6
solid
 62
     7
100
AcDbLine
 10
0.84571511894224
 20
0.0005068935800795
 30
0.0
 11
0.8431415895304754
 21
0.0018590570416179
 31
0.0
  0
LINE
  5
24E
330
A
100
AcDbEntity
  8
1
  6
solid
 62
     7
100
AcDbLine
 10
0.8431415895304754
 20
0.0018590570416179
 30
0.0
 11
0.83946511894224
 21
0.0032112205031564
 31
0.0
  0
LINE
  5
24F
330
A
100
AcDbEntity
  8
1
  6
solid
 62
     7
100
AcDbLine
 10
0.83946511894224
 20
0.0032112205031564
 30
0.0
 11
0.8354210012951812
 21
0.0032112205031564
 31
0.0
  0
LINE
  5
250
330
A
100
AcDbEntity
  8
1
  6
solid
 62
     7
100
AcDbLine
 10
0.8354210012951812
 20
0.0032112205031564
 30
0.0
 11
0.8308254130598871
 21
0.0018590570416179
 31
0.0
  0
LINE
  5
251
330
A
100
AcDbEntity
  8
1
  6
solid
 62
     7
100
AcDbLine
 10
0.8308254130598871
 20
0.0018590570416179
 30
0.0
 11
0.8267812954128284
 21
-0.000845269881459
 31
0.0
  0
LINE
  5
252
330
A
100
AcDbEntity
  8
1
  6
solid
 62
     7
100
AcDbLine
 10
0.8267812954128284
 20
-0.000845269881459
 30
0.0
 11
0.8242077660010636
 21
-0.0030988756506898
 31
0.0
  0
LINE
  5
253
330
A
100
AcDbEntity
  8
1
  6
solid
 62
     7
100
AcDbLine
 10
0.8242077660010636
 20
-0.0030988756506898
 30
0.0
 11
0.8221857071775342
 21
-0.006704644881459
 31
0.0
  0
LINE
  5
254
330
A
100
AcDbEntity
  8
1
  6
solid
 62
     7
100
AcDbLine
 10
0.8221857071775342
 20
-0.006704644881459
 30
0.0
 11
0.82071511894224
 21
-0.0103104141122283
 31
0.0
  0
LINE
  5
255
330
A
100
AcDbEntity
  8
1
  6
solid
 62
     7
100
AcDbLine
 10
0.82071511894224
 20
-0.0103104141122283
 30
0.0
 11
0.8196121777657696
 21
-0.0143669044968436
 31
0.0
  0
LINE
  5
256
330
A
100
AcDbEntity
  8
1
  6
solid
 62
     7
100
AcDbLine
 10
0.8196121777657696
 20
-0.0143669044968436
 30
0.0
 11
0.8190607071775342
 21
-0.0170712314199206
 31
0.0
  0
LINE
  5
257
330
A
100
AcDbEntity
  8
1
  6
solid
 62
     7
100
AcDbLine
 10
0.8190607071775342
 20
-0.0170712314199206
 30
0.0
 11
0.8190607071775342
 21
-0.0202262794968436
 31
0.0
  0
LINE
  5
258
330
A
100
AcDbEntity
  8
1
  6
solid
 62
     7
100
AcDbLine
 10
0.8190607071775342
 20
-0.0202262794968436
 30
0.0
 11
0.8196121777657696
 21
-0.024282769881459
 31
0.0
  0
LINE
  5
259
330
A
100
AcDbEntity
  8
1
  6
solid
 62
     7
100
AcDbLine
 10
0.8196121777657696
 20
-0.024282769881459
 30
0.0
 11
0.82071511894224
 21
-0.0287899814199206
 31
0.0
  0
LINE
  5
25A
330
A
100
AcDbEntity
  8
1
  6
solid
 62
     7
100
AcDbLine
 10
0.82071511894224
 20
-0.0287899814199206
 30
0.0
 11
0.8221857071775342
 21
-0.0319450294968436
 31
0.0
  0
LINE
  5
25B
330
A
100
AcDbEntity
  8
1
  6
solid
 62
     7
100
AcDbLine
 10
0.8221857071775342
 20
-0.0319450294968436
 30
0.0
 11
0.8236562954128283
 21
-0.0337479141122283
 31
0.0
  0
LINE
  5
25C
330
A
100
AcDbEntity
  8
1
  6
solid
 62
     7
100
AcDbLine
 10
0.8236562954128283
 20
-0.0337479141122283
 30
0.0
 11
0.8247592365892989
 21
-0.0351000775737667
 31
0.0
  0
LINE
  5
25D
330
A
100
AcDbEntity
  8
1
  6
solid
 62
     7
100
AcDbLine
 10
0.83946511894224
 20
-0.0788200294968436
 30
0.0
 11
0.8431415895304754
 21
-0.0774678660353052
 31
0.0
  0
LINE
  5
25E
330
A
100
AcDbEntity
  8
1
  6
solid
 62
     7
100
AcDbLine
 10
0.8431415895304754
 20
-0.0774678660353052
 30
0.0
 11
0.84571511894224
 21
-0.0756649814199206
 31
0.0
  0
LINE
  5
25F
330
A
100
AcDbEntity
  8
1
  6
solid
 62
     7
100
AcDbLine
 10
0.84571511894224
 20
-0.0756649814199206
 30
0.0
 11
0.8481048248245929
 21
-0.0729606544968436
 31
0.0
  0
LINE
  5
260
330
A
100
AcDbEntity
  8
1
  6
solid
 62
     7
100
AcDbLine
 10
0.8481048248245929
 20
-0.0729606544968436
 30
0.0
 11
0.8503107071775342
 21
-0.0689041641122283
 31
0.0
  0
LINE
  5
261
330
A
100
AcDbEntity
  8
1
  6
solid
 62
     7
100
AcDbLine
 10
0.8503107071775342
 20
-0.0689041641122283
 30
0.0
 11
0.8512298248245929
 21
-0.065298394881459
 31
0.0
  0
LINE
  5
262
330
A
100
AcDbEntity
  8
1
  6
solid
 62
     7
100
AcDbLine
 10
0.8512298248245929
 20
-0.065298394881459
 30
0.0
 11
0.8517812954128284
 21
-0.0612419044968436
 31
0.0
  0
LINE
  5
263
330
A
100
AcDbEntity
  8
1
  6
solid
 62
     7
100
AcDbLine
 10
0.8517812954128284
 20
-0.0612419044968436
 30
0.0
 11
0.8517812954128284
 21
-0.0585375775737667
 31
0.0
  0
LINE
  5
264
330
A
100
AcDbEntity
  8
1
  6
solid
 62
     7
100
AcDbLine
 10
0.8517812954128284
 20
-0.0585375775737667
 30
0.0
 11
0.8503107071775342
 21
-0.0526782025737667
 31
0.0
  0
LINE
  5
265
330
A
100
AcDbEntity
  8
1
  6
solid
 62
     7
100
AcDbLine
 10
0.8503107071775342
 20
-0.0526782025737667
 30
0.0
 11
0.8486562954128283
 21
-0.0495231544968436
 31
0.0
  0
LINE
  5
266
330
A
100
AcDbEntity
  8
1
  6
solid
 62
     7
100
AcDbLine
 10
0.8486562954128283
 20
-0.0495231544968436
 30
0.0
 11
0.8466342365892989
 21
-0.0468188275737667
 31
0.0
  0
LINE
  5
267
330
A
100
AcDbEntity
  8
1
  6
solid
 62
     7
100
AcDbLine
 10
0.8466342365892989
 20
-0.0468188275737667
 30
0.0
 11
0.8440607071775342
 21
-0.0441145006506898
 31
0.0
  0
LINE
  5
268
330
A
100
AcDbEntity
  8
1
  6
solid
 62
     7
100
AcDbLine
 10
0.8440607071775342
 20
-0.0441145006506898
 30
0.0
 11
0.8420386483540047
 21
-0.0432130583429975
 31
0.0
  0
LINE
  5
269
330
A
100
AcDbEntity
  8
1
  6
solid
 62
     7
100
AcDbLine
 10
0.8420386483540047
 20
-0.0432130583429975
 30
0.0
 11
0.8390974718834165
 21
-0.0423116160353052
 31
0.0
  0
LINE
  5
26A
330
A
100
AcDbEntity
  8
1
  6
solid
 62
     7
100
AcDbLine
 10
0.8390974718834165
 20
-0.0423116160353052
 30
0.0
 11
0.8354210012951812
 21
-0.0423116160353052
 31
0.0
  0
LINE
  5
26B
330
A
100
AcDbEntity
  8
1
  6
solid
 62
     7
100
AcDbLine
 10
0.8354210012951812
 20
-0.0423116160353052
 30
0.0
 11
0.8313768836481225
 21
-0.0436637794968436
 31
0.0
  0
LINE
  5
26C
330
A
100
AcDbEntity
  8
1
  6
solid
 62
     7
100
AcDbLine
 10
0.8313768836481225
 20
-0.0436637794968436
 30
0.0
 11
0.8288033542363578
 21
-0.0454666641122283
 31
0.0
  0
LINE
  5
26D
330
A
100
AcDbEntity
  8
1
  6
solid
 62
     7
100
AcDbLine
 10
0.8288033542363578
 20
-0.0454666641122283
 30
0.0
 11
0.8262298248245931
 21
-0.0481709910353052
 31
0.0
  0
LINE
  5
26E
330
A
100
AcDbEntity
  8
1
  6
solid
 62
     7
100
AcDbLine
 10
0.8262298248245931
 20
-0.0481709910353052
 30
0.0
 11
0.8242077660010636
 21
-0.0522274814199206
 31
0.0
  0
LINE
  5
26F
330
A
100
AcDbEntity
  8
1
  6
solid
 62
     7
100
AcDbLine
 10
0.8242077660010636
 20
-0.0522274814199206
 30
0.0
 11
0.8232886483540047
 21
-0.0553825294968436
 31
0.0
  0
LINE
  5
270
330
A
100
AcDbEntity
  8
1
  6
solid
 62
     7
100
AcDbLine
 10
0.8232886483540047
 20
-0.0553825294968436
 30
0.0
 11
0.8227371777657694
 21
-0.0585375775737667
 31
0.0
  0
LINE
  5
271
330
A
100
AcDbEntity
  8
1
  6
solid
 62
     7
100
AcDbLine
 10
0.8227371777657694
 20
-0.0585375775737667
 30
0.0
 11
0.8227371777657694
 21
-0.0625940679583821
 31
0.0
  0
LINE
  5
272
330
A
100
AcDbEntity
  8
1
  6
solid
 62
     7
100
AcDbLine
 10
0.8227371777657694
 20
-0.0625940679583821
 30
0.0
 11
0.8232886483540047
 21
-0.0666505583429975
 31
0.0
  0
LINE
  5
273
330
A
100
AcDbEntity
  8
1
  6
solid
 62
     7
100
AcDbLine
 10
0.8232886483540047
 20
-0.0666505583429975
 30
0.0
 11
0.8247592365892989
 21
-0.071157769881459
 31
0.0
  0
LINE
  5
274
330
A
100
AcDbEntity
  8
1
  6
solid
 62
     7
100
AcDbLine
 10
0.8247592365892989
 20
-0.071157769881459
 30
0.0
 11
0.8273327660010636
 21
-0.0743128179583821
 31
0.0
  0
LINE
  5
275
330
A
100
AcDbEntity
  8
1
  6
solid
 62
     7
100
AcDbLine
 10
0.8273327660010636
 20
-0.0743128179583821
 30
0.0
 11
0.8299062954128284
 21
-0.077017144881459
 31
0.0
  0
LINE
  5
276
330
A
100
AcDbEntity
  8
1
  6
solid
 62
     7
100
AcDbLine
 10
0.8299062954128284
 20
-0.077017144881459
 30
0.0
 11
0.8333989424716518
 21
-0.0788200294968436
 31
0.0
  0
LINE
  5
277
330
A
100
AcDbEntity
  8
1
  6
solid
 62
     7
100
AcDbLine
 10
0.8333989424716518
 20
-0.0788200294968436
 30
0.0
 11
0.83946511894224
 21
-0.0788200294968436
 31
0.0
  0
LINE
  5
278
330
A
100
AcDbEntity
  8
1
  6
solid
 62
     7
100
AcDbLine
 10
0.8385460012951813
 20
-0.0305928660353052
 30
0.0
 11
0.8405680601187107
 21
-0.030142144881459
 31
0.0
  0
LINE
  5
279
330
A
100
AcDbEntity
  8
1
  6
solid
 62
     7
100
AcDbLine
 10
0.8405680601187107
 20
-0.030142144881459
 30
0.0
 11
0.8431415895304754
 21
-0.0278885391122283
 31
0.0
  0
LINE
  5
27A
330
A
100
AcDbEntity
  8
1
  6
solid
 62
     7
100
AcDbLine
 10
0.8431415895304754
 20
-0.0278885391122283
 30
0.0
 11
0.8446121777657696
 21
-0.0256349333429975
 31
0.0
  0
LINE
  5
27B
330
A
100
AcDbEntity
  8
1
  6
solid
 62
     7
100
AcDbLine
 10
0.8446121777657696
 20
-0.0256349333429975
 30
0.0
 11
0.84571511894224
 21
-0.0229306064199206
 31
0.0
  0
LINE
  5
27C
330
A
100
AcDbEntity
  8
1
  6
solid
 62
     7
100
AcDbLine
 10
0.84571511894224
 20
-0.0229306064199206
 30
0.0
 11
0.8460827660010636
 21
-0.0202262794968436
 31
0.0
  0
LINE
  5
27D
330
A
100
AcDbEntity
  8
1
  6
solid
 62
     7
100
AcDbLine
 10
0.8460827660010636
 20
-0.0202262794968436
 30
0.0
 11
0.8460827660010636
 21
-0.018423394881459
 31
0.0
  0
LINE
  5
27E
330
A
100
AcDbEntity
  8
1
  6
solid
 62
     7
100
AcDbLine
 10
0.8460827660010636
 20
-0.018423394881459
 30
0.0
 11
0.8451636483540047
 21
-0.0143669044968436
 31
0.0
  0
LINE
  5
27F
330
A
100
AcDbEntity
  8
1
  6
solid
 62
     7
100
AcDbLine
 10
0.8451636483540047
 20
-0.0143669044968436
 30
0.0
 11
0.8436930601187107
 21
-0.0116625775737667
 31
0.0
  0
LINE
  5
280
330
A
100
AcDbEntity
  8
1
  6
solid
 62
     7
100
AcDbLine
 10
0.8436930601187107
 20
-0.0116625775737667
 30
0.0
 11
0.8420386483540047
 21
-0.0098596929583821
 31
0.0
  0
LINE
  5
281
330
A
100
AcDbEntity
  8
1
  6
solid
 62
     7
100
AcDbLine
 10
0.8420386483540047
 20
-0.0098596929583821
 30
0.0
 11
0.8400165895304754
 21
-0.0085075294968436
 31
0.0
  0
LINE
  5
282
330
A
100
AcDbEntity
  8
1
  6
solid
 62
     7
100
AcDbLine
 10
0.8400165895304754
 20
-0.0085075294968436
 30
0.0
 11
0.837994530706946
 21
-0.0080568083429975
 31
0.0
  0
LINE
  5
283
330
A
100
AcDbEntity
  8
1
  6
solid
 62
     7
100
AcDbLine
 10
0.837994530706946
 20
-0.0080568083429975
 30
0.0
 11
0.836523942471652
 21
-0.0080568083429975
 31
0.0
  0
LINE
  5
284
330
A
100
AcDbEntity
  8
1
  6
solid
 62
     7
100
AcDbLine
 10
0.836523942471652
 20
-0.0080568083429975
 30
0.0
 11
0.8339504130598871
 21
-0.0085075294968436
 31
0.0
  0
LINE
  5
285
330
A
100
AcDbEntity
  8
1
  6
solid
 62
     7
100
AcDbLine
 10
0.8339504130598871
 20
-0.0085075294968436
 30
0.0
 11
0.8319283542363578
 21
-0.0098596929583821
 31
0.0
  0
LINE
  5
286
330
A
100
AcDbEntity
  8
1
  6
solid
 62
     7
100
AcDbLine
 10
0.8319283542363578
 20
-0.0098596929583821
 30
0.0
 11
0.8302739424716518
 21
-0.0116625775737667
 31
0.0
  0
LINE
  5
287
330
A
100
AcDbEntity
  8
1
  6
solid
 62
     7
100
AcDbLine
 10
0.8302739424716518
 20
-0.0116625775737667
 30
0.0
 11
0.8288033542363578
 21
-0.0143669044968436
 31
0.0
  0
LINE
  5
288
330
A
100
AcDbEntity
  8
1
  6
solid
 62
     7
100
AcDbLine
 10
0.8288033542363578
 20
-0.0143669044968436
 30
0.0
 11
0.8282518836481225
 21
-0.0170712314199206
 31
0.0
  0
LINE
  5
289
330
A
100
AcDbEntity
  8
1
  6
solid
 62
     7
100
AcDbLine
 10
0.8282518836481225
 20
-0.0170712314199206
 30
0.0
 11
0.8278842365892989
 21
-0.0188741160353052
 31
0.0
  0
LINE
  5
28A
330
A
100
AcDbEntity
  8
1
  6
solid
 62
     7
100
AcDbLine
 10
0.8278842365892989
 20
-0.0188741160353052
 30
0.0
 11
0.8278842365892989
 21
-0.0202262794968436
 31
0.0
  0
LINE
  5
28B
330
A
100
AcDbEntity
  8
1
  6
solid
 62
     7
100
AcDbLine
 10
0.8278842365892989
 20
-0.0202262794968436
 30
0.0
 11
0.8288033542363578
 21
-0.024282769881459
 31
0.0
  0
LINE
  5
28C
330
A
100
AcDbEntity
  8
1
  6
solid
 62
     7
100
AcDbLine
 10
0.8288033542363578
 20
-0.024282769881459
 30
0.0
 11
0.8299062954128284
 21
-0.0260856544968436
 31
0.0
  0
LINE
  5
28D
330
A
100
AcDbEntity
  8
1
  6
solid
 62
     7
100
AcDbLine
 10
0.8299062954128284
 20
-0.0260856544968436
 30
0.0
 11
0.8313768836481225
 21
-0.0287899814199206
 31
0.0
  0
LINE
  5
28E
330
A
100
AcDbEntity
  8
1
  6
solid
 62
     7
100
AcDbLine
 10
0.8313768836481225
 20
-0.0287899814199206
 30
0.0
 11
0.8333989424716518
 21
-0.030142144881459
 31
0.0
  0
LINE
  5
28F
330
A
100
AcDbEntity
  8
1
  6
solid
 62
     7
100
AcDbLine
 10
0.8333989424716518
 20
-0.030142144881459
 30
0.0
 11
0.8359724718834165
 21
-0.0305928660353052
 31
0.0
  0
LINE
  5
290
330
A
100
AcDbEntity
  8
1
  6
solid
 62
     7
100
AcDbLine
 10
0.8359724718834165
 20
-0.0305928660353052
 30
0.0
 11
0.8385460012951813
 21
-0.0305928660353052
 31
0.0
  0
LINE
  5
291
330
A
100
AcDbEntity
  8
1
  6
solid
 62
     7
100
AcDbLine
 10
-2.246486100692855
 20
0.9881377415325168
 30
0.0
 11
-1.661678133539964
 21
0.4676195532527755
 31
0.0
  0
LINE
  5
292
330
A
100
AcDbEntity
  8
1
  6
solid
 62
     7
100
AcDbLine
 10
-1.2107771390292
 20
0.4676195532527755
 30
0.0
 11
-1.016354110977938
 21
0.6860559851825326
 31
0.0
  0
LINE
  5
293
330
A
100
AcDbEntity
  8
1
  6
solid
 62
     7
100
AcDbLine
 10
-1.016354110997098
 20
0.6860559851610062
 30
0.0
 11
-0.8039656168781858
 21
0.4970160260981085
 31
0.0
  0
ARC
  5
294
330
A
100
AcDbEntity
  8
1
  6
solid
 62
     7
100
AcDbCircle
 10
-1.853841712822758
 20
1.349342031782528
 30
0.0
 40
1.352294139244571
100
AcDbArc
 50
320.9291053104684
 51
330.1521498208352
  0
ARC
  5
295
330
A
100
AcDbEntity
  8
1
  6
solid
 62
     7
100
AcDbCircle
 10
-0.9372637206657326
 20
0.8933847629507468
 30
0.0
 40
0.3359017662638356
100
AcDbArc
 50
319.7403180535702
 51
491.424241221102
  0
LINE
  5
296
330
A
100
AcDbEntity
  8
1
  6
solid
 62
     7
100
AcDbLine
 10
-1.159506158624461
 20
1.145254421992682
 30
0.0
 11
-1.245654882788357
 21
1.172817320799215
 31
0.0
  0
LINE
  5
297
330
A
100
AcDbEntity
  8
1
  6
solid
 62
     7
100
AcDbLine
 10
-1.245654905254443
 20
1.172817311209509
 30
0.0
 11
-1.453005200021771
 21
0.9384578401480476
 31
0.0
  0
ARC
  5
298
330
A
100
AcDbEntity
  8
1
  6
solid
 62
     7
100
AcDbCircle
 10
-1.752336796616022
 20
1.341924669354913
 30
0.0
 40
0.5023792104904934
100
AcDbArc
 50
292.0836556885486
 51
306.5716784803605
  0
ARC
  5
299
330
A
100
AcDbEntity
  8
1
  6
solid
 62
     7
100
AcDbCircle
 10
-1.603783984168484
 20
0.9596511697439208
 30
0.0
 40
0.0924999994648571
100
AcDbArc
 50
189.2042614259905
 51
295.8431908763285
  0
ARC
  5
29A
330
A
100
AcDbEntity
  8
1
  6
solid
 62
     7
100
AcDbCircle
 10
-1.938326269416445
 20
0.8910115382581022
 30
0.0
 40
0.2044407379702069
100
AcDbArc
 50
83.08549232859293
 51
121.8948406756163
  0
ARC
  5
29B
330
A
100
AcDbEntity
  8
1
  6
solid
 62
     7
100
AcDbCircle
 10
-2.178301752409771
 20
1.407437666159607
 30
0.0
 40
0.3673691377901259
100
AcDbArc
 50
274.1223045469693
 51
291.0507031209161
  0
ARC
  5
29C
330
A
100
AcDbEntity
  8
1
  6
solid
 62
     7
100
AcDbCircle
 10
-2.149443057600772
 20
0.925592571564389
 30
0.0
 40
0.1154523881018702
100
AcDbArc
 50
91.21600895988628
 51
147.1978324671761
  0
ARC
  5
29D
330
A
100
AcDbEntity
  8
1
  6
solid
 62
     7
100
AcDbCircle
 10
-1.904146578642646
 20
0.8731697131746724
 30
0.0
 40
0.2210028308497861
100
AcDbArc
 50
18.92712770375187
 51
92.48116135281303
  0
LINE
  5
29F
330
A
100
AcDbEntity
  8
0
  6
solid
 62
     7
100
AcDbLine
 10
-1.2107771390292
 20
0.4676195532527755
 30
0.0
 11
-1.661678133539964
 21
0.4676195532527755
 31
0.0
  0
LINE
  5
317
330
A
100
AcDbEntity
  8
0
  6
solid
 62
     7
370
     0
100
AcDbLine
 10
-2.246486186981201
 20
0.403155286386598
 30
0.0
 11
-2.246486186981201
 21
0.1371754705697039
 31
0.0
  0
LINE
  5
318
330
A
100
AcDbEntity
  8
0
  6
solid
 62
     7
370
     0
100
AcDbLine
 10
-0.6013619303703308
 20
0.6755365471665922
 30
0.0
 11
-0.6013619303703308
 21
0.1371754705697039
 31
0.0
  0
LINE
  5
319
330
A
100
AcDbEntity
  8
0
  6
solid
 62
     7
370
     0
100
AcDbLine
 10
-2.246486186981201
 20
0.1996754705697039
 30
0.0
 11
-1.423924058675765
 21
0.1996754705697039
 31
0.0
  0
LINE
  5
31A
330
A
100
AcDbEntity
  8
0
  6
solid
 62
     7
370
     0
100
AcDbLine
 10
-0.6013619303703308
 20
0.1996754705697039
 30
0.0
 11
-1.423924058675765
 21
0.1996754705697039
 31
0.0
  0
MTEXT
  5
31B
330
A
100
AcDbEntity
  8
0
  6
solid
 62
     7
370
     0
100
AcDbMText
 10
-1.423924058675765
 20
0.30326056672355
 30
0.0
 40
0.125
 41
0.0
 71
     5
 72
     1
  1
{\H0.125000;1 5/8}
 73
     1
 44
1.0
  0
SOLID
  5
31C
330
A
100
AcDbEntity
  8
0
  6
solid
 62
     7
370
     0
100
AcDbTrace
 10
-2.121486186981201
 20
0.2204904705697039
 30
0.0
 11
-2.121486186981201
 21
0.1788604705697038
 31
0.0
 12
-2.246486186981201
 22
0.1996754705697039
 32
0.0
 13
-2.246486186981201
 23
0.1996754705697039
 33
0.0
  0
SOLID
  5
31D
330
A
100
AcDbEntity
  8
0
  6
solid
 62
     7
370
     0
100
AcDbTrace
 10
-0.7263619303703308
 20
0.1788604705697039
 30
0.0
 11
-0.7263619303703308
 21
0.2204904705697039
 31
0.0
 12
-0.6013619303703308
 22
0.1996754705697039
 32
0.0
 13
-0.6013619303703308
 23
0.1996754705697039
 33
0.0
  0
LINE
  5
320
330
A
100
AcDbEntity
  8
0
  6
solid
 62
     7
370
     0
100
AcDbLine
 10
-1.73249004549749
 20
0.467619568109513
 30
0.0
 11
-2.53302554306151
 21
0.4676195681095132
 31
0.0
  0
LINE
  5
321
330
A
100
AcDbEntity
  8
0
  6
solid
 62
     7
370
     0
100
AcDbLine
 10
-1.15305075888428
 20
1.229286551475524
 30
0.0
 11
-2.53302554306151
 21
1.229286551475526
 31
0.0
  0
LINE
  5
322
330
A
100
AcDbEntity
  8
0
  6
solid
 62
     7
370
     0
100
AcDbLine
 10
-2.47052554306151
 20
0.4676195681095131
 30
0.0
 11
-2.47052554306151
 21
0.8484530597925196
 31
0.0
  0
LINE
  5
323
330
A
100
AcDbEntity
  8
0
  6
solid
 62
     7
370
     0
100
AcDbLine
 10
-2.47052554306151
 20
1.229286551475526
 30
0.0
 11
-2.47052554306151
 21
0.8484530597925196
 31
0.0
  0
MTEXT
  5
324
330
A
100
AcDbEntity
  8
0
  6
solid
 62
     7
370
     0
100
AcDbMText
 10
-2.70998804306151
 20
0.8484530597925195
 30
0.0
 40
0.125
 41
0.0
 71
     5
 72
     1
  1
{\H0.125000;3/4}
 73
     1
 44
1.0
  0
SOLID
  5
325
330
A
100
AcDbEntity
  8
0
  6
solid
 62
     7
370
     0
100
AcDbTrace
 10
-2.49134054306151
 20
0.5926195681095132
 30
0.0
 11
-2.44971054306151
 21
0.5926195681095131
 31
0.0
 12
-2.47052554306151
 22
0.4676195681095131
 32
0.0
 13
-2.47052554306151
 23
0.4676195681095131
 33
0.0
  0
SOLID
  5
326
330
A
100
AcDbEntity
  8
0
  6
solid
 62
     7
370
     0
100
AcDbTrace
 10
-2.44971054306151
 20
1.104286551475526
 30
0.0
 11
-2.49134054306151
 21
1.104286551475526
 31
0.0
 12
-2.47052554306151
 22
1.229286551475526
 32
0.0
 13
-2.47052554306151
 23
1.229286551475526
 33
0.0
  0
VIEWPORT
  5
2D3
330
B
100
AcDbEntity
 67
     1
  8
0
  6
Continuous
370
     0
100
AcDbViewport
 10
7.064355914517106
 20
4.170160207470949
 30
0.0
 40
21.37102080945324
 41
11.30753595843212
 68
     1
 69
     1
 12
7.064355914517106
 22
4.170160207470949
 13
0.0
 23
0.0
 14
0.5
 24
0.5
 15
0.5
 25
0.5
 16
0.0
 26
0.0
 36
1.0
 17
0.0
 27
0.0
 37
0.0
 42
50.0
 43
0.0
 44
0.0
 45
11.30753595843212
 50
0.0
 51
0.0
 72
   100
 90
   819232
  1

281
     0
 71
     1
 74
     0
110
0.0
120
0.0
130
0.0
111
1.0
121
0.0
131
0.0
112
0.0
122
1.0
132
0.0
 79
     0
146
0.0
170
     0
  0
VIEWPORT
  5
2D6
330
B
100
AcDbEntity
 67
     1
  8
0
  6
Continuous
370
     0
100
AcDbViewport
 10
5.187037609839677
 20
4.012833294234996
 30
0.0
 40
10.30738343938075
 41
8.005533139801652
 68
     2
 69
     2
 12
-0.408118759389806
 22
0.6120344938866894
 13
0.0
 23
0.0
 14
0.5
 24
0.5
 15
0.5
 25
0.5
 16
0.0
 26
0.0
 36
1.0
 17
0.0
 27
0.0
 37
0.0
 42
50.0
 43
0.0
 44
0.0
 45
4.488943876438421
 50
0.0
 51
0.0
 72
   100
 90
   819232
  1

281
     0
 71
     1
 74
     0
110
0.0
120
0.0
130
0.0
111
1.0
121
0.0
131
0.0
112
0.0
122
1.0
132
0.0
 79
     0
146
0.0
170
     0
  0
ENDSEC
  0
SECTION
  2
OBJECTS
  0
DICTIONARY
  5
19
330
0
100
AcDbDictionary
281
     1
  3
ACAD_COLOR
350
2CC
  3
ACAD_GROUP
350
1A
  3
ACAD_LAYOUT
350
1E
  3
ACAD_MATERIAL
350
2B7
  3
ACAD_MLEADERSTYLE
350
300
  3
ACAD_MLINESTYLE
350
1B
  3
ACAD_PLOTSETTINGS
350
22
  3
ACAD_PLOTSTYLENAME
350
1F
  3
ACAD_SCALELIST
350
2DE
  3
ACAD_TABLESTYLE
350
2CD
  3
ACAD_VISUALSTYLE
350
2BB
  3
ACAD_WIPEOUT_VARS
350
23
  3
ACDB_RECOMPOSE_DATA
350
343
  3
AcDbVariableDictionary
350
2DB
  3
ASE_INDEX_DICTIONARY
350
2D8
  0
DICTIONARY
  5
309
330
14
100
AcDbDictionary
280
     1
281
     1
  3
ADSK_XREC_LAYER_RECONCILED
360
30A
  0
DICTIONARY
  5
30B
330
27
100
AcDbDictionary
280
     1
281
     1
  3
ADSK_XREC_LAYER_RECONCILED
360
30C
  0
DICTIONARY
  5
30D
330
29E
100
AcDbDictionary
280
     1
281
     1
  3
ADSK_XREC_LAYER_RECONCILED
360
30E
  0
DICTIONARY
  5
31E
330
A
100
AcDbDictionary
280
     1
281
     1
  3
ACAD_SORTENTS
360
31F
  0
DICTIONARY
  5
2CC
102
{ACAD_REACTORS
330
19
102
}
330
19
100
AcDbDictionary
281
     1
  0
DICTIONARY
  5
1A
102
{ACAD_REACTORS
330
19
102
}
330
19
100
AcDbDictionary
281
     1
  0
DICTIONARY
  5
1E
102
{ACAD_REACTORS
330
19
102
}
330
19
100
AcDbDictionary
281
     1
  3
Layout1
350
21
  3
Model
350
20
  0
DICTIONARY
  5
2B7
102
{ACAD_REACTORS
330
19
102
}
330
19
100
AcDbDictionary
281
     1
  3
ByBlock
350
2B9
  3
ByLayer
350
2B8
  3
Global
350
2BA
  0
DICTIONARY
  5
300
102
{ACAD_REACTORS
330
19
102
}
330
19
100
AcDbDictionary
281
     1
  3
Standard
350
301
  0
DICTIONARY
  5
1B
102
{ACAD_REACTORS
330
19
102
}
330
19
100
AcDbDictionary
281
     1
  3
Standard
350
1C
  0
DICTIONARY
  5
22
102
{ACAD_REACTORS
330
19
102
}
330
19
100
AcDbDictionary
281
     1
  0
ACDBDICTIONARYWDFLT
  5
1F
102
{ACAD_REACTORS
330
19
102
}
330
19
100
AcDbDictionary
281
     1
  3
Normal
350
1D
100
AcDbDictionaryWithDefault
340
1D
  0
DICTIONARY
  5
2DE
102
{ACAD_REACTORS
330
19
102
}
330
19
100
AcDbDictionary
281
     1
  3
A0
350
2DF
  3
A1
350
2E0
  3
A2
350
2E1
  3
A3
350
2E2
  3
A4
350
2E3
  3
A5
350
2E4
  3
A6
350
2E5
  3
A7
350
2E6
  3
A8
350
2E7
  3
A9
350
2E8
  3
B0
350
2E9
  3
B1
350
2EA
  3
B2
350
2EB
  3
B3
350
2EC
  3
B4
350
2ED
  3
B5
350
2EE
  3
B6
350
2EF
  3
B7
350
2F0
  3
B8
350
2F1
  3
B9
350
2F2
  3
C0
350
2F3
  3
C1
350
2F4
  3
C2
350
2F5
  3
C3
350
2F6
  3
C4
350
2F7
  3
C5
350
2F8
  3
C6
350
2F9
  3
C7
350
2FA
  3
C8
350
2FB
  3
C9
350
2FC
  3
D0
350
2FD
  3
D1
350
2FE
  3
D2
350
2FF
  0
DICTIONARY
  5
2CD
102
{ACAD_REACTORS
330
19
102
}
330
19
100
AcDbDictionary
281
     1
  3
Standard
350
2CE
  0
DICTIONARY
  5
2BB
102
{ACAD_REACTORS
330
19
102
}
330
19
100
AcDbDictionary
281
     1
  3
2dWireframe
350
2C1
  3
3D Hidden
350
2C3
  3
3dWireframe
350
2C2
  3
Basic
350
2C0
  3
Brighten
350
2C7
  3
ColorChange
350
2CB
  3
Conceptual
350
2C4
  3
Dim
350
2C6
  3
Facepattern
350
2CA
  3
Flat
350
2BC
  3
FlatWithEdges
350
2BD
  3
Gouraud
350
2BE
  3
GouraudWithEdges
350
2BF
  3
Linepattern
350
2C9
  3
Realistic
350
2C5
  3
Thicken
350
2C8
  0
WIPEOUTVARIABLES
  5
23
330
19
100
AcDbWipeoutVariables
 70
     1
  0
XRECORD
  5
343
102
{ACAD_REACTORS
330
19
102
}
330
19
100
AcDbXrecord
280
     1
 90
        1
330
2CE
  0
DICTIONARY
  5
2DB
102
{ACAD_REACTORS
330
19
102
}
330
19
100
AcDbDictionary
281
     1
  3
CANNOSCALE
350
340
  3
CMLEADERSTYLE
350
33F
  3
CTABLESTYLE
350
2DC
  0
DICTIONARY
  5
2D8
102
{ACAD_REACTORS
330
19
102
}
330
19
100
AcDbDictionary
281
     1
  3
ASEBlockHierarchyIndexRecord
350
2DA
1001
DCO15
1040
1645091979.158
  0
XRECORD
  5
30A
102
{ACAD_REACTORS
330
309
102
}
330
309
100
AcDbXrecord
280
     1
290
     1
  0
XRECORD
  5
30C
102
{ACAD_REACTORS
330
30B
102
}
330
30B
100
AcDbXrecord
280
     1
290
     1
  0
XRECORD
  5
30E
102
{ACAD_REACTORS
330
30D
102
}
330
30D
100
AcDbXrecord
280
     1
290
     1
  0
SORTENTSTABLE
  5
31F
102
{ACAD_REACTORS
330
31E
102
}
330
31E
100
AcDbSortentsTable
330
A
331
1A8
  5
1A8
331
1CA
  5
1CA
331
1E4
  5
1E4
331
206
  5
206
331
117
  5
117
331
F5
  5
F5
331
DB
  5
DB
331
B9
  5
B9
331
260
  5
260
331
228
  5
228
331
139
  5
139
331
282
  5
282
331
24A
  5
24A
331
15B
  5
15B
331
175
  5
175
331
197
  5
197
331
1B9
  5
1B9
331
1DB
  5
1DB
331
324
  5
31B
331
1F5
  5
1F5
331
217
  5
217
331
128
  5
128
331
106
  5
106
331
EC
  5
EC
331
CA
  5
CA
331
A8
  5
A8
331
86
  5
86
331
6C
  5
6C
331
4A
  5
4A
331
271
  5
271
331
239
  5
239
331
14A
  5
14A
331
293
  5
293
331
186
  5
186
331
97
  5
97
331
5B
  5
5B
331
39
  5
39
331
28
  5
28
331
1C8
  5
1C8
331
1E2
  5
1E2
331
204
  5
204
331
25E
  5
25E
331
226
  5
226
331
137
  5
137
331
115
  5
115
331
F3
  5
F3
331
D9
  5
D9
331
280
  5
280
331
248
  5
248
331
159
  5
159
331
173
  5
173
331
195
  5
195
331
1B7
  5
1B7
331
1D9
  5
1D9
331
322
  5
319
331
1F3
  5
1F3
331
215
  5
215
331
126
  5
126
331
104
  5
104
331
EA
  5
EA
331
C8
  5
C8
331
A6
  5
A6
331
84
  5
84
331
6A
  5
6A
331
48
  5
48
331
26F
  5
26F
331
237
  5
237
331
148
  5
148
331
291
  5
291
331
184
  5
184
331
1A6
  5
1A6
331
B7
  5
B7
331
95
  5
95
331
59
  5
59
331
37
  5
37
331
1E0
  5
1E0
331
202
  5
202
331
25C
  5
25C
331
224
  5
224
331
135
  5
135
331
113
  5
113
331
F1
  5
F1
331
27E
  5
27E
331
246
  5
246
331
157
  5
157
331
171
  5
171
331
193
  5
193
331
1B5
  5
1B5
331
1D7
  5
1D7
331
320
  5
317
331
1F1
  5
1F1
331
213
  5
213
331
124
  5
124
331
102
  5
102
331
E8
  5
E8
331
C6
  5
C6
331
A4
  5
A4
331
82
  5
82
331
68
  5
68
331
46
  5
46
331
26D
  5
26D
331
235
  5
235
331
146
  5
146
331
28F
  5
28F
331
257
  5
257
331
182
  5
182
331
1A4
  5
1A4
331
1C6
  5
1C6
331
D7
  5
D7
331
B5
  5
B5
331
93
  5
93
331
57
  5
57
331
35
  5
35
331
200
  5
200
331
25A
  5
25A
331
222
  5
222
331
133
  5
133
331
111
  5
111
331
27C
  5
27C
331
244
  5
244
331
155
  5
155
331
16F
  5
16F
331
191
  5
191
331
1B3
  5
1B3
331
1D5
  5
1D5
331
1EF
  5
1EF
331
211
  5
211
331
122
  5
122
331
100
  5
100
331
E6
  5
E6
331
C4
  5
C4
331
A2
  5
A2
331
80
  5
80
331
66
  5
66
331
44
  5
44
331
26B
  5
26B
331
233
  5
233
331
144
  5
144
331
28D
  5
28D
331
255
  5
255
331
166
  5
166
331
180
  5
180
331
1A2
  5
1A2
331
1C4
  5
1C4
331
D5
  5
D5
331
B3
  5
B3
331
91
  5
91
331
77
  5
77
331
55
  5
55
331
33
  5
33
331
258
  5
258
331
220
  5
220
331
131
  5
131
331
27A
  5
27A
331
242
  5
242
331
153
  5
153
331
29C
  5
29C
331
16D
  5
16D
331
18F
  5
18F
331
1B1
  5
1B1
331
1D3
  5
1D3
331
31C
  5
325
331
1ED
  5
1ED
331
20F
  5
20F
331
120
  5
120
331
FE
  5
FE
331
E4
  5
E4
331
C2
  5
C2
331
A0
  5
A0
331
7E
  5
7E
331
64
  5
64
331
42
  5
42
331
269
  5
269
331
231
  5
231
331
142
  5
142
331
28B
  5
28B
331
253
  5
253
331
164
  5
164
331
17E
  5
17E
331
1A0
  5
1A0
331
1C2
  5
1C2
331
1FE
  5
1FE
331
10F
  5
10F
331
D3
  5
D3
331
B1
  5
B1
331
8F
  5
8F
331
75
  5
75
331
53
  5
53
331
31
  5
31
331
278
  5
278
331
240
  5
240
331
151
  5
151
331
29A
  5
29A
331
16B
  5
16B
331
18D
  5
18D
331
1AF
  5
1AF
331
1D1
  5
1D1
331
31A
  5
323
331
1EB
  5
1EB
331
20D
  5
20D
331
11E
  5
11E
331
FC
  5
FC
331
E2
  5
E2
331
C0
  5
C0
331
9E
  5
9E
331
7C
  5
7C
331
62
  5
62
331
40
  5
40
331
267
  5
267
331
22F
  5
22F
331
140
  5
140
331
289
  5
289
331
251
  5
251
331
162
  5
162
331
17C
  5
17C
331
19E
  5
19E
331
1C0
  5
1C0
331
1FC
  5
1FC
331
21E
  5
21E
331
12F
  5
12F
331
10D
  5
10D
331
D1
  5
D1
331
AF
  5
AF
331
8D
  5
8D
331
73
  5
73
331
51
  5
51
331
2F
  5
2F
331
298
  5
298
331
169
  5
169
331
18B
  5
18B
331
1AD
  5
1AD
331
1CF
  5
1CF
331
318
  5
321
331
1E9
  5
1E9
331
20B
  5
20B
331
11C
  5
11C
331
FA
  5
FA
331
E0
  5
E0
331
BE
  5
BE
331
9C
  5
9C
331
7A
  5
7A
331
60
  5
60
331
265
  5
265
331
22D
  5
22D
331
13E
  5
13E
331
287
  5
287
331
24F
  5
24F
331
160
  5
160
331
17A
  5
17A
331
19C
  5
19C
331
1BE
  5
1BE
331
1FA
  5
1FA
331
21C
  5
21C
331
12D
  5
12D
331
10B
  5
10B
331
CF
  5
CF
331
AD
  5
AD
331
8B
  5
8B
331
71
  5
71
331
4F
  5
4F
331
276
  5
276
331
23E
  5
23E
331
14F
  5
14F
331
3E
  5
3E
331
2D
  5
2D
331
189
  5
189
331
1AB
  5
1AB
331
1CD
  5
1CD
331
1E7
  5
1E7
331
209
  5
209
331
11A
  5
11A
331
F8
  5
F8
331
DE
  5
DE
331
BC
  5
BC
331
9A
  5
9A
331
78
  5
78
331
263
  5
263
331
22B
  5
22B
331
13C
  5
13C
331
285
  5
285
331
24D
  5
24D
331
15E
  5
15E
331
178
  5
178
331
19A
  5
19A
331
1BC
  5
1BC
331
1DE
  5
1DE
331
1F8
  5
1F8
331
21A
  5
21A
331
12B
  5
12B
331
109
  5
109
331
EF
  5
EF
331
CD
  5
CD
331
AB
  5
AB
331
89
  5
89
331
6F
  5
6F
331
4D
  5
4D
331
274
  5
274
331
23C
  5
23C
331
14D
  5
14D
331
296
  5
296
331
5E
  5
5E
331
3C
  5
3C
331
2B
  5
2B
331
1A9
  5
1A9
331
1CB
  5
1CB
331
1E5
  5
1E5
331
207
  5
207
331
118
  5
118
331
F6
  5
F6
331
DC
  5
DC
331
BA
  5
BA
331
98
  5
98
331
261
  5
261
331
229
  5
229
331
13A
  5
13A
331
283
  5
283
331
24B
  5
24B
331
15C
  5
15C
331
176
  5
176
331
198
  5
198
331
1BA
  5
1BA
331
1DC
  5
1DC
331
325
  5
31C
331
1F6
  5
1F6
331
218
  5
218
331
129
  5
129
331
107
  5
107
331
ED
  5
ED
331
CB
  5
CB
331
A9
  5
A9
331
87
  5
87
331
6D
  5
6D
331
4B
  5
4B
331
272
  5
272
331
23A
  5
23A
331
14B
  5
14B
331
294
  5
294
331
187
  5
187
331
5C
  5
5C
331
3A
  5
3A
331
29
  5
29
331
1C9
  5
1C9
331
1E3
  5
1E3
331
205
  5
205
331
25F
  5
25F
331
227
  5
227
331
138
  5
138
331
116
  5
116
331
F4
  5
F4
331
DA
  5
DA
331
B8
  5
B8
331
281
  5
281
331
249
  5
249
331
15A
  5
15A
331
174
  5
174
331
196
  5
196
331
1B8
  5
1B8
331
1DA
  5
1DA
331
323
  5
31A
331
1F4
  5
1F4
331
216
  5
216
331
127
  5
127
331
105
  5
105
331
EB
  5
EB
331
C9
  5
C9
331
A7
  5
A7
331
85
  5
85
331
6B
  5
6B
331
49
  5
49
331
270
  5
270
331
238
  5
238
331
149
  5
149
331
292
  5
292
331
185
  5
185
331
1A7
  5
1A7
331
96
  5
96
331
5A
  5
5A
331
38
  5
38
331
1E1
  5
1E1
331
203
  5
203
331
25D
  5
25D
331
225
  5
225
331
136
  5
136
331
114
  5
114
331
F2
  5
F2
331
D8
  5
D8
331
27F
  5
27F
331
247
  5
247
331
158
  5
158
331
172
  5
172
331
194
  5
194
331
1B6
  5
1B6
331
1D8
  5
1D8
331
321
  5
318
331
1F2
  5
1F2
331
214
  5
214
331
125
  5
125
331
103
  5
103
331
E9
  5
E9
331
C7
  5
C7
331
A5
  5
A5
331
83
  5
83
331
69
  5
69
331
47
  5
47
331
26E
  5
26E
331
236
  5
236
331
147
  5
147
331
290
  5
290
331
183
  5
183
331
1A5
  5
1A5
331
1C7
  5
1C7
331
B6
  5
B6
331
94
  5
94
331
58
  5
58
331
36
  5
36
331
201
  5
201
331
25B
  5
25B
331
223
  5
223
331
134
  5
134
331
112
  5
112
331
F0
  5
F0
331
27D
  5
27D
331
245
  5
245
331
156
  5
156
331
29F
  5
29F
331
170
  5
170
331
192
  5
192
331
1B4
  5
1B4
331
1D6
  5
1D6
331
1F0
  5
1F0
331
212
  5
212
331
123
  5
123
331
101
  5
101
331
E7
  5
E7
331
C5
  5
C5
331
A3
  5
A3
331
81
  5
81
331
67
  5
67
331
45
  5
45
331
26C
  5
26C
331
234
  5
234
331
145
  5
145
331
28E
  5
28E
331
256
  5
256
331
181
  5
181
331
167
  5
167
331
1A3
  5
1A3
331
1C5
  5
1C5
331
D6
  5
D6
331
B4
  5
B4
331
92
  5
92
331
56
  5
56
331
34
  5
34
331
259
  5
259
331
221
  5
221
331
132
  5
132
331
110
  5
110
331
27B
  5
27B
331
243
  5
243
331
154
  5
154
331
29D
  5
29D
331
16E
  5
16E
331
190
  5
190
331
1B2
  5
1B2
331
1D4
  5
1D4
331
31D
  5
326
331
1EE
  5
1EE
331
210
  5
210
331
121
  5
121
331
FF
  5
FF
331
E5
  5
E5
331
C3
  5
C3
331
A1
  5
A1
331
7F
  5
7F
331
65
  5
65
331
43
  5
43
331
26A
  5
26A
331
232
  5
232
331
143
  5
143
331
28C
  5
28C
331
254
  5
254
331
165
  5
165
331
17F
  5
17F
331
1A1
  5
1A1
331
1C3
  5
1C3
331
1FF
  5
1FF
331
D4
  5
D4
331
B2
  5
B2
331
90
  5
90
331
76
  5
76
331
54
  5
54
331
32
  5
32
331
130
  5
130
331
279
  5
279
331
241
  5
241
331
152
  5
152
331
29B
  5
29B
331
16C
  5
16C
331
18E
  5
18E
331
1B0
  5
1B0
331
1D2
  5
1D2
331
31B
  5
324
331
1EC
  5
1EC
331
20E
  5
20E
331
11F
  5
11F
331
FD
  5
FD
331
E3
  5
E3
331
C1
  5
C1
331
9F
  5
9F
331
7D
  5
7D
331
63
  5
63
331
41
  5
41
331
268
  5
268
331
230
  5
230
331
141
  5
141
331
28A
  5
28A
331
252
  5
252
331
163
  5
163
331
17D
  5
17D
331
19F
  5
19F
331
1C1
  5
1C1
331
1FD
  5
1FD
331
21F
  5
21F
331
10E
  5
10E
331
D2
  5
D2
331
B0
  5
B0
331
8E
  5
8E
331
74
  5
74
331
52
  5
52
331
30
  5
30
331
150
  5
150
331
299
  5
299
331
16A
  5
16A
331
18C
  5
18C
331
1AE
  5
1AE
331
1D0
  5
1D0
331
319
  5
322
331
1EA
  5
1EA
331
20C
  5
20C
331
11D
  5
11D
331
FB
  5
FB
331
E1
  5
E1
331
BF
  5
BF
331
9D
  5
9D
331
7B
  5
7B
331
61
  5
61
331
266
  5
266
331
22E
  5
22E
331
13F
  5
13F
331
288
  5
288
331
250
  5
250
331
161
  5
161
331
17B
  5
17B
331
19D
  5
19D
331
1BF
  5
1BF
331
1FB
  5
1FB
331
21D
  5
21D
331
12E
  5
12E
331
10C
  5
10C
331
D0
  5
D0
331
AE
  5
AE
331
8C
  5
8C
331
72
  5
72
331
50
  5
50
331
277
  5
277
331
23F
  5
23F
331
3F
  5
3F
331
2E
  5
2E
331
168
  5
168
331
18A
  5
18A
331
1AC
  5
1AC
331
1CE
  5
1CE
331
317
  5
320
331
1E8
  5
1E8
331
20A
  5
20A
331
11B
  5
11B
331
F9
  5
F9
331
DF
  5
DF
331
BD
  5
BD
331
9B
  5
9B
331
79
  5
79
331
264
  5
264
331
22C
  5
22C
331
13D
  5
13D
331
286
  5
286
331
24E
  5
24E
331
15F
  5
15F
331
179
  5
179
331
19B
  5
19B
331
1BD
  5
1BD
331
1F9
  5
1F9
331
1DF
  5
1DF
331
21B
  5
21B
331
12C
  5
12C
331
10A
  5
10A
331
CE
  5
CE
331
AC
  5
AC
331
8A
  5
8A
331
70
  5
70
331
4E
  5
4E
331
275
  5
275
331
23D
  5
23D
331
14E
  5
14E
331
297
  5
297
331
5F
  5
5F
331
3D
  5
3D
331
2C
  5
2C
331
188
  5
188
331
1AA
  5
1AA
331
1CC
  5
1CC
331
1E6
  5
1E6
331
208
  5
208
331
119
  5
119
331
F7
  5
F7
331
DD
  5
DD
331
BB
  5
BB
331
99
  5
99
331
262
  5
262
331
22A
  5
22A
331
13B
  5
13B
331
284
  5
284
331
24C
  5
24C
331
15D
  5
15D
331
177
  5
177
331
199
  5
199
331
1BB
  5
1BB
331
1DD
  5
1DD
331
326
  5
31D
331
1F7
  5
1F7
331
219
  5
219
331
12A
  5
12A
331
108
  5
108
331
EE
  5
EE
331
CC
  5
CC
331
AA
  5
AA
331
88
  5
88
331
6E
  5
6E
331
4C
  5
4C
331
273
  5
273
331
23B
  5
23B
331
14C
  5
14C
331
295
  5
295
331
5D
  5
5D
331
3B
  5
3B
331
2A
  5
2A
  0
LAYOUT
  5
21
102
{ACAD_REACTORS
330
1E
102
}
330
1E
100
AcDbPlotSettings
  1

  2
Foxit PDF Printer
  4
Letter
  6

 40
3.174999952316284
 41
3.174999952316284
 42
3.17498779296875
 43
3.175003051757812
 44
279.3999938964844
 45
215.8999938964844
 46
31.47715384821894
 47
24.12875752349356
 48
0.0
 49
0.0
140
0.0
141
0.0
142
1.0
143
1.0
 70
     4
 72
     0
 73
     0
 74
     1
  7

 75
    16
147
1.0
 76
     1
 77
     2
 78
   300
148
-26.25461124795212
149
-20.16000981431432
100
AcDbLayout
  1
Layout1
 70
     0
 71
     1
 10
-0.3306119115190196
 20
-0.2812499079328949
 11
10.66938784818509
 21
8.218749851771214
 12
0.0
 22
0.0
 32
0.0
 14
0.0333458901492989
 24
0.0100667243341697
 34
-0.0015258207003583
 15
10.34072932953005
 25
8.015599864135822
 35
0.0000000349246037
146
0.0
 13
0.0
 23
0.0
 33
0.0
 16
1.0
 26
0.0
 36
0.0
 17
0.0
 27
1.0
 37
0.0
 76
     0
330
B
331
2D3
1001
ACAD_PSEXT
1000
Foxit PDF Printer
1000
Foxit PDF Printer Driver
1000
FOXIT_PDF
1000

1070
     0
  0
LAYOUT
  5
20
102
{ACAD_REACTORS
330
1E
102
}
330
1E
100
AcDbPlotSettings
  1

  2

  4

  6

 40
0.0
 41
0.0
 42
0.0
 43
0.0
 44
0.0
 45
0.0
 46
0.0
 47
0.0
 48
0.0
 49
0.0
140
0.0
141
0.0
142
1.0
143
1.0
 70
  1024
 72
     0
 73
     0
 74
     0
  7

 75
     0
147
1.0
 76
     0
 77
     2
 78
   300
148
0.0
149
0.0
100
AcDbLayout
  1
Model
 70
     0
 71
     0
 10
0.0
 20
0.0
 11
0.0
 21
0.0
 12
0.0
 22
0.0
 32
0.0
 14
0.0
 24
0.0
 34
0.0
 15
0.0
 25
0.0
 35
0.0
146
0.0
 13
0.0
 23
0.0
 33
0.0
 16
0.0
 26
0.0
 36
0.0
 17
0.0
 27
0.0
 37
0.0
 76
     0
330
A
  0
MATERIAL
  5
2B9
102
{ACAD_XDICTIONARY
360
346
102
}
102
{ACAD_REACTORS
330
2B7
102
}
330
2B7
100
AcDbMaterial
  1
ByBlock
 73
     1
 78
     1
172
     1
176
     1
270
     1
274
     1
  0
MATERIAL
  5
2B8
102
{ACAD_XDICTIONARY
360
344
102
}
102
{ACAD_REACTORS
330
2B7
102
}
330
2B7
100
AcDbMaterial
  1
ByLayer
 73
     1
 78
     1
172
     1
176
     1
270
     1
274
     1
  0
MATERIAL
  5
2BA
102
{ACAD_XDICTIONARY
360
348
102
}
102
{ACAD_REACTORS
330
2B7
102
}
330
2B7
100
AcDbMaterial
  1
Global
 73
     1
 78
     1
172
     1
176
     1
270
     1
274
     1
  0
MLEADERSTYLE
  5
301
102
{ACAD_REACTORS
330
300
102
}
330
300
100
AcDbMLeaderStyle
170
     2
171
     1
172
     0
 90
        2
 40
0.0
 41
0.0
173
     1
 91
-1056964608
340
11
 92
       -2
290
     1
 42
0.09
291
     1
 43
0.36
  3
Standard
 44
0.18
300

342
17
174
     1
178
     6
175
     1
176
     0
 93
-1056964608
 45
0.18
292
     0
297
     0
 46
0.18
 94
-1056964608
 47
1.0
 49
1.0
140
1.0
293
     1
141
0.0
294
     1
177
     0
142
1.0
295
     0
296
     0
143
0.125
1001
ACAD_MLEADERVER
1070
     2
  0
MLINESTYLE
  5
1C
102
{ACAD_REACTORS
330
1B
102
}
330
1B
100
AcDbMlineStyle
  2
STANDARD
 70
     0
  3

 62
     0
 51
90.0
 52
90.0
 71
     2
 49
0.5
 62
   256
  6
BYLAYER
 49
-0.5
 62
   256
  6
BYLAYER
  0
ACDBPLACEHOLDER
  5
1D
102
{ACAD_REACTORS
330
1F
102
}
330
1F
  0
SCALE
  5
2DF
102
{ACAD_REACTORS
330
2DE
102
}
330
2DE
100
AcDbScale
 70
     0
300
1:1
140
1.0
141
1.0
290
     1
  0
SCALE
  5
2E0
102
{ACAD_REACTORS
330
2DE
102
}
330
2DE
100
AcDbScale
 70
     0
300
1:2
140
1.0
141
2.0
290
     0
  0
SCALE
  5
2E1
102
{ACAD_REACTORS
330
2DE
102
}
330
2DE
100
AcDbScale
 70
     0
300
1:4
140
1.0
141
4.0
290
     0
  0
SCALE
  5
2E2
102
{ACAD_REACTORS
330
2DE
102
}
330
2DE
100
AcDbScale
 70
     0
300
1:5
140
1.0
141
5.0
290
     0
  0
SCALE
  5
2E3
102
{ACAD_REACTORS
330
2DE
102
}
330
2DE
100
AcDbScale
 70
     0
300
1:8
140
1.0
141
8.0
290
     0
  0
SCALE
  5
2E4
102
{ACAD_REACTORS
330
2DE
102
}
330
2DE
100
AcDbScale
 70
     0
300
1:10
140
1.0
141
10.0
290
     0
  0
SCALE
  5
2E5
102
{ACAD_REACTORS
330
2DE
102
}
330
2DE
100
AcDbScale
 70
     0
300
1:16
140
1.0
141
16.0
290
     0
  0
SCALE
  5
2E6
102
{ACAD_REACTORS
330
2DE
102
}
330
2DE
100
AcDbScale
 70
     0
300
1:20
140
1.0
141
20.0
290
     0
  0
SCALE
  5
2E7
102
{ACAD_REACTORS
330
2DE
102
}
330
2DE
100
AcDbScale
 70
     0
300
1:30
140
1.0
141
30.0
290
     0
  0
SCALE
  5
2E8
102
{ACAD_REACTORS
330
2DE
102
}
330
2DE
100
AcDbScale
 70
     0
300
1:40
140
1.0
141
40.0
290
     0
  0
SCALE
  5
2E9
102
{ACAD_REACTORS
330
2DE
102
}
330
2DE
100
AcDbScale
 70
     0
300
1:50
140
1.0
141
50.0
290
     0
  0
SCALE
  5
2EA
102
{ACAD_REACTORS
330
2DE
102
}
330
2DE
100
AcDbScale
 70
     0
300
1:100
140
1.0
141
100.0
290
     0
  0
SCALE
  5
2EB
102
{ACAD_REACTORS
330
2DE
102
}
330
2DE
100
AcDbScale
 70
     0
300
2:1
140
2.0
141
1.0
290
     0
  0
SCALE
  5
2EC
102
{ACAD_REACTORS
330
2DE
102
}
330
2DE
100
AcDbScale
 70
     0
300
4:1
140
4.0
141
1.0
290
     0
  0
SCALE
  5
2ED
102
{ACAD_REACTORS
330
2DE
102
}
330
2DE
100
AcDbScale
 70
     0
300
8:1
140
8.0
141
1.0
290
     0
  0
SCALE
  5
2EE
102
{ACAD_REACTORS
330
2DE
102
}
330
2DE
100
AcDbScale
 70
     0
300
10:1
140
10.0
141
1.0
290
     0
  0
SCALE
  5
2EF
102
{ACAD_REACTORS
330
2DE
102
}
330
2DE
100
AcDbScale
 70
     0
300
100:1
140
100.0
141
1.0
290
     0
  0
SCALE
  5
2F0
102
{ACAD_REACTORS
330
2DE
102
}
330
2DE
100
AcDbScale
 70
     0
300
1/128" = 1'-0"
140
0.0078125
141
12.0
290
     0
  0
SCALE
  5
2F1
102
{ACAD_REACTORS
330
2DE
102
}
330
2DE
100
AcDbScale
 70
     0
300
1/64" = 1'-0"
140
0.015625
141
12.0
290
     0
  0
SCALE
  5
2F2
102
{ACAD_REACTORS
330
2DE
102
}
330
2DE
100
AcDbScale
 70
     0
300
1/32" = 1'-0"
140
0.03125
141
12.0
290
     0
  0
SCALE
  5
2F3
102
{ACAD_REACTORS
330
2DE
102
}
330
2DE
100
AcDbScale
 70
     0
300
1/16" = 1'-0"
140
0.0625
141
12.0
290
     0
  0
SCALE
  5
2F4
102
{ACAD_REACTORS
330
2DE
102
}
330
2DE
100
AcDbScale
 70
     0
300
3/32" = 1'-0"
140
0.09375
141
12.0
290
     0
  0
SCALE
  5
2F5
102
{ACAD_REACTORS
330
2DE
102
}
330
2DE
100
AcDbScale
 70
     0
300
1/8" = 1'-0"
140
0.125
141
12.0
290
     0
  0
SCALE
  5
2F6
102
{ACAD_REACTORS
330
2DE
102
}
330
2DE
100
AcDbScale
 70
     0
300
3/16" = 1'-0"
140
0.1875
141
12.0
290
     0
  0
SCALE
  5
2F7
102
{ACAD_REACTORS
330
2DE
102
}
330
2DE
100
AcDbScale
 70
     0
300
1/4" = 1'-0"
140
0.25
141
12.0
290
     0
  0
SCALE
  5
2F8
102
{ACAD_REACTORS
330
2DE
102
}
330
2DE
100
AcDbScale
 70
     0
300
3/8" = 1'-0"
140
0.375
141
12.0
290
     0
  0
SCALE
  5
2F9
102
{ACAD_REACTORS
330
2DE
102
}
330
2DE
100
AcDbScale
 70
     0
300
1/2" = 1'-0"
140
0.5
141
12.0
290
     0
  0
SCALE
  5
2FA
102
{ACAD_REACTORS
330
2DE
102
}
330
2DE
100
AcDbScale
 70
     0
300
3/4" = 1'-0"
140
0.75
141
12.0
290
     0
  0
SCALE
  5
2FB
102
{ACAD_REACTORS
330
2DE
102
}
330
2DE
100
AcDbScale
 70
     0
300
1" = 1'-0"
140
1.0
141
12.0
290
     0
  0
SCALE
  5
2FC
102
{ACAD_REACTORS
330
2DE
102
}
330
2DE
100
AcDbScale
 70
     0
300
1-1/2" = 1'-0"
140
1.5
141
12.0
290
     0
  0
SCALE
  5
2FD
102
{ACAD_REACTORS
330
2DE
102
}
330
2DE
100
AcDbScale
 70
     0
300
3" = 1'-0"
140
3.0
141
12.0
290
     0
  0
SCALE
  5
2FE
102
{ACAD_REACTORS
330
2DE
102
}
330
2DE
100
AcDbScale
 70
     0
300
6" = 1'-0"
140
6.0
141
12.0
290
     0
  0
SCALE
  5
2FF
102
{ACAD_REACTORS
330
2DE
102
}
330
2DE
100
AcDbScale
 70
     0
300
1'-0" = 1'-0"
140
12.0
141
12.0
290
     0
  0
TABLESTYLE
  5
2CE
102
{ACAD_XDICTIONARY
360
341
102
}
102
{ACAD_REACTORS
330
2CD
102
}
330
2CD
100
AcDbTableStyle
  3
Standard
 70
     0
 71
     0
 40
0.06
 41
0.06
280
     0
281
     0
  7
Standard
140
0.18
170
     2
 62
     0
 63
     7
283
     0
274
    -2
284
     1
 64
     0
275
    -2
285
     1
 65
     0
276
    -2
286
     1
 66
     0
277
    -2
287
     1
 67
     0
278
    -2
288
     1
 68
     0
279
    -2
289
     1
 69
     0
  7
Standard
140
0.25
170
     5
 62
     0
 63
     7
283
     0
274
    -2
284
     1
 64
     0
275
    -2
285
     1
 65
     0
276
    -2
286
     1
 66
     0
277
    -2
287
     1
 67
     0
278
    -2
288
     1
 68
     0
279
    -2
289
     1
 69
     0
  7
Standard
140
0.18
170
     5
 62
     0
 63
     7
283
     0
274
    -2
284
     1
 64
     0
275
    -2
285
     1
 65
     0
276
    -2
286
     1
 66
     0
277
    -2
287
     1
 67
     0
278
    -2
288
     1
 68
     0
279
    -2
289
     1
 69
     0
  0
VISUALSTYLE
  5
2C1
102
{ACAD_REACTORS
330
2BB
102
}
330
2BB
100
AcDbVisualStyle
  2
2dWireframe
 70
     4
 71
     0
 72
     2
 73
     0
 90
        0
 40
-0.6
 41
-30.0
 62
     5
 63
     7
421
 16777215
 74
     1
 91
        4
 64
     7
 65
   257
 75
     1
175
     1
 42
1.0
 92
        0
 66
   257
 43
1.0
 76
     1
 77
     6
 78
     2
 67
     7
 79
     5
170
     0
171
     0
290
     0
174
     0
 93
        1
 44
0.0
173
     0
291
     0
 45
0.0
1001
ACAD
1000
AcDbSavedByObjectVersion
1070
     0
  0
VISUALSTYLE
  5
2C3
102
{ACAD_REACTORS
330
2BB
102
}
330
2BB
100
AcDbVisualStyle
  2
3D Hidden
 70
     6
 71
     1
 72
     2
 73
     2
 90
        0
 40
-0.6
 41
-30.0
 62
     5
 63
     7
421
 16777215
 74
     2
 91
        2
 64
     7
 65
   257
 75
     2
175
     1
 42
40.0
 92
        0
 66
   257
 43
1.0
 76
     1
 77
     6
 78
     2
 67
     7
 79
     3
170
     0
171
     0
290
     0
174
     0
 93
        1
 44
0.0
173
     0
291
     0
 45
0.0
1001
ACAD
1000
AcDbSavedByObjectVersion
1070
     0
  0
VISUALSTYLE
  5
2C2
102
{ACAD_REACTORS
330
2BB
102
}
330
2BB
100
AcDbVisualStyle
  2
3dWireframe
 70
     5
 71
     0
 72
     2
 73
     0
 90
        0
 40
-0.6
 41
-30.0
 62
     5
 63
     7
421
 16777215
 74
     1
 91
        4
 64
     7
 65
   257
 75
     1
175
     1
 42
1.0
 92
        0
 66
   257
 43
1.0
 76
     1
 77
     6
 78
     2
 67
     7
 79
     5
170
     0
171
     0
290
     0
174
     0
 93
        1
 44
0.0
173
     0
291
     0
 45
0.0
1001
ACAD
1000
AcDbSavedByObjectVersion
1070
     0
  0
VISUALSTYLE
  5
2C0
102
{ACAD_REACTORS
330
2BB
102
}
330
2BB
100
AcDbVisualStyle
  2
Basic
 70
     7
 71
     1
 72
     0
 73
     1
 90
        0
 40
-0.6
 41
-30.0
 62
     5
 63
     7
421
 16777215
 74
     0
 91
        4
 64
     7
 65
   257
 75
     1
175
     1
 42
1.0
 92
        8
 66
     7
 43
1.0
 76
     1
 77
     6
 78
     2
 67
     7
 79
     5
170
     0
171
     0
290
     0
174
     0
 93
        1
 44
0.0
173
     0
291
     1
 45
0.0
1001
ACAD
1000
AcDbSavedByObjectVersion
1070
     0
  0
VISUALSTYLE
  5
2C7
102
{ACAD_REACTORS
330
2BB
102
}
330
2BB
100
AcDbVisualStyle
  2
Brighten
 70
    12
 71
     2
 72
     2
 73
     0
 90
        0
 40
-0.6
 41
-30.0
 62
     5
 63
     7
421
 16777215
 74
     1
 91
        4
 64
     7
 65
   257
 75
     1
175
     1
 42
1.0
 92
        8
 66
     7
 43
1.0
 76
     1
 77
     6
 78
     2
 67
     7
 79
     5
170
     0
171
     0
290
     0
174
     0
 93
        1
 44
50.0
173
     0
291
     1
 45
0.0
1001
ACAD
1000
AcDbSavedByObjectVersion
1070
     0
  0
VISUALSTYLE
  5
2CB
102
{ACAD_REACTORS
330
2BB
102
}
330
2BB
100
AcDbVisualStyle
  2
ColorChange
 70
    16
 71
     2
 72
     2
 73
     3
 90
        0
 40
-0.6
 41
-30.0
 62
     5
 63
     8
421
  8421504
 74
     1
 91
        4
 64
     7
 65
   257
 75
     1
175
     1
 42
1.0
 92
        8
 66
     8
424
  8421504
 43
1.0
 76
     1
 77
     6
 78
     2
 67
     7
 79
     5
170
     0
171
     0
290
     0
174
     0
 93
        1
 44
0.0
173
     0
291
     1
 45
0.0
1001
ACAD
1000
AcDbSavedByObjectVersion
1070
     0
  0
VISUALSTYLE
  5
2C4
102
{ACAD_REACTORS
330
2BB
102
}
330
2BB
100
AcDbVisualStyle
  2
Conceptual
 70
     9
 71
     3
 72
     2
 73
     0
 90
        0
 40
-0.6
 41
-30.0
 62
     5
 63
     7
421
 16777215
 74
     2
 91
        2
 64
     7
 65
   257
 75
     1
175
     1
 42
40.0
 92
        8
 66
     7
 43
1.0
 76
     1
 77
     6
 78
     2
 67
     7
 79
     3
170
     0
171
     0
290
     0
174
     0
 93
        1
 44
0.0
173
     0
291
     0
 45
0.0
1001
ACAD
1000
AcDbSavedByObjectVersion
1070
     0
  0
VISUALSTYLE
  5
2C6
102
{ACAD_REACTORS
330
2BB
102
}
330
2BB
100
AcDbVisualStyle
  2
Dim
 70
    11
 71
     2
 72
     2
 73
     0
 90
        0
 40
-0.6
 41
-30.0
 62
     5
 63
     7
421
 16777215
 74
     1
 91
        4
 64
     7
 65
   257
 75
     1
175
     1
 42
1.0
 92
        8
 66
     7
 43
1.0
 76
     1
 77
     6
 78
     2
 67
     7
 79
     5
170
     0
171
     0
290
     0
174
     0
 93
        1
 44
-50.0
173
     0
291
     1
 45
0.0
1001
ACAD
1000
AcDbSavedByObjectVersion
1070
     0
  0
VISUALSTYLE
  5
2CA
102
{ACAD_REACTORS
330
2BB
102
}
330
2BB
100
AcDbVisualStyle
  2
Facepattern
 70
    15
 71
     2
 72
     2
 73
     0
 90
        0
 40
-0.6
 41
-30.0
 62
     5
 63
     7
421
 16777215
 74
     1
 91
        4
 64
     7
 65
   257
 75
     1
175
     1
 42
1.0
 92
        8
 66
     7
 43
1.0
 76
     1
 77
     6
 78
     2
 67
     7
 79
     5
170
     0
171
     0
290
     0
174
     0
 93
        1
 44
0.0
173
     0
291
     1
 45
0.0
1001
ACAD
1000
AcDbSavedByObjectVersion
1070
     0
  0
VISUALSTYLE
  5
2BC
102
{ACAD_REACTORS
330
2BB
102
}
330
2BB
100
AcDbVisualStyle
  2
Flat
 70
     0
 71
     2
 72
     1
 73
     1
 90
        2
 40
-0.6
 41
30.0
 62
     5
 63
     7
421
 16777215
 74
     0
 91
        4
 64
     7
 65
   257
 75
     1
175
     1
 42
1.0
 92
        8
 66
     7
 43
1.0
 76
     1
 77
     6
 78
     2
 67
     7
 79
     5
170
     0
171
     0
290
     0
174
     0
 93
       13
 44
0.0
173
     0
291
     1
 45
0.0
1001
ACAD
1000
AcDbSavedByObjectVersion
1070
     0
  0
VISUALSTYLE
  5
2BD
102
{ACAD_REACTORS
330
2BB
102
}
330
2BB
100
AcDbVisualStyle
  2
FlatWithEdges
 70
     1
 71
     2
 72
     1
 73
     1
 90
        2
 40
-0.6
 41
30.0
 62
     5
 63
     7
421
 16777215
 74
     1
 91
        4
 64
     7
 65
   257
 75
     1
175
     1
 42
1.0
 92
        0
 66
   257
 43
1.0
 76
     1
 77
     6
 78
     2
 67
     7
 79
     5
170
     0
171
     0
290
     0
174
     0
 93
       13
 44
0.0
173
     0
291
     1
 45
0.0
1001
ACAD
1000
AcDbSavedByObjectVersion
1070
     0
  0
VISUALSTYLE
  5
2BE
102
{ACAD_REACTORS
330
2BB
102
}
330
2BB
100
AcDbVisualStyle
  2
Gouraud
 70
     2
 71
     2
 72
     2
 73
     1
 90
        2
 40
-0.6
 41
30.0
 62
     5
 63
     7
421
 16777215
 74
     0
 91
        4
 64
     7
 65
   257
 75
     1
175
     1
 42
1.0
 92
        0
 66
     7
 43
1.0
 76
     1
 77
     6
 78
     2
 67
     7
 79
     5
170
     0
171
     0
290
     0
174
     0
 93
       13
 44
0.0
173
     0
291
     1
 45
0.0
1001
ACAD
1000
AcDbSavedByObjectVersion
1070
     0
  0
VISUALSTYLE
  5
2BF
102
{ACAD_REACTORS
330
2BB
102
}
330
2BB
100
AcDbVisualStyle
  2
GouraudWithEdges
 70
     3
 71
     2
 72
     2
 73
     1
 90
        2
 40
-0.6
 41
30.0
 62
     5
 63
     7
421
 16777215
 74
     1
 91
        4
 64
     7
 65
   257
 75
     1
175
     1
 42
1.0
 92
        0
 66
   257
 43
1.0
 76
     1
 77
     6
 78
     2
 67
     7
 79
     5
170
     0
171
     0
290
     0
174
     0
 93
       13
 44
0.0
173
     0
291
     1
 45
0.0
1001
ACAD
1000
AcDbSavedByObjectVersion
1070
     0
  0
VISUALSTYLE
  5
2C9
102
{ACAD_REACTORS
330
2BB
102
}
330
2BB
100
AcDbVisualStyle
  2
Linepattern
 70
    14
 71
     2
 72
     2
 73
     0
 90
        0
 40
-0.6
 41
-30.0
 62
     5
 63
     7
421
 16777215
 74
     1
 91
        4
 64
     7
 65
   257
 75
     7
175
     7
 42
1.0
 92
        8
 66
     7
 43
1.0
 76
     1
 77
     6
 78
     2
 67
     7
 79
     5
170
     0
171
     0
290
     0
174
     0
 93
        1
 44
0.0
173
     0
291
     1
 45
0.0
1001
ACAD
1000
AcDbSavedByObjectVersion
1070
     0
  0
VISUALSTYLE
  5
2C5
102
{ACAD_REACTORS
330
2BB
102
}
330
2BB
100
AcDbVisualStyle
  2
Realistic
 70
     8
 71
     2
 72
     2
 73
     0
 90
        0
 40
-0.6
 41
-30.0
 62
     5
 63
     7
421
 16777215
 74
     1
 91
        0
 64
     7
 65
   257
 75
     1
175
     1
 42
1.0
 92
        8
 66
     8
424
  7895160
 43
1.0
 76
     1
 77
     6
 78
     2
 67
     7
 79
     5
170
     0
171
     0
290
     0
174
     0
 93
       13
 44
0.0
173
     0
291
     0
 45
0.0
1001
ACAD
1000
AcDbSavedByObjectVersion
1070
     0
  0
VISUALSTYLE
  5
2C8
102
{ACAD_REACTORS
330
2BB
102
}
330
2BB
100
AcDbVisualStyle
  2
Thicken
 70
    13
 71
     2
 72
     2
 73
     0
 90
        0
 40
-0.6
 41
-30.0
 62
     5
 63
     7
421
 16777215
 74
     1
 91
        4
 64
     7
 65
   257
 75
     1
175
     1
 42
1.0
 92
       12
 66
     7
 43
1.0
 76
     1
 77
     6
 78
     2
 67
     7
 79
     5
170
     0
171
     0
290
     0
174
     0
 93
        1
 44
0.0
173
     0
291
     1
 45
0.0
1001
ACAD
1000
AcDbSavedByObjectVersion
1070
     0
  0
DICTIONARYVAR
  5
340
102
{ACAD_REACTORS
330
2DB
102
}
330
2DB
100
DictionaryVariables
280
     0
  1
1:1
  0
DICTIONARYVAR
  5
33F
102
{ACAD_REACTORS
330
2DB
102
}
330
2DB
100
DictionaryVariables
280
     0
  1
STANDARD
  0
DICTIONARYVAR
  5
2DC
102
{ACAD_REACTORS
330
2DB
102
}
330
2DB
100
DictionaryVariables
280
     0
  1
STANDARD
  0
XRECORD
  5
2DA
102
{ACAD_REACTORS
330
2D8
102
}
330
2D8
100
AcDbXrecord
280
     1
  0
DICTIONARY
  5
346
330
2B9
100
AcDbDictionary
280
     1
281
     1
  3
ACAD_XREC_ROUNDTRIP
360
347
  0
DICTIONARY
  5
344
330
2B8
100
AcDbDictionary
280
     1
281
     1
  3
ACAD_XREC_ROUNDTRIP
360
345
  0
DICTIONARY
  5
348
330
2BA
100
AcDbDictionary
280
     1
281
     1
  3
ACAD_XREC_ROUNDTRIP
360
349
  0
DICTIONARY
  5
341
330
2CE
100
AcDbDictionary
280
     1
281
     1
  3
ACAD_ROUNDTRIP_2008_TABLESTYLE_CELLSTYLEMAP
360
342
  3
ACAD_XREC_ROUNDTRIP
360
34A
  0
XRECORD
  5
347
102
{ACAD_REACTORS
330
346
102
}
330
346
100
AcDbXrecord
280
     1
102
MATERIAL
148
0.0
149
0.0
149
0.0
 93
        0
 94
       63
282
     0
 72
     1
 77
     1
171
     1
175
     1
179
     1
273
     0
  0
XRECORD
  5
345
102
{ACAD_REACTORS
330
344
102
}
330
344
100
AcDbXrecord
280
     1
102
MATERIAL
148
0.0
149
0.0
149
0.0
 93
        0
 94
       63
282
     0
 72
     1
 77
     1
171
     1
175
     1
179
     1
273
     0
  0
XRECORD
  5
349
102
{ACAD_REACTORS
330
348
102
}
330
348
100
AcDbXrecord
280
     1
102
MATERIAL
148
0.0
149
0.0
149
0.0
 93
        0
 94
       63
282
     0
 72
     1
 77
     1
171
     1
175
     1
179
     1
273
     0
  0
CELLSTYLEMAP
  5
342
102
{ACAD_REACTORS
330
341
102
}
330
341
100
AcDbCellStyleMap
 90
        3
300
CELLSTYLE
  1
TABLEFORMAT_BEGIN
 90
        5
170
     1
 91
        0
 92
    32768
 62
   257
 93
        1
300
CONTENTFORMAT
  1
CONTENTFORMAT_BEGIN
 90
        0
 91
        0
 92
      512
 93
        0
300

 40
0.0
140
1.0
 94
        5
 62
     0
340
17
144
0.25
309
CONTENTFORMAT_END
171
     0
 94
        6
 95
        1
302
GRIDFORMAT
  1
GRIDFORMAT_BEGIN
 90
        0
 91
        1
 62
     0
 92
       -2
340
0
 93
        0
 40
0.045
309
GRIDFORMAT_END
 95
        2
302
GRIDFORMAT
  1
GRIDFORMAT_BEGIN
 90
        0
 91
        1
 62
     0
 92
       -2
340
0
 93
        0
 40
0.045
309
GRIDFORMAT_END
 95
        4
302
GRIDFORMAT
  1
GRIDFORMAT_BEGIN
 90
        0
 91
        1
 62
     0
 92
       -2
340
0
 93
        0
 40
0.045
309
GRIDFORMAT_END
 95
        8
302
GRIDFORMAT
  1
GRIDFORMAT_BEGIN
 90
        0
 91
        1
 62
     0
 92
       -2
340
0
 93
        0
 40
0.045
309
GRIDFORMAT_END
 95
       16
302
GRIDFORMAT
  1
GRIDFORMAT_BEGIN
 90
        0
 91
        1
 62
     0
 92
       -2
340
0
 93
        0
 40
0.045
309
GRIDFORMAT_END
 95
       32
302
GRIDFORMAT
  1
GRIDFORMAT_BEGIN
 90
        0
 91
        1
 62
     0
 92
       -2
340
0
 93
        0
 40
0.045
309
GRIDFORMAT_END
309
TABLEFORMAT_END
  1
CELLSTYLE_BEGIN
 90
        1
 91
        1
300
_TITLE
309
CELLSTYLE_END
300
CELLSTYLE
  1
TABLEFORMAT_BEGIN
 90
        5
170
     1
 91
        0
 92
        0
 62
   257
 93
        1
300
CONTENTFORMAT
  1
CONTENTFORMAT_BEGIN
 90
        0
 91
        0
 92
      512
 93
        0
300

 40
0.0
140
1.0
 94
        5
 62
     0
340
17
144
0.18
309
CONTENTFORMAT_END
171
     0
 94
        6
 95
        1
302
GRIDFORMAT
  1
GRIDFORMAT_BEGIN
 90
        0
 91
        1
 62
     0
 92
       -2
340
0
 93
        0
 40
0.045
309
GRIDFORMAT_END
 95
        2
302
GRIDFORMAT
  1
GRIDFORMAT_BEGIN
 90
        0
 91
        1
 62
     0
 92
       -2
340
0
 93
        0
 40
0.045
309
GRIDFORMAT_END
 95
        4
302
GRIDFORMAT
  1
GRIDFORMAT_BEGIN
 90
        0
 91
        1
 62
     0
 92
       -2
340
0
 93
        0
 40
0.045
309
GRIDFORMAT_END
 95
        8
302
GRIDFORMAT
  1
GRIDFORMAT_BEGIN
 90
        0
 91
        1
 62
     0
 92
       -2
340
0
 93
        0
 40
0.045
309
GRIDFORMAT_END
 95
       16
302
GRIDFORMAT
  1
GRIDFORMAT_BEGIN
 90
        0
 91
        1
 62
     0
 92
       -2
340
0
 93
        0
 40
0.045
309
GRIDFORMAT_END
 95
       32
302
GRIDFORMAT
  1
GRIDFORMAT_BEGIN
 90
        0
 91
        1
 62
     0
 92
       -2
340
0
 93
        0
 40
0.045
309
GRIDFORMAT_END
309
TABLEFORMAT_END
  1
CELLSTYLE_BEGIN
 90
        2
 91
        1
300
_HEADER
309
CELLSTYLE_END
300
CELLSTYLE
  1
TABLEFORMAT_BEGIN
 90
        5
170
     1
 91
        0
 92
        0
 62
   257
 93
        1
300
CONTENTFORMAT
  1
CONTENTFORMAT_BEGIN
 90
        0
 91
        0
 92
      512
 93
        0
300

 40
0.0
140
1.0
 94
        2
 62
     0
340
17
144
0.18
309
CONTENTFORMAT_END
171
     0
 94
        6
 95
        1
302
GRIDFORMAT
  1
GRIDFORMAT_BEGIN
 90
        0
 91
        1
 62
     0
 92
       -2
340
0
 93
        0
 40
0.045
309
GRIDFORMAT_END
 95
        2
302
GRIDFORMAT
  1
GRIDFORMAT_BEGIN
 90
        0
 91
        1
 62
     0
 92
       -2
340
0
 93
        0
 40
0.045
309
GRIDFORMAT_END
 95
        4
302
GRIDFORMAT
  1
GRIDFORMAT_BEGIN
 90
        0
 91
        1
 62
     0
 92
       -2
340
0
 93
        0
 40
0.045
309
GRIDFORMAT_END
 95
        8
302
GRIDFORMAT
  1
GRIDFORMAT_BEGIN
 90
        0
 91
        1
 62
     0
 92
       -2
340
0
 93
        0
 40
0.045
309
GRIDFORMAT_END
 95
       16
302
GRIDFORMAT
  1
GRIDFORMAT_BEGIN
 90
        0
 91
        1
 62
     0
 92
       -2
340
0
 93
        0
 40
0.045
309
GRIDFORMAT_END
 95
       32
302
GRIDFORMAT
  1
GRIDFORMAT_BEGIN
 90
        0
 91
        1
 62
     0
 92
       -2
340
0
 93
        0
 40
0.045
309
GRIDFORMAT_END
309
TABLEFORMAT_END
  1
CELLSTYLE_BEGIN
 90
        3
 91
        2
300
_DATA
309
CELLSTYLE_END
  0
XRECORD
  5
34A
102
{ACAD_REACTORS
330
341
102
}
330
341
100
AcDbXrecord
280
     1
102
ACAD_ROUNDTRIP_PRE2007_TABLESTYLE
 90
      512
 91
        0
  1

 92
      512
 93
        0
  2

 94
      512
 95
        0
  3

  0
ENDSEC
  0
EOF
