  0
SECTION
  2
HEADER
  9
$ACADVER
  1
AC1018
  9
$ACADMAINTVER
 70
   104
  9
$DWGCODEPAGE
  3
ANSI_1252
  9
$LASTSAVEDBY
  1
EARL
  9
$INSBASE
 10
0.0
 20
0.0
 30
0.0
  9
$EXTMIN
 10
-0.2327091828152834
 20
-0.1165532090423833
 30
0.0
  9
$EXTMAX
 10
5.403879234506163
 20
1.689007468445446
 30
0.0
  9
$LIMMIN
 10
0.0
 20
0.0
  9
$LIMMAX
 10
0.0
 20
0.0
  9
$ORTHOMODE
 70
     1
  9
$REGENMODE
 70
     1
  9
$FILLMODE
 70
     1
  9
$QTEXTMODE
 70
     0
  9
$MIRRTEXT
 70
     1
  9
$LTSCALE
 40
1.0
  9
$ATTMODE
 70
     1
  9
$TEXTSIZE
 40
0.0
  9
$TRACEWID
 40
0.05
  9
$TEXTSTYLE
  7
Standard
  9
$CLAYER
  8
0
  9
$CELTYPE
  6
Continuous
  9
$CECOLOR
 62
   256
  9
$CELTSCALE
 40
1.0
  9
$DISPSILH
 70
     0
  9
$DIMSCALE
 40
1.0
  9
$DIMASZ
 40
0.18
  9
$DIMEXO
 40
0.0625
  9
$DIMDLI
 40
0.38
  9
$DIMRND
 40
0.0
  9
$DIMDLE
 40
0.0
  9
$DIMEXE
 40
0.18
  9
$DIMTP
 40
0.0
  9
$DIMTM
 40
0.0
  9
$DIMTXT
 40
0.18
  9
$DIMCEN
 40
0.09
  9
$DIMTSZ
 40
0.0
  9
$DIMTOL
 70
     0
  9
$DIMLIM
 70
     0
  9
$DIMTIH
 70
     1
  9
$DIMTOH
 70
     1
  9
$DIMSE1
 70
     0
  9
$DIMSE2
 70
     0
  9
$DIMTAD
 70
     0
  9
$DIMZIN
 70
     0
  9
$DIMBLK
  1

  9
$DIMASO
 70
     1
  9
$DIMSHO
 70
     1
  9
$DIMPOST
  1

  9
$DIMAPOST
  1

  9
$DIMALT
 70
     0
  9
$DIMALTD
 70
     2
  9
$DIMALTF
 40
25.4
  9
$DIMLFAC
 40
1.0
  9
$DIMTOFL
 70
     0
  9
$DIMTVP
 40
0.0
  9
$DIMTIX
 70
     0
  9
$DIMSOXD
 70
     0
  9
$DIMSAH
 70
     0
  9
$DIMBLK1
  1

  9
$DIMBLK2
  1

  9
$DIMSTYLE
  2
Standard
  9
$DIMCLRD
 70
     0
  9
$DIMCLRE
 70
     0
  9
$DIMCLRT
 70
     0
  9
$DIMTFAC
 40
1.0
  9
$DIMGAP
 40
0.09
  9
$DIMJUST
 70
     0
  9
$DIMSD1
 70
     0
  9
$DIMSD2
 70
     0
  9
$DIMTOLJ
 70
     1
  9
$DIMTZIN
 70
     0
  9
$DIMALTZ
 70
     0
  9
$DIMALTTZ
 70
     0
  9
$DIMUPT
 70
     0
  9
$DIMDEC
 70
     4
  9
$DIMTDEC
 70
     4
  9
$DIMALTU
 70
     2
  9
$DIMALTTD
 70
     2
  9
$DIMTXSTY
  7
Standard
  9
$DIMAUNIT
 70
     0
  9
$DIMADEC
 70
     0
  9
$DIMALTRND
 40
0.0
  9
$DIMAZIN
 70
     0
  9
$DIMDSEP
 70
    46
  9
$DIMATFIT
 70
     0
  9
$DIMFRAC
 70
     0
  9
$DIMLDRBLK
  1

  9
$DIMLUNIT
 70
     2
  9
$DIMLWD
 70
    -2
  9
$DIMLWE
 70
    -2
  9
$DIMTMOVE
 70
     0
  9
$LUNITS
 70
     2
  9
$LUPREC
 70
     4
  9
$SKETCHINC
 40
0.1
  9
$FILLETRAD
 40
0.0
  9
$AUNITS
 70
     0
  9
$AUPREC
 70
     0
  9
$MENU
  1
acad
  9
$ELEVATION
 40
0.0
  9
$PELEVATION
 40
0.0
  9
$THICKNESS
 40
0.0
  9
$LIMCHECK
 70
     0
  9
$CHAMFERA
 40
0.0
  9
$CHAMFERB
 40
0.0
  9
$CHAMFERC
 40
0.0
  9
$CHAMFERD
 40
0.0
  9
$SKPOLY
 70
     0
  9
$TDCREATE
 40
2454843.457037037
  9
$TDUCREATE
 40
2454843.623703704
  9
$TDUPDATE
 40
2455105.045879260
  9
$TDUUPDATE
 40
2455105.212545926
  9
$TDINDWG
 40
0.0009176042
  9
$TDUSRTIMER
 40
0.0009176042
  9
$USRTIMER
 70
     1
  9
$ANGBASE
 50
0.0
  9
$ANGDIR
 70
     0
  9
$PDMODE
 70
     0
  9
$PDSIZE
 40
0.0
  9
$PLINEWID
 40
0.0
  9
$SPLFRAME
 70
     0
  9
$SPLINETYPE
 70
     6
  9
$SPLINESEGS
 70
     8
  9
$HANDSEED
  5
1A2
  9
$SURFTAB1
 70
     6
  9
$SURFTAB2
 70
     6
  9
$SURFTYPE
 70
     6
  9
$SURFU
 70
     6
  9
$SURFV
 70
     6
  9
$UCSBASE
  2

  9
$UCSNAME
  2

  9
$UCSORG
 10
0.0
 20
0.0
 30
0.0
  9
$UCSXDIR
 10
1.0
 20
0.0
 30
0.0
  9
$UCSYDIR
 10
0.0
 20
1.0
 30
0.0
  9
$UCSORTHOREF
  2

  9
$UCSORTHOVIEW
 70
     0
  9
$UCSORGTOP
 10
0.0
 20
0.0
 30
0.0
  9
$UCSORGBOTTOM
 10
0.0
 20
0.0
 30
0.0
  9
$UCSORGLEFT
 10
0.0
 20
0.0
 30
0.0
  9
$UCSORGRIGHT
 10
0.0
 20
0.0
 30
0.0
  9
$UCSORGFRONT
 10
0.0
 20
0.0
 30
0.0
  9
$UCSORGBACK
 10
0.0
 20
0.0
 30
0.0
  9
$PUCSBASE
  2

  9
$PUCSNAME
  2

  9
$PUCSORG
 10
0.0
 20
0.0
 30
0.0
  9
$PUCSXDIR
 10
1.0
 20
0.0
 30
0.0
  9
$PUCSYDIR
 10
0.0
 20
1.0
 30
0.0
  9
$PUCSORTHOREF
  2

  9
$PUCSORTHOVIEW
 70
     0
  9
$PUCSORGTOP
 10
0.0
 20
0.0
 30
0.0
  9
$PUCSORGBOTTOM
 10
0.0
 20
0.0
 30
0.0
  9
$PUCSORGLEFT
 10
0.0
 20
0.0
 30
0.0
  9
$PUCSORGRIGHT
 10
0.0
 20
0.0
 30
0.0
  9
$PUCSORGFRONT
 10
0.0
 20
0.0
 30
0.0
  9
$PUCSORGBACK
 10
0.0
 20
0.0
 30
0.0
  9
$USERI1
 70
     0
  9
$USERI2
 70
     0
  9
$USERI3
 70
     0
  9
$USERI4
 70
     0
  9
$USERI5
 70
     0
  9
$USERR1
 40
0.0
  9
$USERR2
 40
0.0
  9
$USERR3
 40
0.0
  9
$USERR4
 40
0.0
  9
$USERR5
 40
0.0
  9
$WORLDVIEW
 70
     1
  9
$SHADEDGE
 70
     3
  9
$SHADEDIF
 70
    70
  9
$TILEMODE
 70
     0
  9
$MAXACTVP
 70
    16
  9
$PINSBASE
 10
0.0
 20
0.0
 30
0.0
  9
$PLIMCHECK
 70
     0
  9
$PEXTMIN
 10
-0.1085505195276539
 20
-0.1135482522998323
 30
-0.0015258207003583
  9
$PEXTMAX
 10
10.41207913290277
 20
8.051048074112895
 30
0.0000000349246037
  9
$PLIMMIN
 10
-0.3306119115190196
 20
-0.2812499079328949
  9
$PLIMMAX
 10
10.66938784818509
 20
8.218749851771214
  9
$UNITMODE
 70
     0
  9
$VISRETAIN
 70
     0
  9
$PLINEGEN
 70
     1
  9
$PSLTSCALE
 70
     0
  9
$TREEDEPTH
 70
  3020
  9
$CMLSTYLE
  2
Standard
  9
$CMLJUST
 70
     0
  9
$CMLSCALE
 40
1.0
  9
$PROXYGRAPHICS
 70
     0
  9
$MEASUREMENT
 70
     0
  9
$CELWEIGHT
370
     0
  9
$ENDCAPS
280
     0
  9
$JOINSTYLE
280
     0
  9
$LWDISPLAY
290
     0
  9
$INSUNITS
 70
     0
  9
$HYPERLINKBASE
  1

  9
$STYLESHEET
  1

  9
$XEDIT
290
     1
  9
$CEPSNTYPE
380
     0
  9
$PSTYLEMODE
290
     1
  9
$FINGERPRINTGUID
  2

  9
$VERSIONGUID
  2
{23ABF6EA-FBE5-415F-9C97-47F3423AB718}
  9
$EXTNAMES
290
     1
  9
$PSVPSCALE
 40
0.0
  9
$OLESTARTUP
290
     0
  9
$SORTENTS
280
   127
  9
$INDEXCTL
280
     0
  9
$HIDETEXT
280
     0
  9
$XCLIPFRAME
290
     0
  9
$HALOGAP
280
     0
  9
$OBSCOLOR
 70
   257
  9
$OBSLTYPE
280
     0
  9
$INTERSECTIONDISPLAY
280
     0
  9
$INTERSECTIONCOLOR
 70
   257
  9
$DIMASSOC
280
     1
  9
$PROJECTNAME
  1

  0
ENDSEC
  0
SECTION
  2
CLASSES
  0
CLASS
  1
IMAGE
  2
AcDbRasterImage
  3
ISM
 90
     2175
 91
        0
280
     0
281
     1
  0
CLASS
  1
DICTIONARYVAR
  2
AcDbDictionaryVar
  3
ObjectDBX Classes
 90
        0
 91
        5
280
     0
281
     0
  0
CLASS
  1
RASTERVARIABLES
  2
AcDbRasterVariables
  3
ISM
 90
        0
 91
        0
280
     0
281
     0
  0
CLASS
  1
IMAGEDEF
  2
AcDbRasterImageDef
  3
ISM
 90
        0
 91
        0
280
     0
281
     0
  0
CLASS
  1
IMAGEDEF_REACTOR
  2
AcDbRasterImageDefReactor
  3
ISM
 90
        1
 91
        0
280
     0
281
     0
  0
CLASS
  1
IDBUFFER
  2
AcDbIdBuffer
  3
ObjectDBX Classes
 90
        0
 91
        0
280
     0
281
     0
  0
CLASS
  1
SPATIAL_FILTER
  2
AcDbSpatialFilter
  3
ObjectDBX Classes
 90
        0
 91
        0
280
     0
281
     0
  0
CLASS
  1
SORTENTSTABLE
  2
AcDbSortentsTable
  3
ObjectDBX Classes
 90
        0
 91
        1
280
     0
281
     0
  0
CLASS
  1
LAYER_INDEX
  2
AcDbLayerIndex
  3
ObjectDBX Classes
 90
        0
 91
        0
280
     0
281
     0
  0
CLASS
  1
SPATIAL_INDEX
  2
AcDbSpatialIndex
  3
ObjectDBX Classes
 90
        0
 91
        0
280
     0
281
     0
  0
CLASS
  1
OBJECT_PTR
  2
CAseDLPNTableRecord
  3
ASE-LPNTableRecord
 90
        1
 91
        0
280
     0
281
     0
  0
CLASS
  1
PLOTSETTINGS
  2
AcDbPlotSettings
  3
ObjectDBX Classes
 90
        0
 91
        0
280
     0
281
     0
  0
CLASS
  1
ACDBDICTIONARYWDFLT
  2
AcDbDictionaryWithDefault
  3
ObjectDBX Classes
 90
        0
 91
        1
280
     0
281
     0
  0
CLASS
  1
WIPEOUT
  2
AcDbWipeout
  3
"WipeOut|Product Desc: Object Enabler for WipeOut entity                        |Company: Autodesk, Inc.                        |WEB Address: www.autodesk.com"
 90
     2175
 91
        0
280
     0
281
     1
  0
CLASS
  1
WIPEOUTVARIABLES
  2
AcDbWipeoutVariables
  3
"WipeOut|Product Desc:     WipeOut Dbx Application|Company:          Autodesk, Inc.|WEB Address:      www.autodesk.com"
 90
        0
 91
        1
280
     0
281
     0
  0
CLASS
  1
RTEXT
  2
RText
  3
RText|AutoCAD Express Tool|expresstools@autodesk.com
 90
     3071
 91
        0
280
     0
281
     1
  0
CLASS
  1
ARCALIGNEDTEXT
  2
AcDbArcAlignedText
  3
ATEXT|AutoCAD Express Tool|expresstools@autodesk.com
 90
        0
 91
        0
280
     0
281
     1
  0
CLASS
  1
MATERIAL
  2
AcDbMaterial
  3
ObjectDBX Classes
 90
     1153
 91
        3
280
     0
281
     0
  0
CLASS
  1
VISUALSTYLE
  2
AcDbVisualStyle
  3
ObjectDBX Classes
 90
     4095
 91
       16
280
     0
281
     0
  0
CLASS
  1
TABLESTYLE
  2
AcDbTableStyle
  3
ObjectDBX Classes
 90
     4095
 91
        1
280
     0
281
     0
  0
CLASS
  1
SCALE
  2
AcDbScale
  3
ObjectDBX Classes
 90
     1153
 91
       33
280
     0
281
     0
  0
CLASS
  1
MLEADERSTYLE
  2
AcDbMLeaderStyle
  3
ACDB_MLEADERSTYLE_CLASS
 90
     4095
 91
        1
280
     0
281
     0
  0
CLASS
  1
CELLSTYLEMAP
  2
AcDbCellStyleMap
  3
ObjectDBX Classes
 90
     1152
 91
        2
280
     0
281
     0
  0
ENDSEC
  0
SECTION
  2
TABLES
  0
TABLE
  2
VPORT
  5
7
330
0
100
AcDbSymbolTable
 70
     1
  0
VPORT
  5
15
330
7
100
AcDbSymbolTableRecord
100
AcDbViewportTableRecord
  2
*ACTIVE
 70
     0
 10
0.0
 20
0.0
 11
1.0
 21
1.0
 12
13.89621157632295
 22
4.579183999999999
 13
0.0
 23
0.0
 14
1.0
 24
1.0
 15
0.0
 25
0.0
 16
0.0
 26
0.0
 36
1.0
 17
0.0
 27
0.0
 37
0.0
 40
9.158369
 41
2.283809523809523
 42
50.0
 43
0.0
 44
0.0
 50
0.0
 51
0.0
 71
     0
 72
   100
 73
     1
 74
     1
 75
     0
 76
     0
 77
     0
 78
     0
281
     0
 65
     0
110
0.0
120
0.0
130
0.0
111
1.0
121
0.0
131
0.0
112
0.0
122
1.0
132
0.0
 79
     0
146
0.0
  0
ENDTAB
  0
TABLE
  2
LTYPE
  5
4
330
0
100
AcDbSymbolTable
 70
     5
  0
LTYPE
  5
11
330
4
100
AcDbSymbolTableRecord
100
AcDbLinetypeTableRecord
  2
ByBlock
 70
     0
  3

 72
    65
 73
     0
 40
0.0
  0
LTYPE
  5
12
330
4
100
AcDbSymbolTableRecord
100
AcDbLinetypeTableRecord
  2
ByLayer
 70
     0
  3

 72
    65
 73
     0
 40
0.0
  0
LTYPE
  5
13
330
4
100
AcDbSymbolTableRecord
100
AcDbLinetypeTableRecord
  2
Continuous
 70
     0
  3
Solid line
 72
    65
 73
     0
 40
0.0
  0
LTYPE
  5
24
330
4
100
AcDbSymbolTableRecord
100
AcDbLinetypeTableRecord
  2
solid
 70
     0
  3

 72
    65
 73
     0
 40
0.0
  0
LTYPE
  5
25
330
4
100
AcDbSymbolTableRecord
100
AcDbLinetypeTableRecord
  2
dashed
 70
     0
  3

 72
    65
 73
     0
 40
0.0
  0
LTYPE
  5
26
330
4
100
AcDbSymbolTableRecord
100
AcDbLinetypeTableRecord
  2
center
 70
     0
  3

 72
    65
 73
     0
 40
0.0
  0
ENDTAB
  0
TABLE
  2
LAYER
  5
2
330
0
100
AcDbSymbolTable
 70
     3
  0
LAYER
  5
14
102
{ACAD_XDICTIONARY
360
15F
102
}
330
2
100
AcDbSymbolTableRecord
100
AcDbLayerTableRecord
  2
0
 70
     0
 62
     7
  6
Continuous
370
    -3
390
1D
  0
LAYER
  5
27
102
{ACAD_XDICTIONARY
360
161
102
}
330
2
100
AcDbSymbolTableRecord
100
AcDbLayerTableRecord
  2
1
 70
     0
 62
     1
  6
solid
370
    -3
390
1D
  0
LAYER
  5
F4
102
{ACAD_XDICTIONARY
360
163
102
}
330
2
100
AcDbSymbolTableRecord
100
AcDbLayerTableRecord
  2
0
 70
     0
 62
     1
  6
solid
370
    -3
390
1D
  0
ENDTAB
  0
TABLE
  2
STYLE
  5
3
330
0
100
AcDbSymbolTable
 70
     2
  0
STYLE
  5
17
330
3
100
AcDbSymbolTableRecord
100
AcDbTextStyleTableRecord
  2
Standard
 70
     0
 40
0.0
 41
1.0
 50
0.0
 71
     0
 42
0.0
  3
txt
  4

  0
ENDTAB
  0
TABLE
  2
VIEW
  5
5
330
0
100
AcDbSymbolTable
 70
     0
  0
ENDTAB
  0
TABLE
  2
UCS
  5
6
330
0
100
AcDbSymbolTable
 70
     0
  0
ENDTAB
  0
TABLE
  2
APPID
  5
8
330
0
100
AcDbSymbolTable
 70
     5
  0
APPID
  5
16
330
8
100
AcDbSymbolTableRecord
100
AcDbRegAppTableRecord
  2
ACAD
 70
     0
  0
APPID
  5
12A
330
8
100
AcDbSymbolTableRecord
100
AcDbRegAppTableRecord
  2
ACAD_PSEXT
 70
     0
  0
APPID
  5
12F
330
8
100
AcDbSymbolTableRecord
100
AcDbRegAppTableRecord
  2
DCO15
 70
     0
  0
APPID
  5
158
330
8
100
AcDbSymbolTableRecord
100
AcDbRegAppTableRecord
  2
ACAD_MLEADERVER
 70
     0
  0
APPID
  5
17E
330
8
100
AcDbSymbolTableRecord
100
AcDbRegAppTableRecord
  2
ACAD_EXEMPT_FROM_CAD_STANDARDS
 70
     0
  0
ENDTAB
  0
TABLE
  2
DIMSTYLE
  5
9
330
0
100
AcDbSymbolTable
 70
     3
100
AcDbDimStyleTable
 71
     1
340
18
  0
DIMSTYLE
105
18
330
9
100
AcDbSymbolTableRecord
100
AcDbDimStyleTableRecord
  2
Standard
 70
     0
289
     0
340
17
  0
ENDTAB
  0
TABLE
  2
BLOCK_RECORD
  5
1
330
0
100
AcDbSymbolTable
 70
     4
  0
BLOCK_RECORD
  5
A
102
{ACAD_XDICTIONARY
360
174
102
}
330
1
100
AcDbSymbolTableRecord
100
AcDbBlockTableRecord
  2
*MODEL_SPACE
340
20
  0
BLOCK_RECORD
  5
B
330
1
100
AcDbSymbolTableRecord
100
AcDbBlockTableRecord
  2
*PAPER_SPACE
340
21
  0
BLOCK_RECORD
  5
F6
330
1
100
AcDbSymbolTableRecord
100
AcDbBlockTableRecord
  2
*D0
340
0
  0
BLOCK_RECORD
  5
101
330
1
100
AcDbSymbolTableRecord
100
AcDbBlockTableRecord
  2
*D1
340
0
  0
ENDTAB
  0
ENDSEC
  0
SECTION
  2
BLOCKS
  0
BLOCK
  5
D
330
A
100
AcDbEntity
  8
0
100
AcDbBlockBegin
  2
*MODEL_SPACE
 70
     0
 10
0.0
 20
0.0
 30
0.0
  3
*MODEL_SPACE
  1

  0
ENDBLK
  5
E
330
A
100
AcDbEntity
  8
0
100
AcDbBlockEnd
  0
BLOCK
  5
F
330
B
100
AcDbEntity
 67
     1
  8
0
100
AcDbBlockBegin
  2
*PAPER_SPACE
 70
     0
 10
0.0
 20
0.0
 30
0.0
  3
*PAPER_SPACE
  1

  0
ENDBLK
  5
10
330
B
100
AcDbEntity
 67
     1
  8
0
100
AcDbBlockEnd
  0
BLOCK
  5
F7
330
F6
100
AcDbEntity
  8
0
  6
solid
 62
     7
100
AcDbBlockBegin
  2
*D0
 70
     0
 10
0.0
 20
0.0
 30
0.0
  3
*D0
  1

  0
LINE
  5
F8
330
F6
100
AcDbEntity
  8
0
  6
solid
 62
     7
100
AcDbLine
 10
0.3744513094425201
 20
0.6403210163116455
 30
0.0
 11
0.3744513094425201
 21
-0.1165532090423833
 31
0.0
  0
LINE
  5
F9
330
F6
100
AcDbEntity
  8
0
  6
solid
 62
     7
100
AcDbLine
 10
2.21786880493164
 20
0.626319706439972
 30
0.0
 11
2.21786880493164
 21
-0.1165532090423833
 31
0.0
  0
LINE
  5
FA
330
F6
100
AcDbEntity
  8
0
  6
solid
 62
     7
100
AcDbLine
 10
0.3744513094425201
 20
-0.0540532090423834
 30
0.0
 11
1.29616005718708
 21
-0.0540532090423834
 31
0.0
  0
LINE
  5
FB
330
F6
100
AcDbEntity
  8
0
  6
solid
 62
     7
100
AcDbLine
 10
2.21786880493164
 20
-0.0540532090423834
 30
0.0
 11
1.29616005718708
 21
-0.0540532090423834
 31
0.0
  0
MTEXT
  5
FC
330
F6
100
AcDbEntity
  8
0
  6
solid
 62
     7
100
AcDbMText
 10
1.29616005718708
 20
0.0495318871114628
 30
0.0
 40
0.125
 41
0.0
 71
     5
 72
     1
  1
{\H0.125000;1 13/16}
 73
     1
 44
1.0
  0
SOLID
  5
FD
330
F6
100
AcDbEntity
  8
0
  6
solid
 62
     7
100
AcDbTrace
 10
0.4994513094425202
 20
-0.0332382090423834
 30
0.0
 11
0.4994513094425202
 21
-0.0748682090423834
 31
0.0
 12
0.3744513094425201
 22
-0.0540532090423834
 32
0.0
 13
0.3744513094425201
 23
-0.0540532090423834
 33
0.0
  0
SOLID
  5
FE
330
F6
100
AcDbEntity
  8
0
  6
solid
 62
     7
100
AcDbTrace
 10
2.09286880493164
 20
-0.0748682090423834
 30
0.0
 11
2.09286880493164
 21
-0.0332382090423834
 31
0.0
 12
2.21786880493164
 22
-0.0540532090423834
 32
0.0
 13
2.21786880493164
 23
-0.0540532090423834
 33
0.0
  0
ENDBLK
  5
FF
330
F6
100
AcDbEntity
  8
0
  6
solid
 62
     7
100
AcDbBlockEnd
  0
BLOCK
  5
102
330
101
100
AcDbEntity
  8
0
  6
solid
 62
     7
100
AcDbBlockBegin
  2
*D1
 70
     0
 10
0.0
 20
0.0
 30
0.0
  3
*D1
  1

  0
LINE
  5
103
330
101
100
AcDbEntity
  8
0
  6
solid
 62
     7
100
AcDbLine
 10
0.8312410116195678
 20
0.3430395126342774
 30
0.0
 11
0.1109199838513831
 21
0.343039512634278
 31
0.0
  0
LINE
  5
104
330
101
100
AcDbEntity
  8
0
  6
solid
 62
     7
100
AcDbLine
 10
1.751149058341979
 20
1.093039512634277
 30
0.0
 11
0.1109199838513837
 21
1.093039512634278
 31
0.0
  0
LINE
  5
105
330
101
100
AcDbEntity
  8
0
  6
solid
 62
     7
100
AcDbLine
 10
0.1734199838513831
 20
0.3430395126342779
 30
0.0
 11
0.1734199838513834
 21
0.7180395126342783
 31
0.0
  0
LINE
  5
106
330
101
100
AcDbEntity
  8
0
  6
solid
 62
     7
100
AcDbLine
 10
0.1734199838513837
 20
1.093039512634278
 30
0.0
 11
0.1734199838513834
 21
0.7180395126342783
 31
0.0
  0
MTEXT
  5
107
330
101
100
AcDbEntity
  8
0
  6
solid
 62
     7
100
AcDbMText
 10
-0.0660425161486167
 20
0.7180395126342781
 30
0.0
 40
0.125
 41
0.0
 71
     5
 72
     1
  1
{\H0.125000;3/4}
 73
     1
 44
1.0
  0
SOLID
  5
108
330
101
100
AcDbEntity
  8
0
  6
solid
 62
     7
100
AcDbTrace
 10
0.1526049838513833
 20
0.4680395126342779
 30
0.0
 11
0.1942349838513834
 21
0.4680395126342779
 31
0.0
 12
0.1734199838513831
 22
0.3430395126342779
 32
0.0
 13
0.1734199838513831
 23
0.3430395126342779
 33
0.0
  0
SOLID
  5
109
330
101
100
AcDbEntity
  8
0
  6
solid
 62
     7
100
AcDbTrace
 10
0.1942349838513836
 20
0.9680395126342787
 30
0.0
 11
0.1526049838513836
 21
0.9680395126342787
 31
0.0
 12
0.1734199838513837
 22
1.093039512634278
 32
0.0
 13
0.1734199838513837
 23
1.093039512634278
 33
0.0
  0
ENDBLK
  5
10A
330
101
100
AcDbEntity
  8
0
  6
solid
 62
     7
100
AcDbBlockEnd
  0
ENDSEC
  0
SECTION
  2
ENTITIES
  0
LINE
  5
28
330
A
100
AcDbEntity
  8
1
  6
solid
 62
     7
100
AcDbLine
 10
5.096257310440341
 20
1.108549902888323
 30
0.0
 11
5.38912211204615
 21
1.108549902888323
 31
0.0
  0
ARC
  5
29
330
A
100
AcDbEntity
  8
1
  6
solid
 62
     7
100
AcDbCircle
 10
5.062159468134057
 20
1.207886460335829
 30
0.0
 40
0.3417197663721066
100
AcDbArc
 50
343.1003729501585
 51
543.1814970668251
  0
LINE
  5
2A
330
A
100
AcDbEntity
  8
1
  6
solid
 62
     7
100
AcDbLine
 10
4.720966439773837
 20
1.188921282774455
 30
0.0
 11
4.585914918436076
 21
1.146736717419319
 31
0.0
  0
LINE
  5
2B
330
A
100
AcDbEntity
  8
1
  6
solid
 62
     7
100
AcDbLine
 10
5.096257310475022
 20
0.6350414624264403
 30
0.0
 11
5.096257310475021
 21
1.108550020595789
 31
0.0
  0
ARC
  5
2C
330
A
100
AcDbEntity
  8
1
  6
solid
 62
     7
100
AcDbCircle
 10
4.025675690889117
 20
0.342226116236106
 30
0.0
 40
0.1871203524964412
100
AcDbArc
 50
111.6110844342587
 51
181.5676073368257
  0
ARC
  5
2D
330
A
100
AcDbEntity
  8
1
  6
solid
 62
     7
100
AcDbCircle
 10
4.265028661095369
 20
0.6082988348948878
 30
0.0
 40
0.0625
100
AcDbArc
 50
59.51331153736693
 51
93.54836982177848
  0
LINE
  5
2E
330
A
100
AcDbEntity
  8
1
  6
solid
 62
     7
100
AcDbLine
 10
4.261160463863985
 20
0.670679016444632
 30
0.0
 11
4.124402970515051
 21
0.6621986795170861
 31
0.0
  0
ARC
  5
2F
330
A
100
AcDbEntity
  8
1
  6
solid
 62
     7
100
AcDbCircle
 10
3.90103457588138
 20
0.6890696174892782
 30
0.0
 40
0.1816356815755631
100
AcDbArc
 50
287.8658346173582
 51
338.5567194949252
  0
ARC
  5
30
330
A
100
AcDbEntity
  8
1
  6
solid
 62
     7
100
AcDbCircle
 10
4.128271167746435
 20
0.599818497967341
 30
0.0
 40
0.0625
100
AcDbArc
 50
93.54836982177841
 51
158.5567194949254
  0
ARC
  5
31
330
A
100
AcDbEntity
  8
1
  6
solid
 62
     7
100
AcDbCircle
 10
4.231417571899274
 20
0.9650027494400246
 30
0.0
 40
0.3983661850689701
100
AcDbArc
 50
294.6286037822891
 51
387.1420559440661
  0
LINE
  5
32
330
A
100
AcDbEntity
  8
1
  6
solid
 62
     7
100
AcDbLine
 10
4.397430567980966
 20
0.6028766629198941
 30
0.0
 11
4.29673729652211
 21
0.662158025748205
 31
0.0
  0
LINE
  5
33
330
A
100
AcDbEntity
  8
1
  6
solid
 62
     7
100
AcDbLine
 10
4.685784434277295
 20
0.3371071590129417
 30
0.0
 11
5.096257330837947
 21
0.6350414841484645
 31
0.0
  0
LINE
  5
34
330
A
100
AcDbEntity
  8
1
  6
solid
 62
     7
100
AcDbLine
 10
3.838625369863827
 20
0.3371071590129417
 30
0.0
 11
4.685784434277295
 21
0.3371071590129417
 31
0.0
  0
ARC
  5
35
330
A
100
AcDbEntity
  8
1
  6
solid
 62
     7
100
AcDbCircle
 10
4.755476682202609
 20
1.347287702073339
 30
0.0
 40
0.3417197663721066
100
AcDbArc
 50
83.14093715679399
 51
183.1814970668252
  0
LINE
  5
36
330
A
100
AcDbEntity
  8
1
  6
solid
 62
     7
100
AcDbLine
 10
4.41428365384239
 20
1.328322524511965
 30
0.0
 11
4.279232132504628
 21
1.286137959156829
 31
0.0
  0
ARC
  5
37
330
A
100
AcDbEntity
  8
1
  6
solid
 62
     7
100
AcDbCircle
 10
3.718992904957669
 20
0.4816273579736157
 30
0.0
 40
0.1871203524964412
100
AcDbArc
 50
111.6110844342587
 51
181.5676073368257
  0
ARC
  5
38
330
A
100
AcDbEntity
  8
1
  6
solid
 62
     7
100
AcDbCircle
 10
3.958345875163922
 20
0.7477000766323974
 30
0.0
 40
0.0625
100
AcDbArc
 50
59.51331153736693
 51
93.54836982177848
  0
LINE
  5
39
330
A
100
AcDbEntity
  8
1
  6
solid
 62
     7
100
AcDbLine
 10
3.954477677932538
 20
0.8100802581821415
 30
0.0
 11
3.817720184583603
 21
0.8015999212545956
 31
0.0
  0
ARC
  5
3A
330
A
100
AcDbEntity
  8
1
  6
solid
 62
     7
100
AcDbCircle
 10
3.594351789949932
 20
0.8284708592267877
 30
0.0
 40
0.1816356815755631
100
AcDbArc
 50
287.8658346173582
 51
338.5567194949252
  0
ARC
  5
3B
330
A
100
AcDbEntity
  8
1
  6
solid
 62
     7
100
AcDbCircle
 10
3.821588381814987
 20
0.7392197397048506
 30
0.0
 40
0.0625
100
AcDbArc
 50
93.54836982177841
 51
158.5567194949254
  0
LINE
  5
3C
330
A
100
AcDbEntity
  8
1
  6
solid
 62
     7
100
AcDbLine
 10
4.090747782049518
 20
0.7422779046574038
 30
0.0
 11
3.990054510590662
 21
0.8015592674857145
 31
0.0
  0
ARC
  5
3D
330
A
100
AcDbEntity
  8
1
  6
solid
 62
     7
100
AcDbCircle
 10
3.924734508392194
 20
1.104403946873496
 30
0.0
 40
0.3983661850689701
100
AcDbArc
 50
294.6286037822891
 51
387.1420559440661
  0
LINE
  5
3E
330
A
100
AcDbEntity
  8
1
  6
solid
 62
     7
100
AcDbLine
 10
3.53194260597229
 20
0.4765084087848664
 30
0.0
 11
3.838625431060791
 21
0.3371071517467499
 31
0.0
  0
LINE
  5
3F
330
A
100
AcDbEntity
  8
1
  6
solid
 62
     7
100
AcDbLine
 10
4.090747833251953
 20
0.7422779202461243
 30
0.0
 11
4.249813328624203
 21
0.66997538019305
 31
0.0
  0
LINE
  5
40
330
A
100
AcDbEntity
  8
1
  6
solid
 62
     7
100
AcDbLine
 10
4.279232025146484
 20
1.28613793849945
 30
0.0
 11
4.585915088653564
 21
1.146736741065979
 31
0.0
  0
LINE
  5
41
330
A
100
AcDbEntity
  8
1
  6
solid
 62
     7
100
AcDbLine
 10
4.414283752441406
 20
1.328322529792785
 30
0.0
 11
4.720966339111328
 21
1.188921332359313
 31
0.0
  0
LINE
  5
42
330
A
100
AcDbEntity
  8
1
  6
solid
 62
     7
100
AcDbLine
 10
4.796287536621093
 20
1.686561703681945
 30
0.0
 11
5.135793557508624
 21
1.541578563346052
 31
0.0
  0
LINE
  5
43
330
A
100
AcDbEntity
  8
1
  6
solid
 62
     7
100
AcDbLine
 10
4.80453030144503
 20
1.183718517693792
 30
0.0
 11
4.80453030144503
 21
1.308718517693792
 31
0.0
  0
LINE
  5
44
330
A
100
AcDbEntity
  8
1
  6
solid
 62
     7
100
AcDbLine
 10
4.80453030144503
 20
1.308718517693792
 30
0.0
 11
4.829239603770612
 21
1.308718517693792
 31
0.0
  0
LINE
  5
45
330
A
100
AcDbEntity
  8
1
  6
solid
 62
     7
100
AcDbLine
 10
4.829239603770612
 20
1.308718517693792
 30
0.0
 11
4.829239603770612
 21
1.205520843275187
 31
0.0
  0
LINE
  5
46
330
A
100
AcDbEntity
  8
1
  6
solid
 62
     7
100
AcDbLine
 10
4.829239603770612
 20
1.205520843275187
 30
0.0
 11
4.891739603770612
 21
1.205520843275187
 31
0.0
  0
LINE
  5
47
330
A
100
AcDbEntity
  8
1
  6
solid
 62
     7
100
AcDbLine
 10
4.891739603770612
 20
1.205520843275187
 30
0.0
 11
4.891739603770612
 21
1.183718517693792
 31
0.0
  0
LINE
  5
48
330
A
100
AcDbEntity
  8
1
  6
solid
 62
     7
100
AcDbLine
 10
4.80453030144503
 20
1.183718517693792
 30
0.0
 11
4.891739603770612
 21
1.183718517693792
 31
0.0
  0
LINE
  5
49
330
A
100
AcDbEntity
  8
1
  6
solid
 62
     7
100
AcDbLine
 10
4.913909603770611
 20
1.308718517693792
 30
0.0
 11
4.960555185165961
 21
1.308718517693792
 31
0.0
  0
SPLINE
  5
4A
330
A
100
AcDbEntity
  8
1
  6
solid
 62
     7
100
AcDbSpline
210
0.0
220
0.0
230
1.0
 70
     8
 71
     2
 72
     6
 73
     3
 74
     0
 42
0.0000000001
 43
0.0000000001
 40
0.0
 40
0.0
 40
0.0
 40
1.0
 40
1.0
 40
1.0
 10
4.960555185165961
 20
1.308718517693792
 30
0.0
 10
4.976409603770611
 20
1.308718517693792
 30
0.0
 10
4.984346813072937
 20
1.306153866531001
 30
0.0
  0
SPLINE
  5
4B
330
A
100
AcDbEntity
  8
1
  6
solid
 62
     7
100
AcDbSpline
210
0.0
220
0.0
230
1.0
 70
     8
 71
     2
 72
     8
 73
     5
 74
     0
 42
0.0000000001
 43
0.0000000001
 40
0.0
 40
0.0
 40
0.0
 40
1.0
 40
2.0
 40
3.0
 40
3.0
 40
3.0
 10
4.984346813072937
 20
1.306153866531001
 30
0.0
 10
4.995662161910146
 20
1.303023633972861
 30
0.0
 10
5.011576115398518
 20
1.286177122344954
 30
0.0
 10
5.020014254933403
 20
1.262459913042629
 30
0.0
 10
5.020014254933403
 20
1.244928750251931
 30
0.0
  0
SPLINE
  5
4C
330
A
100
AcDbEntity
  8
1
  6
solid
 62
     7
100
AcDbSpline
210
0.0
220
0.0
230
1.0
 70
     8
 71
     2
 72
     6
 73
     3
 74
     0
 42
0.0000000001
 43
0.0000000001
 40
0.0
 40
0.0
 40
0.0
 40
1.0
 40
1.0
 40
1.0
 10
5.020014254933403
 20
1.244928750251931
 30
0.0
 10
5.020014254933403
 20
1.229312471182164
 30
0.0
 10
5.015966347956658
 20
1.217982238624024
 30
0.0
  0
SPLINE
  5
4D
330
A
100
AcDbEntity
  8
1
  6
solid
 62
     7
100
AcDbSpline
210
0.0
220
0.0
230
1.0
 70
     8
 71
     2
 72
     6
 73
     3
 74
     0
 42
0.0000000001
 43
0.0000000001
 40
0.0
 40
0.0
 40
0.0
 40
1.0
 40
1.0
 40
1.0
 10
5.015966347956658
 20
1.217982238624024
 30
0.0
 10
5.011352859584565
 20
1.204528750251931
 30
0.0
 10
5.002572394468286
 20
1.196001308391466
 30
0.0
  0
SPLINE
  5
4E
330
A
100
AcDbEntity
  8
1
  6
solid
 62
     7
100
AcDbSpline
210
0.0
220
0.0
230
1.0
 70
     8
 71
     2
 72
     6
 73
     3
 74
     0
 42
0.0000000001
 43
0.0000000001
 40
0.0
 40
0.0
 40
0.0
 40
1.0
 40
1.0
 40
1.0
 10
5.002572394468286
 20
1.196001308391466
 30
0.0
 10
4.995706813072937
 20
1.189800378158908
 30
0.0
 10
4.984287278189216
 20
1.185945959554257
 30
0.0
  0
SPLINE
  5
4F
330
A
100
AcDbEntity
  8
1
  6
solid
 62
     7
100
AcDbSpline
210
0.0
220
0.0
230
1.0
 70
     8
 71
     2
 72
     6
 73
     3
 74
     0
 42
0.0000000001
 43
0.0000000001
 40
0.0
 40
0.0
 40
0.0
 40
1.0
 40
1.0
 40
1.0
 10
4.984287278189216
 20
1.185945959554257
 30
0.0
 10
4.97574495260782
 20
1.183718517693792
 30
0.0
 10
4.961949138654333
 20
1.183718517693792
 30
0.0
  0
LINE
  5
50
330
A
100
AcDbEntity
  8
1
  6
solid
 62
     7
100
AcDbLine
 10
4.961949138654333
 20
1.183718517693792
 30
0.0
 11
4.913909603770611
 21
1.183718517693792
 31
0.0
  0
LINE
  5
51
330
A
100
AcDbEntity
  8
1
  6
solid
 62
     7
100
AcDbLine
 10
4.913909603770611
 20
1.308718517693792
 30
0.0
 11
4.913909603770611
 21
1.183718517693792
 31
0.0
  0
LINE
  5
52
330
A
100
AcDbEntity
  8
1
  6
solid
 62
     7
100
AcDbLine
 10
4.938618906096193
 20
1.286916192112396
 30
0.0
 11
4.938618906096193
 21
1.205520843275187
 31
0.0
  0
LINE
  5
53
330
A
100
AcDbEntity
  8
1
  6
solid
 62
     7
100
AcDbLine
 10
4.938618906096193
 20
1.205520843275187
 30
0.0
 11
4.958228673538053
 21
1.205520843275187
 31
0.0
  0
SPLINE
  5
54
330
A
100
AcDbEntity
  8
1
  6
solid
 62
     7
100
AcDbSpline
210
0.0
220
0.0
230
1.0
 70
     8
 71
     2
 72
     6
 73
     3
 74
     0
 42
0.0000000001
 43
0.0000000001
 40
0.0
 40
0.0
 40
0.0
 40
1.0
 40
1.0
 40
1.0
 10
4.958228673538053
 20
1.205520843275187
 30
0.0
 10
4.969573789817123
 20
1.205520843275187
 30
0.0
 10
4.974336115398519
 20
1.206294796763559
 30
0.0
  0
SPLINE
  5
55
330
A
100
AcDbEntity
  8
1
  6
solid
 62
     7
100
AcDbSpline
210
0.0
220
0.0
230
1.0
 70
     8
 71
     2
 72
     8
 73
     5
 74
     0
 42
0.0000000001
 43
0.0000000001
 40
0.0
 40
0.0
 40
0.0
 40
1.0
 40
2.0
 40
3.0
 40
3.0
 40
3.0
 10
4.974336115398519
 20
1.206294796763559
 30
0.0
 10
4.981112394468286
 20
1.207778052577513
 30
0.0
 10
4.989744022375263
 20
1.215015726996117
 30
0.0
 10
4.995304952607821
 20
1.231847354903094
 30
0.0
 10
4.995304952607821
 20
1.245687820019373
 30
0.0
  0
SPLINE
  5
56
330
A
100
AcDbEntity
  8
1
  6
solid
 62
     7
100
AcDbSpline
210
0.0
220
0.0
230
1.0
 70
     8
 71
     2
 72
     8
 73
     5
 74
     0
 42
0.0000000001
 43
0.0000000001
 40
0.0
 40
0.0
 40
0.0
 40
1.0
 40
2.0
 40
3.0
 40
3.0
 40
3.0
 10
4.995304952607821
 20
1.245687820019373
 30
0.0
 10
4.995304952607821
 20
1.260044099089141
 30
0.0
 10
4.989744022375263
 20
1.275541308391466
 30
0.0
 10
4.979837510747356
 20
1.284158052577513
 30
0.0
 10
4.972421231677588
 20
1.285641308391466
 30
0.0
  0
SPLINE
  5
57
330
A
100
AcDbEntity
  8
1
  6
solid
 62
     7
100
AcDbSpline
210
0.0
220
0.0
230
1.0
 70
     8
 71
     2
 72
     6
 73
     3
 74
     0
 42
0.0000000001
 43
0.0000000001
 40
0.0
 40
0.0
 40
0.0
 40
1.0
 40
1.0
 40
1.0
 10
4.972421231677588
 20
1.285641308391466
 30
0.0
 10
4.966741231677588
 20
1.286916192112396
 30
0.0
 10
4.950499836328751
 20
1.286916192112396
 30
0.0
  0
LINE
  5
58
330
A
100
AcDbEntity
  8
1
  6
solid
 62
     7
100
AcDbLine
 10
4.938618906096193
 20
1.286916192112396
 30
0.0
 11
4.950499836328751
 21
1.286916192112396
 31
0.0
  0
LINE
  5
59
330
A
100
AcDbEntity
  8
1
  6
solid
 62
     7
100
AcDbLine
 10
5.122126115398518
 20
1.274623633972861
 30
0.0
 11
5.097416813072937
 21
1.272381308391466
 31
0.0
  0
SPLINE
  5
5A
330
A
100
AcDbEntity
  8
1
  6
solid
 62
     7
100
AcDbSpline
210
0.0
220
0.0
230
1.0
 70
     8
 71
     2
 72
     7
 73
     4
 74
     0
 42
0.0000000001
 43
0.0000000001
 40
0.0
 40
0.0
 40
0.0
 40
1.0
 40
2.0
 40
2.0
 40
2.0
 10
5.097416813072937
 20
1.272381308391466
 30
0.0
 10
5.09636518516596
 20
1.279767820019373
 30
0.0
 10
5.089276347956658
 20
1.286916192112396
 30
0.0
 10
5.083611231677588
 20
1.286916192112396
 30
0.0
  0
SPLINE
  5
5B
330
A
100
AcDbEntity
  8
1
  6
solid
 62
     7
100
AcDbSpline
210
0.0
220
0.0
230
1.0
 70
     8
 71
     2
 72
     7
 73
     4
 74
     0
 42
0.0000000001
 43
0.0000000001
 40
0.0
 40
0.0
 40
0.0
 40
1.0
 40
2.0
 40
2.0
 40
2.0
 10
5.083611231677588
 20
1.286916192112396
 30
0.0
 10
5.076254487491541
 20
1.286916192112396
 30
0.0
 10
5.0660354177241
 20
1.272411075833326
 30
0.0
 10
5.064656347956658
 20
1.249825029321699
 30
0.0
  0
SPLINE
  5
5C
330
A
100
AcDbEntity
  8
1
  6
solid
 62
     7
100
AcDbSpline
210
0.0
220
0.0
230
1.0
 70
     8
 71
     2
 72
     6
 73
     3
 74
     0
 42
0.0000000001
 43
0.0000000001
 40
0.0
 40
0.0
 40
0.0
 40
1.0
 40
1.0
 40
1.0
 10
5.064656347956658
 20
1.249825029321699
 30
0.0
 10
5.074160999119449
 20
1.260753401414722
 30
0.0
 10
5.087599603770612
 20
1.260753401414722
 30
0.0
  0
SPLINE
  5
5D
330
A
100
AcDbEntity
  8
1
  6
solid
 62
     7
100
AcDbSpline
210
0.0
220
0.0
230
1.0
 70
     8
 71
     2
 72
     7
 73
     4
 74
     0
 42
0.0000000001
 43
0.0000000001
 40
0.0
 40
0.0
 40
0.0
 40
1.0
 40
2.0
 40
2.0
 40
2.0
 10
5.087599603770612
 20
1.260753401414722
 30
0.0
 10
5.10267030144503
 20
1.260753401414722
 30
0.0
 10
5.125033092142705
 20
1.239129680484489
 30
0.0
 10
5.125033092142705
 20
1.221955726996117
 30
0.0
  0
SPLINE
  5
5E
330
A
100
AcDbEntity
  8
1
  6
solid
 62
     7
100
AcDbSpline
210
0.0
220
0.0
230
1.0
 70
     8
 71
     2
 72
     7
 73
     4
 74
     0
 42
0.0000000001
 43
0.0000000001
 40
0.0
 40
0.0
 40
0.0
 40
1.0
 40
2.0
 40
2.0
 40
2.0
 10
5.125033092142705
 20
1.221955726996117
 30
0.0
 10
5.125033092142705
 20
1.204097122344954
 30
0.0
 10
5.102372627026426
 20
1.182265029321699
 30
0.0
 10
5.084886115398519
 20
1.182265029321699
 30
0.0
  0
SPLINE
  5
5F
330
A
100
AcDbEntity
  8
1
  6
solid
 62
     7
100
AcDbSpline
210
0.0
220
0.0
230
1.0
 70
     8
 71
     2
 72
     7
 73
     4
 74
     0
 42
0.0000000001
 43
0.0000000001
 40
0.0
 40
0.0
 40
0.0
 40
1.0
 40
2.0
 40
2.0
 40
2.0
 10
5.084886115398519
 20
1.182265029321699
 30
0.0
 10
5.06606518516596
 20
1.182265029321699
 30
0.0
 10
5.042184254933402
 20
1.21137944792635
 30
0.0
 10
5.042184254933402
 20
1.244159913042629
 30
0.0
  0
SPLINE
  5
60
330
A
100
AcDbEntity
  8
1
  6
solid
 62
     7
100
AcDbSpline
210
0.0
220
0.0
230
1.0
 70
     8
 71
     2
 72
     7
 73
     4
 74
     0
 42
0.0000000001
 43
0.0000000001
 40
0.0
 40
0.0
 40
0.0
 40
1.0
 40
2.0
 40
2.0
 40
2.0
 10
5.042184254933402
 20
1.244159913042629
 30
0.0
 10
5.042184254933402
 20
1.278492936298443
 30
0.0
 10
5.067101929352006
 20
1.308718517693792
 30
0.0
 10
5.086711696793868
 20
1.308718517693792
 30
0.0
  0
SPLINE
  5
61
330
A
100
AcDbEntity
  8
1
  6
solid
 62
     7
100
AcDbSpline
210
0.0
220
0.0
230
1.0
 70
     8
 71
     2
 72
     7
 73
     4
 74
     0
 42
0.0000000001
 43
0.0000000001
 40
0.0
 40
0.0
 40
0.0
 40
1.0
 40
2.0
 40
2.0
 40
2.0
 10
5.086711696793868
 20
1.308718517693792
 30
0.0
 10
5.100904254933402
 20
1.308718517693792
 30
0.0
 10
5.119472161910146
 20
1.291395726996117
 30
0.0
 10
5.122126115398518
 20
1.274623633972861
 30
0.0
  0
SPLINE
  5
62
330
A
100
AcDbEntity
  8
1
  6
solid
 62
     7
100
AcDbSpline
210
0.0
220
0.0
230
1.0
 70
     8
 71
     2
 72
     7
 73
     4
 74
     0
 42
0.0000000001
 43
0.0000000001
 40
0.0
 40
0.0
 40
0.0
 40
1.0
 40
2.0
 40
2.0
 40
2.0
 10
5.066893557258984
 20
1.222253401414722
 30
0.0
 10
5.066893557258984
 20
1.213413401414722
 30
0.0
 10
5.077499603770611
 20
1.204067354903094
 30
0.0
 10
5.084558673538054
 20
1.204067354903094
 30
0.0
  0
SPLINE
  5
63
330
A
100
AcDbEntity
  8
1
  6
solid
 62
     7
100
AcDbSpline
210
0.0
220
0.0
230
1.0
 70
     8
 71
     2
 72
     7
 73
     4
 74
     0
 42
0.0000000001
 43
0.0000000001
 40
0.0
 40
0.0
 40
0.0
 40
1.0
 40
2.0
 40
2.0
 40
2.0
 10
5.084558673538054
 20
1.204067354903094
 30
0.0
 10
5.090953092142704
 20
1.204067354903094
 30
0.0
 10
5.100323789817123
 20
1.211766424670536
 30
0.0
 10
5.100323789817123
 20
1.220695726996117
 30
0.0
  0
SPLINE
  5
64
330
A
100
AcDbEntity
  8
1
  6
solid
 62
     7
100
AcDbSpline
210
0.0
220
0.0
230
1.0
 70
     8
 71
     2
 72
     7
 73
     4
 74
     0
 42
0.0000000001
 43
0.0000000001
 40
0.0
 40
0.0
 40
0.0
 40
1.0
 40
2.0
 40
2.0
 40
2.0
 10
5.100323789817123
 20
1.220695726996117
 30
0.0
 10
5.100323789817123
 20
1.230289680484489
 30
0.0
 10
5.090506580514797
 20
1.238951075833327
 30
0.0
 10
5.083268906096193
 20
1.238951075833327
 30
0.0
  0
SPLINE
  5
65
330
A
100
AcDbEntity
  8
1
  6
solid
 62
     7
100
AcDbSpline
210
0.0
220
0.0
230
1.0
 70
     8
 71
     2
 72
     7
 73
     4
 74
     0
 42
0.0000000001
 43
0.0000000001
 40
0.0
 40
0.0
 40
0.0
 40
1.0
 40
2.0
 40
2.0
 40
2.0
 10
5.083268906096193
 20
1.238951075833327
 30
0.0
 10
5.076209836328751
 20
1.238951075833327
 30
0.0
 10
5.066893557258984
 20
1.230542703740303
 30
0.0
 10
5.066893557258984
 20
1.222253401414722
 30
0.0
  0
LINE
  5
66
330
A
100
AcDbEntity
  8
1
  6
solid
 62
     7
100
AcDbLine
 10
5.202435650282239
 20
1.183718517693792
 30
0.0
 11
5.177726347956657
 21
1.183718517693792
 31
0.0
  0
LINE
  5
67
330
A
100
AcDbEntity
  8
1
  6
solid
 62
     7
100
AcDbLine
 10
5.177726347956657
 20
1.183718517693792
 30
0.0
 11
5.177726347956657
 21
1.272574796763559
 31
0.0
  0
SPLINE
  5
68
330
A
100
AcDbEntity
  8
1
  6
solid
 62
     7
100
AcDbSpline
210
0.0
220
0.0
230
1.0
 70
     8
 71
     2
 72
     6
 73
     3
 74
     0
 42
0.0000000001
 43
0.0000000001
 40
0.0
 40
0.0
 40
0.0
 40
1.0
 40
1.0
 40
1.0
 10
5.177726347956657
 20
1.272574796763559
 30
0.0
 10
5.164734254933402
 20
1.258412006065885
 30
0.0
 10
5.147203092142704
 20
1.252032471182164
 30
0.0
  0
LINE
  5
69
330
A
100
AcDbEntity
  8
1
  6
solid
 62
     7
100
AcDbLine
 10
5.147203092142704
 20
1.252032471182164
 30
0.0
 11
5.147203092142704
 21
1.276741773507745
 31
0.0
  0
SPLINE
  5
6A
330
A
100
AcDbEntity
  8
1
  6
solid
 62
     7
100
AcDbSpline
210
0.0
220
0.0
230
1.0
 70
     8
 71
     2
 72
     7
 73
     4
 74
     0
 42
0.0000000001
 43
0.0000000001
 40
0.0
 40
0.0
 40
0.0
 40
1.0
 40
2.0
 40
2.0
 40
2.0
 10
5.147203092142704
 20
1.276741773507745
 30
0.0
 10
5.156385417724099
 20
1.279782703740303
 30
0.0
 10
5.178410999119448
 20
1.297135261879838
 30
0.0
 10
5.182607743305495
 20
1.308718517693792
 30
0.0
  0
LINE
  5
6B
330
A
100
AcDbEntity
  8
1
  6
solid
 62
     7
100
AcDbLine
 10
5.182607743305495
 20
1.308718517693792
 30
0.0
 11
5.202435650282239
 21
1.308718517693792
 31
0.0
  0
LINE
  5
6C
330
A
100
AcDbEntity
  8
1
  6
solid
 62
     7
100
AcDbLine
 10
5.202435650282239
 20
1.183718517693792
 30
0.0
 11
5.202435650282239
 21
1.308718517693792
 31
0.0
  0
LINE
  5
6D
330
A
100
AcDbEntity
  8
1
  6
solid
 62
     7
100
AcDbLine
 10
5.224605650282239
 20
1.220055726996117
 30
0.0
 11
5.249314952607821
 21
1.222962703740303
 31
0.0
  0
SPLINE
  5
6E
330
A
100
AcDbEntity
  8
1
  6
solid
 62
     7
100
AcDbSpline
210
0.0
220
0.0
230
1.0
 70
     8
 71
     2
 72
     7
 73
     4
 74
     0
 42
0.0000000001
 43
0.0000000001
 40
0.0
 40
0.0
 40
0.0
 40
1.0
 40
2.0
 40
2.0
 40
2.0
 10
5.249314952607821
 20
1.222962703740303
 30
0.0
 10
5.249999603770612
 20
1.213443168856582
 30
0.0
 10
5.259548906096193
 20
1.204067354903094
 30
0.0
 10
5.265839138654332
 20
1.204067354903094
 30
0.0
  0
SPLINE
  5
6F
330
A
100
AcDbEntity
  8
1
  6
solid
 62
     7
100
AcDbSpline
210
0.0
220
0.0
230
1.0
 70
     8
 71
     2
 72
     7
 73
     4
 74
     0
 42
0.0000000001
 43
0.0000000001
 40
0.0
 40
0.0
 40
0.0
 40
1.0
 40
2.0
 40
2.0
 40
2.0
 10
5.265839138654332
 20
1.204067354903094
 30
0.0
 10
5.272942859584564
 20
1.204067354903094
 30
0.0
 10
5.28274518516596
 20
1.213711075833326
 30
0.0
 10
5.28274518516596
 20
1.222342703740303
 30
0.0
  0
SPLINE
  5
70
330
A
100
AcDbEntity
  8
1
  6
solid
 62
     7
100
AcDbSpline
210
0.0
220
0.0
230
1.0
 70
     8
 71
     2
 72
     7
 73
     4
 74
     0
 42
0.0000000001
 43
0.0000000001
 40
0.0
 40
0.0
 40
0.0
 40
1.0
 40
2.0
 40
2.0
 40
2.0
 10
5.28274518516596
 20
1.222342703740303
 30
0.0
 10
5.28274518516596
 20
1.230661773507745
 30
0.0
 10
5.274054022375262
 20
1.24040456420542
 30
0.0
 10
5.267471231677588
 20
1.24040456420542
 30
0.0
  0
SPLINE
  5
71
330
A
100
AcDbEntity
  8
1
  6
solid
 62
     7
100
AcDbSpline
210
0.0
220
0.0
230
1.0
 70
     8
 71
     2
 72
     6
 73
     3
 74
     0
 42
0.0000000001
 43
0.0000000001
 40
0.0
 40
0.0
 40
0.0
 40
1.0
 40
1.0
 40
1.0
 10
5.267471231677588
 20
1.24040456420542
 30
0.0
 10
5.263274487491542
 20
1.24040456420542
 30
0.0
 10
5.258035882840379
 20
1.238226889786815
 30
0.0
  0
LINE
  5
72
330
A
100
AcDbEntity
  8
1
  6
solid
 62
     7
100
AcDbLine
 10
5.258035882840379
 20
1.238226889786815
 30
0.0
 11
5.259980534003169
 21
1.259299913042629
 31
0.0
  0
SPLINE
  5
73
330
A
100
AcDbEntity
  8
1
  6
solid
 62
     7
100
AcDbSpline
210
0.0
220
0.0
230
1.0
 70
     8
 71
     2
 72
     7
 73
     4
 74
     0
 42
0.0000000001
 43
0.0000000001
 40
0.0
 40
0.0
 40
0.0
 40
1.0
 40
2.0
 40
2.0
 40
2.0
 10
5.259980534003169
 20
1.259299913042629
 30
0.0
 10
5.268314487491541
 20
1.258620378158908
 30
0.0
 10
5.276931231677588
 20
1.267058517693792
 30
0.0
 10
5.276931231677588
 20
1.274058052577513
 30
0.0
  0
SPLINE
  5
74
330
A
100
AcDbEntity
  8
1
  6
solid
 62
     7
100
AcDbSpline
210
0.0
220
0.0
230
1.0
 70
     8
 71
     2
 72
     7
 73
     4
 74
     0
 42
0.0000000001
 43
0.0000000001
 40
0.0
 40
0.0
 40
0.0
 40
1.0
 40
2.0
 40
2.0
 40
2.0
 10
5.276931231677588
 20
1.274058052577513
 30
0.0
 10
5.276931231677588
 20
1.279872006065885
 30
0.0
 10
5.270303789817122
 20
1.286916192112396
 30
0.0
 10
5.265392627026425
 20
1.286916192112396
 30
0.0
  0
SPLINE
  5
75
330
A
100
AcDbEntity
  8
1
  6
solid
 62
     7
100
AcDbSpline
210
0.0
220
0.0
230
1.0
 70
     8
 71
     2
 72
     7
 73
     4
 74
     0
 42
0.0000000001
 43
0.0000000001
 40
0.0
 40
0.0
 40
0.0
 40
1.0
 40
2.0
 40
2.0
 40
2.0
 10
5.265392627026425
 20
1.286916192112396
 30
0.0
 10
5.26001030144503
 20
1.286916192112396
 30
0.0
 10
5.252742859584564
 20
1.278567354903094
 30
0.0
 10
5.252221929352007
 20
1.270927820019373
 30
0.0
  0
LINE
  5
76
330
A
100
AcDbEntity
  8
1
  6
solid
 62
     7
100
AcDbLine
 10
5.252221929352007
 20
1.270927820019373
 30
0.0
 11
5.227512627026425
 21
1.274281308391466
 31
0.0
  0
SPLINE
  5
77
330
A
100
AcDbEntity
  8
1
  6
solid
 62
     7
100
AcDbSpline
210
0.0
220
0.0
230
1.0
 70
     8
 71
     2
 72
     8
 73
     5
 74
     0
 42
0.0000000001
 43
0.0000000001
 40
0.0
 40
0.0
 40
0.0
 40
1.0
 40
2.0
 40
3.0
 40
3.0
 40
3.0
 10
5.227512627026425
 20
1.274281308391466
 30
0.0
 10
5.229487045631076
 20
1.286072936298443
 30
0.0
 10
5.238460999119448
 20
1.300384564205419
 30
0.0
 10
5.255158673538053
 20
1.308718517693792
 30
0.0
 10
5.264787510747355
 20
1.308718517693792
 30
0.0
  0
SPLINE
  5
78
330
A
100
AcDbEntity
  8
1
  6
solid
 62
     7
100
AcDbSpline
210
0.0
220
0.0
230
1.0
 70
     8
 71
     2
 72
     6
 73
     3
 74
     0
 42
0.0000000001
 43
0.0000000001
 40
0.0
 40
0.0
 40
0.0
 40
1.0
 40
1.0
 40
1.0
 10
5.264787510747355
 20
1.308718517693792
 30
0.0
 10
5.28214006888689
 20
1.308718517693792
 30
0.0
 10
5.292994022375262
 20
1.29728409908914
 30
0.0
  0
SPLINE
  5
79
330
A
100
AcDbEntity
  8
1
  6
solid
 62
     7
100
AcDbSpline
210
0.0
220
0.0
230
1.0
 70
     8
 71
     2
 72
     6
 73
     3
 74
     0
 42
0.0000000001
 43
0.0000000001
 40
0.0
 40
0.0
 40
0.0
 40
1.0
 40
1.0
 40
1.0
 10
5.292994022375262
 20
1.29728409908914
 30
0.0
 10
5.301640534003169
 20
1.287705029321699
 30
0.0
 10
5.301640534003169
 20
1.276062238624024
 30
0.0
  0
SPLINE
  5
7A
330
A
100
AcDbEntity
  8
1
  6
solid
 62
     7
100
AcDbSpline
210
0.0
220
0.0
230
1.0
 70
     8
 71
     2
 72
     6
 73
     3
 74
     0
 42
0.0000000001
 43
0.0000000001
 40
0.0
 40
0.0
 40
0.0
 40
1.0
 40
1.0
 40
1.0
 10
5.301640534003169
 20
1.276062238624024
 30
0.0
 10
5.301640534003169
 20
1.259686889786815
 30
0.0
 10
5.283013092142704
 20
1.249720843275187
 30
0.0
  0
SPLINE
  5
7B
330
A
100
AcDbEntity
  8
1
  6
solid
 62
     7
100
AcDbSpline
210
0.0
220
0.0
230
1.0
 70
     8
 71
     2
 72
     7
 73
     4
 74
     0
 42
0.0000000001
 43
0.0000000001
 40
0.0
 40
0.0
 40
0.0
 40
1.0
 40
2.0
 40
2.0
 40
2.0
 10
5.283013092142704
 20
1.249720843275187
 30
0.0
 10
5.293767975863635
 20
1.247746424670536
 30
0.0
 10
5.307454487491542
 20
1.231966424670536
 30
0.0
 10
5.307454487491542
 20
1.220695726996117
 30
0.0
  0
SPLINE
  5
7C
330
A
100
AcDbEntity
  8
1
  6
solid
 62
     7
100
AcDbSpline
210
0.0
220
0.0
230
1.0
 70
     8
 71
     2
 72
     7
 73
     4
 74
     0
 42
0.0000000001
 43
0.0000000001
 40
0.0
 40
0.0
 40
0.0
 40
1.0
 40
2.0
 40
2.0
 40
2.0
 10
5.307454487491542
 20
1.220695726996117
 30
0.0
 10
5.307454487491542
 20
1.204632936298443
 30
0.0
 10
5.283221464235728
 20
1.182265029321699
 30
0.0
 10
5.265496813072937
 20
1.182265029321699
 30
0.0
  0
SPLINE
  5
7D
330
A
100
AcDbEntity
  8
1
  6
solid
 62
     7
100
AcDbSpline
210
0.0
220
0.0
230
1.0
 70
     8
 71
     2
 72
     7
 73
     4
 74
     0
 42
0.0000000001
 43
0.0000000001
 40
0.0
 40
0.0
 40
0.0
 40
1.0
 40
2.0
 40
2.0
 40
2.0
 10
5.265496813072937
 20
1.182265029321699
 30
0.0
 10
5.248397278189216
 20
1.182265029321699
 30
0.0
 10
5.226282394468285
 20
1.202971075833326
 30
0.0
 10
5.224605650282239
 20
1.220055726996117
 30
0.0
  0
LINE
  5
7E
330
A
100
AcDbEntity
  8
1
  6
solid
 62
     7
100
AcDbLine
 10
3.768956444383534
 20
0.1708558981311814
 30
0.0
 11
3.793665746709116
 21
0.1737628748753674
 31
0.0
  0
SPLINE
  5
7F
330
A
100
AcDbEntity
  8
1
  6
solid
 62
     7
100
AcDbSpline
210
0.0
220
0.0
230
1.0
 70
     8
 71
     2
 72
     7
 73
     4
 74
     0
 42
0.0000000001
 43
0.0000000001
 40
0.0
 40
0.0
 40
0.0
 40
1.0
 40
2.0
 40
2.0
 40
2.0
 10
3.793665746709116
 20
0.1737628748753674
 30
0.0
 10
3.794350397871906
 20
0.1642433399916464
 30
0.0
 10
3.803899700197487
 20
0.1548675260381581
 30
0.0
 10
3.810189932755627
 20
0.1548675260381581
 30
0.0
  0
SPLINE
  5
80
330
A
100
AcDbEntity
  8
1
  6
solid
 62
     7
100
AcDbSpline
210
0.0
220
0.0
230
1.0
 70
     8
 71
     2
 72
     7
 73
     4
 74
     0
 42
0.0000000001
 43
0.0000000001
 40
0.0
 40
0.0
 40
0.0
 40
1.0
 40
2.0
 40
2.0
 40
2.0
 10
3.810189932755627
 20
0.1548675260381581
 30
0.0
 10
3.81729365368586
 20
0.1548675260381581
 30
0.0
 10
3.827095979267255
 20
0.1645112469683907
 30
0.0
 10
3.827095979267255
 20
0.1731428748753674
 30
0.0
  0
SPLINE
  5
81
330
A
100
AcDbEntity
  8
1
  6
solid
 62
     7
100
AcDbSpline
210
0.0
220
0.0
230
1.0
 70
     8
 71
     2
 72
     7
 73
     4
 74
     0
 42
0.0000000001
 43
0.0000000001
 40
0.0
 40
0.0
 40
0.0
 40
1.0
 40
2.0
 40
2.0
 40
2.0
 10
3.827095979267255
 20
0.1731428748753674
 30
0.0
 10
3.827095979267255
 20
0.1814619446428092
 30
0.0
 10
3.818404816476558
 20
0.1912047353404837
 30
0.0
 10
3.811822025778883
 20
0.1912047353404837
 30
0.0
  0
SPLINE
  5
82
330
A
100
AcDbEntity
  8
1
  6
solid
 62
     7
100
AcDbSpline
210
0.0
220
0.0
230
1.0
 70
     8
 71
     2
 72
     6
 73
     3
 74
     0
 42
0.0000000001
 43
0.0000000001
 40
0.0
 40
0.0
 40
0.0
 40
1.0
 40
1.0
 40
1.0
 10
3.811822025778883
 20
0.1912047353404837
 30
0.0
 10
3.807625281592836
 20
0.1912047353404837
 30
0.0
 10
3.802386676941674
 20
0.189027060921879
 30
0.0
  0
LINE
  5
83
330
A
100
AcDbEntity
  8
1
  6
solid
 62
     7
100
AcDbLine
 10
3.802386676941674
 20
0.189027060921879
 30
0.0
 11
3.804331328104464
 21
0.2101000841776929
 31
0.0
  0
SPLINE
  5
84
330
A
100
AcDbEntity
  8
1
  6
solid
 62
     7
100
AcDbSpline
210
0.0
220
0.0
230
1.0
 70
     8
 71
     2
 72
     7
 73
     4
 74
     0
 42
0.0000000001
 43
0.0000000001
 40
0.0
 40
0.0
 40
0.0
 40
1.0
 40
2.0
 40
2.0
 40
2.0
 10
3.804331328104464
 20
0.2101000841776929
 30
0.0
 10
3.812665281592837
 20
0.209420549293972
 30
0.0
 10
3.821282025778883
 20
0.2178586888288557
 30
0.0
 10
3.821282025778883
 20
0.2248582237125767
 30
0.0
  0
SPLINE
  5
85
330
A
100
AcDbEntity
  8
1
  6
solid
 62
     7
100
AcDbSpline
210
0.0
220
0.0
230
1.0
 70
     8
 71
     2
 72
     7
 73
     4
 74
     0
 42
0.0000000001
 43
0.0000000001
 40
0.0
 40
0.0
 40
0.0
 40
1.0
 40
2.0
 40
2.0
 40
2.0
 10
3.821282025778883
 20
0.2248582237125767
 30
0.0
 10
3.821282025778883
 20
0.2306721772009488
 30
0.0
 10
3.814654583918418
 20
0.2377163632474604
 30
0.0
 10
3.80974342112772
 20
0.2377163632474604
 30
0.0
  0
SPLINE
  5
86
330
A
100
AcDbEntity
  8
1
  6
solid
 62
     7
100
AcDbSpline
210
0.0
220
0.0
230
1.0
 70
     8
 71
     2
 72
     7
 73
     4
 74
     0
 42
0.0000000001
 43
0.0000000001
 40
0.0
 40
0.0
 40
0.0
 40
1.0
 40
2.0
 40
2.0
 40
2.0
 10
3.80974342112772
 20
0.2377163632474604
 30
0.0
 10
3.804361095546325
 20
0.2377163632474604
 30
0.0
 10
3.79709365368586
 20
0.2293675260381581
 30
0.0
 10
3.796572723453301
 20
0.2217279911544371
 30
0.0
  0
LINE
  5
87
330
A
100
AcDbEntity
  8
1
  6
solid
 62
     7
100
AcDbLine
 10
3.796572723453301
 20
0.2217279911544371
 30
0.0
 11
3.77186342112772
 21
0.2250814795265302
 31
0.0
  0
SPLINE
  5
88
330
A
100
AcDbEntity
  8
1
  6
solid
 62
     7
100
AcDbSpline
210
0.0
220
0.0
230
1.0
 70
     8
 71
     2
 72
     8
 73
     5
 74
     0
 42
0.0000000001
 43
0.0000000001
 40
0.0
 40
0.0
 40
0.0
 40
1.0
 40
2.0
 40
3.0
 40
3.0
 40
3.0
 10
3.77186342112772
 20
0.2250814795265302
 30
0.0
 10
3.773837839732371
 20
0.2368731074335069
 30
0.0
 10
3.782811793220743
 20
0.2511847353404837
 30
0.0
 10
3.799509467639348
 20
0.2595186888288557
 30
0.0
 10
3.80913830484865
 20
0.2595186888288557
 30
0.0
  0
SPLINE
  5
89
330
A
100
AcDbEntity
  8
1
  6
solid
 62
     7
100
AcDbSpline
210
0.0
220
0.0
230
1.0
 70
     8
 71
     2
 72
     6
 73
     3
 74
     0
 42
0.0000000001
 43
0.0000000001
 40
0.0
 40
0.0
 40
0.0
 40
1.0
 40
1.0
 40
1.0
 10
3.80913830484865
 20
0.2595186888288557
 30
0.0
 10
3.826490862988185
 20
0.2595186888288557
 30
0.0
 10
3.837344816476557
 20
0.2480842702242046
 30
0.0
  0
SPLINE
  5
8A
330
A
100
AcDbEntity
  8
1
  6
solid
 62
     7
100
AcDbSpline
210
0.0
220
0.0
230
1.0
 70
     8
 71
     2
 72
     6
 73
     3
 74
     0
 42
0.0000000001
 43
0.0000000001
 40
0.0
 40
0.0
 40
0.0
 40
1.0
 40
1.0
 40
1.0
 10
3.837344816476557
 20
0.2480842702242046
 30
0.0
 10
3.845991328104464
 20
0.2385052004567628
 30
0.0
 10
3.845991328104464
 20
0.2268624097590883
 30
0.0
  0
SPLINE
  5
8B
330
A
100
AcDbEntity
  8
1
  6
solid
 62
     7
100
AcDbSpline
210
0.0
220
0.0
230
1.0
 70
     8
 71
     2
 72
     6
 73
     3
 74
     0
 42
0.0000000001
 43
0.0000000001
 40
0.0
 40
0.0
 40
0.0
 40
1.0
 40
1.0
 40
1.0
 10
3.845991328104464
 20
0.2268624097590883
 30
0.0
 10
3.845991328104464
 20
0.210487060921879
 30
0.0
 10
3.827363886243999
 20
0.2005210144102511
 30
0.0
  0
SPLINE
  5
8C
330
A
100
AcDbEntity
  8
1
  6
solid
 62
     7
100
AcDbSpline
210
0.0
220
0.0
230
1.0
 70
     8
 71
     2
 72
     7
 73
     4
 74
     0
 42
0.0000000001
 43
0.0000000001
 40
0.0
 40
0.0
 40
0.0
 40
1.0
 40
2.0
 40
2.0
 40
2.0
 10
3.827363886243999
 20
0.2005210144102511
 30
0.0
 10
3.838118769964929
 20
0.1985465958055999
 30
0.0
 10
3.851805281592836
 20
0.1827665958056
 30
0.0
 10
3.851805281592836
 20
0.1714958981311813
 30
0.0
  0
SPLINE
  5
8D
330
A
100
AcDbEntity
  8
1
  6
solid
 62
     7
100
AcDbSpline
210
0.0
220
0.0
230
1.0
 70
     8
 71
     2
 72
     7
 73
     4
 74
     0
 42
0.0000000001
 43
0.0000000001
 40
0.0
 40
0.0
 40
0.0
 40
1.0
 40
2.0
 40
2.0
 40
2.0
 10
3.851805281592836
 20
0.1714958981311813
 30
0.0
 10
3.851805281592836
 20
0.1554331074335069
 30
0.0
 10
3.827572258337022
 20
0.1330652004567627
 30
0.0
 10
3.809847607174232
 20
0.1330652004567627
 30
0.0
  0
SPLINE
  5
8E
330
A
100
AcDbEntity
  8
1
  6
solid
 62
     7
100
AcDbSpline
210
0.0
220
0.0
230
1.0
 70
     8
 71
     2
 72
     7
 73
     4
 74
     0
 42
0.0000000001
 43
0.0000000001
 40
0.0
 40
0.0
 40
0.0
 40
1.0
 40
2.0
 40
2.0
 40
2.0
 10
3.809847607174232
 20
0.1330652004567627
 30
0.0
 10
3.792748072290511
 20
0.1330652004567627
 30
0.0
 10
3.77063318856958
 20
0.1537712469683906
 30
0.0
 10
3.768956444383534
 20
0.1708558981311814
 30
0.0
  0
LINE
  5
8F
330
A
100
AcDbEntity
  8
1
  6
solid
 62
     7
100
AcDbLine
 10
3.873146909499813
 20
0.1345186888288558
 30
0.0
 11
3.902231560662604
 21
0.2595186888288557
 31
0.0
  0
LINE
  5
90
330
A
100
AcDbEntity
  8
1
  6
solid
 62
     7
100
AcDbLine
 10
3.902231560662604
 20
0.2595186888288557
 30
0.0
 11
3.921940397871906
 21
0.2595186888288557
 31
0.0
  0
LINE
  5
91
330
A
100
AcDbEntity
  8
1
  6
solid
 62
     7
100
AcDbLine
 10
3.921940397871906
 20
0.2595186888288557
 30
0.0
 11
3.892870630430046
 21
0.1345186888288558
 31
0.0
  0
LINE
  5
92
330
A
100
AcDbEntity
  8
1
  6
solid
 62
     7
100
AcDbLine
 10
3.873146909499813
 20
0.1345186888288558
 30
0.0
 11
3.892870630430046
 21
0.1345186888288558
 31
0.0
  0
LINE
  5
93
330
A
100
AcDbEntity
  8
1
  6
solid
 62
     7
100
AcDbLine
 10
3.993529002523069
 20
0.1345186888288558
 30
0.0
 11
3.993529002523069
 21
0.1592279911544371
 31
0.0
  0
LINE
  5
94
330
A
100
AcDbEntity
  8
1
  6
solid
 62
     7
100
AcDbLine
 10
3.993529002523069
 20
0.1592279911544371
 30
0.0
 11
3.944110397871906
 21
0.1592279911544371
 31
0.0
  0
LINE
  5
95
330
A
100
AcDbEntity
  8
1
  6
solid
 62
     7
100
AcDbLine
 10
3.944110397871906
 20
0.1592279911544371
 30
0.0
 11
3.944110397871906
 21
0.1790163632474604
 31
0.0
  0
LINE
  5
96
330
A
100
AcDbEntity
  8
1
  6
solid
 62
     7
100
AcDbLine
 10
3.944110397871906
 20
0.1790163632474604
 30
0.0
 11
3.996674118802139
 21
0.2580652004567627
 31
0.0
  0
LINE
  5
97
330
A
100
AcDbEntity
  8
1
  6
solid
 62
     7
100
AcDbLine
 10
3.996674118802139
 20
0.2580652004567627
 30
0.0
 11
4.01823830484865
 21
0.2580652004567627
 31
0.0
  0
LINE
  5
98
330
A
100
AcDbEntity
  8
1
  6
solid
 62
     7
100
AcDbLine
 10
4.01823830484865
 20
0.2580652004567627
 30
0.0
 11
4.01823830484865
 21
0.1795768283637395
 31
0.0
  0
LINE
  5
99
330
A
100
AcDbEntity
  8
1
  6
solid
 62
     7
100
AcDbLine
 10
4.01823830484865
 20
0.1795768283637395
 30
0.0
 11
4.034226676941673
 21
0.1795768283637395
 31
0.0
  0
LINE
  5
9A
330
A
100
AcDbEntity
  8
1
  6
solid
 62
     7
100
AcDbLine
 10
4.034226676941673
 20
0.1795768283637395
 30
0.0
 11
4.034226676941673
 21
0.1592279911544371
 31
0.0
  0
LINE
  5
9B
330
A
100
AcDbEntity
  8
1
  6
solid
 62
     7
100
AcDbLine
 10
4.034226676941673
 20
0.1592279911544371
 30
0.0
 11
4.01823830484865
 21
0.1592279911544371
 31
0.0
  0
LINE
  5
9C
330
A
100
AcDbEntity
  8
1
  6
solid
 62
     7
100
AcDbLine
 10
4.01823830484865
 20
0.1592279911544371
 30
0.0
 11
4.01823830484865
 21
0.1345186888288558
 31
0.0
  0
LINE
  5
9D
330
A
100
AcDbEntity
  8
1
  6
solid
 62
     7
100
AcDbLine
 10
3.993529002523069
 20
0.1345186888288558
 30
0.0
 11
4.01823830484865
 21
0.1345186888288558
 31
0.0
  0
LINE
  5
9E
330
A
100
AcDbEntity
  8
1
  6
solid
 62
     7
100
AcDbLine
 10
3.993529002523069
 20
0.1795768283637395
 30
0.0
 11
3.993529002523069
 21
0.2194014795265302
 31
0.0
  0
LINE
  5
9F
330
A
100
AcDbEntity
  8
1
  6
solid
 62
     7
100
AcDbLine
 10
3.993529002523069
 20
0.2194014795265302
 30
0.0
 11
3.966374118802139
 21
0.1795768283637395
 31
0.0
  0
LINE
  5
A0
330
A
100
AcDbEntity
  8
1
  6
solid
 62
     7
100
AcDbLine
 10
3.993529002523069
 20
0.1795768283637395
 30
0.0
 11
3.966374118802139
 21
0.1795768283637395
 31
0.0
  0
LINE
  5
A1
330
A
100
AcDbEntity
  8
1
  6
solid
 62
     7
100
AcDbLine
 10
4.080496444383533
 20
0.1345186888288558
 30
0.0
 11
4.123624816476556
 21
0.2002084562707162
 31
0.0
  0
LINE
  5
A2
330
A
100
AcDbEntity
  8
1
  6
solid
 62
     7
100
AcDbLine
 10
4.123624816476556
 20
0.2002084562707162
 30
0.0
 11
4.084856909499812
 21
0.2595186888288557
 31
0.0
  0
LINE
  5
A3
330
A
100
AcDbEntity
  8
1
  6
solid
 62
     7
100
AcDbLine
 10
4.084856909499812
 20
0.2595186888288557
 30
0.0
 11
4.113911793220743
 21
0.2595186888288557
 31
0.0
  0
LINE
  5
A4
330
A
100
AcDbEntity
  8
1
  6
solid
 62
     7
100
AcDbLine
 10
4.113911793220743
 20
0.2595186888288557
 30
0.0
 11
4.138159700197487
 21
0.2223531074335069
 31
0.0
  0
LINE
  5
A5
330
A
100
AcDbEntity
  8
1
  6
solid
 62
     7
100
AcDbLine
 10
4.138159700197487
 20
0.2223531074335069
 30
0.0
 11
4.161891793220743
 21
0.2595186888288557
 31
0.0
  0
LINE
  5
A6
330
A
100
AcDbEntity
  8
1
  6
solid
 62
     7
100
AcDbLine
 10
4.161891793220743
 20
0.2595186888288557
 30
0.0
 11
4.190961560662604
 21
0.2595186888288557
 31
0.0
  0
LINE
  5
A7
330
A
100
AcDbEntity
  8
1
  6
solid
 62
     7
100
AcDbLine
 10
4.190961560662604
 20
0.2595186888288557
 30
0.0
 11
4.152694583918417
 21
0.2002084562707162
 31
0.0
  0
LINE
  5
A8
330
A
100
AcDbEntity
  8
1
  6
solid
 62
     7
100
AcDbLine
 10
4.152694583918417
 20
0.2002084562707162
 30
0.0
 11
4.195322025778883
 21
0.1345186888288558
 31
0.0
  0
LINE
  5
A9
330
A
100
AcDbEntity
  8
1
  6
solid
 62
     7
100
AcDbLine
 10
4.195322025778883
 20
0.1345186888288558
 30
0.0
 11
4.166252258337022
 21
0.1345186888288558
 31
0.0
  0
LINE
  5
AA
330
A
100
AcDbEntity
  8
1
  6
solid
 62
     7
100
AcDbLine
 10
4.166252258337022
 20
0.1345186888288558
 30
0.0
 11
4.138159700197487
 21
0.1775777585962976
 31
0.0
  0
LINE
  5
AB
330
A
100
AcDbEntity
  8
1
  6
solid
 62
     7
100
AcDbLine
 10
4.138159700197487
 20
0.1775777585962976
 30
0.0
 11
4.109551328104464
 21
0.1345186888288558
 31
0.0
  0
LINE
  5
AC
330
A
100
AcDbEntity
  8
1
  6
solid
 62
     7
100
AcDbLine
 10
4.080496444383533
 20
0.1345186888288558
 30
0.0
 11
4.109551328104464
 21
0.1345186888288558
 31
0.0
  0
LINE
  5
AD
330
A
100
AcDbEntity
  8
1
  6
solid
 62
     7
100
AcDbLine
 10
4.297325281592835
 20
0.1345186888288558
 30
0.0
 11
4.272615979267254
 21
0.1345186888288558
 31
0.0
  0
LINE
  5
AE
330
A
100
AcDbEntity
  8
1
  6
solid
 62
     7
100
AcDbLine
 10
4.272615979267254
 20
0.1345186888288558
 30
0.0
 11
4.272615979267254
 21
0.2233749678986232
 31
0.0
  0
SPLINE
  5
AF
330
A
100
AcDbEntity
  8
1
  6
solid
 62
     7
100
AcDbSpline
210
0.0
220
0.0
230
1.0
 70
     8
 71
     2
 72
     6
 73
     3
 74
     0
 42
0.0000000001
 43
0.0000000001
 40
0.0
 40
0.0
 40
0.0
 40
1.0
 40
1.0
 40
1.0
 10
4.272615979267254
 20
0.2233749678986232
 30
0.0
 10
4.259623886243999
 20
0.2092121772009488
 30
0.0
 10
4.242092723453301
 20
0.2028326423172278
 30
0.0
  0
LINE
  5
B0
330
A
100
AcDbEntity
  8
1
  6
solid
 62
     7
100
AcDbLine
 10
4.242092723453301
 20
0.2028326423172278
 30
0.0
 11
4.242092723453301
 21
0.2275419446428093
 31
0.0
  0
SPLINE
  5
B1
330
A
100
AcDbEntity
  8
1
  6
solid
 62
     7
100
AcDbSpline
210
0.0
220
0.0
230
1.0
 70
     8
 71
     2
 72
     7
 73
     4
 74
     0
 42
0.0000000001
 43
0.0000000001
 40
0.0
 40
0.0
 40
0.0
 40
1.0
 40
2.0
 40
2.0
 40
2.0
 10
4.242092723453301
 20
0.2275419446428093
 30
0.0
 10
4.251275049034696
 20
0.2305828748753674
 30
0.0
 10
4.273300630430045
 20
0.2479354330149023
 30
0.0
 10
4.277497374616092
 20
0.2595186888288557
 30
0.0
  0
LINE
  5
B2
330
A
100
AcDbEntity
  8
1
  6
solid
 62
     7
100
AcDbLine
 10
4.277497374616092
 20
0.2595186888288557
 30
0.0
 11
4.297325281592835
 21
0.2595186888288557
 31
0.0
  0
LINE
  5
B3
330
A
100
AcDbEntity
  8
1
  6
solid
 62
     7
100
AcDbLine
 10
4.297325281592835
 20
0.1345186888288558
 30
0.0
 11
4.297325281592835
 21
0.2595186888288557
 31
0.0
  0
LINE
  5
B4
330
A
100
AcDbEntity
  8
1
  6
solid
 62
     7
100
AcDbLine
 10
4.319495281592836
 20
0.1679489213869953
 30
0.0
 11
4.319495281592836
 21
0.1897512469683906
 31
0.0
  0
LINE
  5
B5
330
A
100
AcDbEntity
  8
1
  6
solid
 62
     7
100
AcDbLine
 10
4.319495281592836
 20
0.1897512469683906
 30
0.0
 11
4.367460397871906
 21
0.1897512469683906
 31
0.0
  0
LINE
  5
B6
330
A
100
AcDbEntity
  8
1
  6
solid
 62
     7
100
AcDbLine
 10
4.367460397871906
 20
0.1897512469683906
 30
0.0
 11
4.367460397871906
 21
0.1679489213869953
 31
0.0
  0
LINE
  5
B7
330
A
100
AcDbEntity
  8
1
  6
solid
 62
     7
100
AcDbLine
 10
4.319495281592836
 20
0.1679489213869953
 30
0.0
 11
4.367460397871906
 21
0.1679489213869953
 31
0.0
  0
LINE
  5
B8
330
A
100
AcDbEntity
  8
1
  6
solid
 62
     7
100
AcDbLine
 10
4.44486295601144
 20
0.1345186888288558
 30
0.0
 11
4.420153653685859
 21
0.1345186888288558
 31
0.0
  0
LINE
  5
B9
330
A
100
AcDbEntity
  8
1
  6
solid
 62
     7
100
AcDbLine
 10
4.420153653685859
 20
0.1345186888288558
 30
0.0
 11
4.420153653685859
 21
0.2233749678986232
 31
0.0
  0
SPLINE
  5
BA
330
A
100
AcDbEntity
  8
1
  6
solid
 62
     7
100
AcDbSpline
210
0.0
220
0.0
230
1.0
 70
     8
 71
     2
 72
     6
 73
     3
 74
     0
 42
0.0000000001
 43
0.0000000001
 40
0.0
 40
0.0
 40
0.0
 40
1.0
 40
1.0
 40
1.0
 10
4.420153653685859
 20
0.2233749678986232
 30
0.0
 10
4.407161560662603
 20
0.2092121772009488
 30
0.0
 10
4.389630397871905
 20
0.2028326423172278
 30
0.0
  0
LINE
  5
BB
330
A
100
AcDbEntity
  8
1
  6
solid
 62
     7
100
AcDbLine
 10
4.389630397871905
 20
0.2028326423172278
 30
0.0
 11
4.389630397871905
 21
0.2275419446428093
 31
0.0
  0
SPLINE
  5
BC
330
A
100
AcDbEntity
  8
1
  6
solid
 62
     7
100
AcDbSpline
210
0.0
220
0.0
230
1.0
 70
     8
 71
     2
 72
     7
 73
     4
 74
     0
 42
0.0000000001
 43
0.0000000001
 40
0.0
 40
0.0
 40
0.0
 40
1.0
 40
2.0
 40
2.0
 40
2.0
 10
4.389630397871905
 20
0.2275419446428093
 30
0.0
 10
4.398812723453301
 20
0.2305828748753674
 30
0.0
 10
4.42083830484865
 20
0.2479354330149023
 30
0.0
 10
4.425035049034696
 20
0.2595186888288557
 30
0.0
  0
LINE
  5
BD
330
A
100
AcDbEntity
  8
1
  6
solid
 62
     7
100
AcDbLine
 10
4.425035049034696
 20
0.2595186888288557
 30
0.0
 11
4.44486295601144
 21
0.2595186888288557
 31
0.0
  0
LINE
  5
BE
330
A
100
AcDbEntity
  8
1
  6
solid
 62
     7
100
AcDbLine
 10
4.44486295601144
 20
0.1345186888288558
 30
0.0
 11
4.44486295601144
 21
0.2595186888288557
 31
0.0
  0
LINE
  5
BF
330
A
100
AcDbEntity
  8
1
  6
solid
 62
     7
100
AcDbLine
 10
4.46703295601144
 20
0.1708558981311814
 30
0.0
 11
4.491742258337022
 21
0.1737628748753674
 31
0.0
  0
SPLINE
  5
C0
330
A
100
AcDbEntity
  8
1
  6
solid
 62
     7
100
AcDbSpline
210
0.0
220
0.0
230
1.0
 70
     8
 71
     2
 72
     7
 73
     4
 74
     0
 42
0.0000000001
 43
0.0000000001
 40
0.0
 40
0.0
 40
0.0
 40
1.0
 40
2.0
 40
2.0
 40
2.0
 10
4.491742258337022
 20
0.1737628748753674
 30
0.0
 10
4.492426909499813
 20
0.1642433399916464
 30
0.0
 10
4.501976211825394
 20
0.1548675260381581
 30
0.0
 10
4.508266444383533
 20
0.1548675260381581
 30
0.0
  0
SPLINE
  5
C1
330
A
100
AcDbEntity
  8
1
  6
solid
 62
     7
100
AcDbSpline
210
0.0
220
0.0
230
1.0
 70
     8
 71
     2
 72
     7
 73
     4
 74
     0
 42
0.0000000001
 43
0.0000000001
 40
0.0
 40
0.0
 40
0.0
 40
1.0
 40
2.0
 40
2.0
 40
2.0
 10
4.508266444383533
 20
0.1548675260381581
 30
0.0
 10
4.515370165313766
 20
0.1548675260381581
 30
0.0
 10
4.525172490895161
 20
0.1645112469683907
 30
0.0
 10
4.525172490895161
 20
0.1731428748753674
 30
0.0
  0
SPLINE
  5
C2
330
A
100
AcDbEntity
  8
1
  6
solid
 62
     7
100
AcDbSpline
210
0.0
220
0.0
230
1.0
 70
     8
 71
     2
 72
     7
 73
     4
 74
     0
 42
0.0000000001
 43
0.0000000001
 40
0.0
 40
0.0
 40
0.0
 40
1.0
 40
2.0
 40
2.0
 40
2.0
 10
4.525172490895161
 20
0.1731428748753674
 30
0.0
 10
4.525172490895161
 20
0.1814619446428092
 30
0.0
 10
4.516481328104464
 20
0.1912047353404837
 30
0.0
 10
4.509898537406789
 20
0.1912047353404837
 30
0.0
  0
SPLINE
  5
C3
330
A
100
AcDbEntity
  8
1
  6
solid
 62
     7
100
AcDbSpline
210
0.0
220
0.0
230
1.0
 70
     8
 71
     2
 72
     6
 73
     3
 74
     0
 42
0.0000000001
 43
0.0000000001
 40
0.0
 40
0.0
 40
0.0
 40
1.0
 40
1.0
 40
1.0
 10
4.509898537406789
 20
0.1912047353404837
 30
0.0
 10
4.505701793220743
 20
0.1912047353404837
 30
0.0
 10
4.50046318856958
 20
0.189027060921879
 30
0.0
  0
LINE
  5
C4
330
A
100
AcDbEntity
  8
1
  6
solid
 62
     7
100
AcDbLine
 10
4.50046318856958
 20
0.189027060921879
 30
0.0
 11
4.50240783973237
 21
0.2101000841776929
 31
0.0
  0
SPLINE
  5
C5
330
A
100
AcDbEntity
  8
1
  6
solid
 62
     7
100
AcDbSpline
210
0.0
220
0.0
230
1.0
 70
     8
 71
     2
 72
     7
 73
     4
 74
     0
 42
0.0000000001
 43
0.0000000001
 40
0.0
 40
0.0
 40
0.0
 40
1.0
 40
2.0
 40
2.0
 40
2.0
 10
4.50240783973237
 20
0.2101000841776929
 30
0.0
 10
4.510741793220742
 20
0.209420549293972
 30
0.0
 10
4.519358537406789
 20
0.2178586888288557
 30
0.0
 10
4.519358537406789
 20
0.2248582237125767
 30
0.0
  0
SPLINE
  5
C6
330
A
100
AcDbEntity
  8
1
  6
solid
 62
     7
100
AcDbSpline
210
0.0
220
0.0
230
1.0
 70
     8
 71
     2
 72
     7
 73
     4
 74
     0
 42
0.0000000001
 43
0.0000000001
 40
0.0
 40
0.0
 40
0.0
 40
1.0
 40
2.0
 40
2.0
 40
2.0
 10
4.519358537406789
 20
0.2248582237125767
 30
0.0
 10
4.519358537406789
 20
0.2306721772009488
 30
0.0
 10
4.512731095546324
 20
0.2377163632474604
 30
0.0
 10
4.507819932755626
 20
0.2377163632474604
 30
0.0
  0
SPLINE
  5
C7
330
A
100
AcDbEntity
  8
1
  6
solid
 62
     7
100
AcDbSpline
210
0.0
220
0.0
230
1.0
 70
     8
 71
     2
 72
     7
 73
     4
 74
     0
 42
0.0000000001
 43
0.0000000001
 40
0.0
 40
0.0
 40
0.0
 40
1.0
 40
2.0
 40
2.0
 40
2.0
 10
4.507819932755626
 20
0.2377163632474604
 30
0.0
 10
4.502437607174231
 20
0.2377163632474604
 30
0.0
 10
4.495170165313766
 20
0.2293675260381581
 30
0.0
 10
4.494649235081208
 20
0.2217279911544371
 30
0.0
  0
LINE
  5
C8
330
A
100
AcDbEntity
  8
1
  6
solid
 62
     7
100
AcDbLine
 10
4.494649235081208
 20
0.2217279911544371
 30
0.0
 11
4.469939932755626
 21
0.2250814795265302
 31
0.0
  0
SPLINE
  5
C9
330
A
100
AcDbEntity
  8
1
  6
solid
 62
     7
100
AcDbSpline
210
0.0
220
0.0
230
1.0
 70
     8
 71
     2
 72
     8
 73
     5
 74
     0
 42
0.0000000001
 43
0.0000000001
 40
0.0
 40
0.0
 40
0.0
 40
1.0
 40
2.0
 40
3.0
 40
3.0
 40
3.0
 10
4.469939932755626
 20
0.2250814795265302
 30
0.0
 10
4.471914351360277
 20
0.2368731074335069
 30
0.0
 10
4.480888304848649
 20
0.2511847353404837
 30
0.0
 10
4.497585979267254
 20
0.2595186888288557
 30
0.0
 10
4.507214816476556
 20
0.2595186888288557
 30
0.0
  0
SPLINE
  5
CA
330
A
100
AcDbEntity
  8
1
  6
solid
 62
     7
100
AcDbSpline
210
0.0
220
0.0
230
1.0
 70
     8
 71
     2
 72
     6
 73
     3
 74
     0
 42
0.0000000001
 43
0.0000000001
 40
0.0
 40
0.0
 40
0.0
 40
1.0
 40
1.0
 40
1.0
 10
4.507214816476556
 20
0.2595186888288557
 30
0.0
 10
4.524567374616092
 20
0.2595186888288557
 30
0.0
 10
4.535421328104463
 20
0.2480842702242046
 30
0.0
  0
SPLINE
  5
CB
330
A
100
AcDbEntity
  8
1
  6
solid
 62
     7
100
AcDbSpline
210
0.0
220
0.0
230
1.0
 70
     8
 71
     2
 72
     6
 73
     3
 74
     0
 42
0.0000000001
 43
0.0000000001
 40
0.0
 40
0.0
 40
0.0
 40
1.0
 40
1.0
 40
1.0
 10
4.535421328104463
 20
0.2480842702242046
 30
0.0
 10
4.54406783973237
 20
0.2385052004567628
 30
0.0
 10
4.54406783973237
 20
0.2268624097590883
 30
0.0
  0
SPLINE
  5
CC
330
A
100
AcDbEntity
  8
1
  6
solid
 62
     7
100
AcDbSpline
210
0.0
220
0.0
230
1.0
 70
     8
 71
     2
 72
     6
 73
     3
 74
     0
 42
0.0000000001
 43
0.0000000001
 40
0.0
 40
0.0
 40
0.0
 40
1.0
 40
1.0
 40
1.0
 10
4.54406783973237
 20
0.2268624097590883
 30
0.0
 10
4.54406783973237
 20
0.210487060921879
 30
0.0
 10
4.525440397871905
 20
0.2005210144102511
 30
0.0
  0
SPLINE
  5
CD
330
A
100
AcDbEntity
  8
1
  6
solid
 62
     7
100
AcDbSpline
210
0.0
220
0.0
230
1.0
 70
     8
 71
     2
 72
     7
 73
     4
 74
     0
 42
0.0000000001
 43
0.0000000001
 40
0.0
 40
0.0
 40
0.0
 40
1.0
 40
2.0
 40
2.0
 40
2.0
 10
4.525440397871905
 20
0.2005210144102511
 30
0.0
 10
4.536195281592836
 20
0.1985465958055999
 30
0.0
 10
4.549881793220743
 20
0.1827665958056
 30
0.0
 10
4.549881793220743
 20
0.1714958981311813
 30
0.0
  0
SPLINE
  5
CE
330
A
100
AcDbEntity
  8
1
  6
solid
 62
     7
100
AcDbSpline
210
0.0
220
0.0
230
1.0
 70
     8
 71
     2
 72
     7
 73
     4
 74
     0
 42
0.0000000001
 43
0.0000000001
 40
0.0
 40
0.0
 40
0.0
 40
1.0
 40
2.0
 40
2.0
 40
2.0
 10
4.549881793220743
 20
0.1714958981311813
 30
0.0
 10
4.549881793220743
 20
0.1554331074335069
 30
0.0
 10
4.525648769964929
 20
0.1330652004567627
 30
0.0
 10
4.507924118802138
 20
0.1330652004567627
 30
0.0
  0
SPLINE
  5
CF
330
A
100
AcDbEntity
  8
1
  6
solid
 62
     7
100
AcDbSpline
210
0.0
220
0.0
230
1.0
 70
     8
 71
     2
 72
     7
 73
     4
 74
     0
 42
0.0000000001
 43
0.0000000001
 40
0.0
 40
0.0
 40
0.0
 40
1.0
 40
2.0
 40
2.0
 40
2.0
 10
4.507924118802138
 20
0.1330652004567627
 30
0.0
 10
4.490824583918417
 20
0.1330652004567627
 30
0.0
 10
4.468709700197487
 20
0.1537712469683906
 30
0.0
 10
4.46703295601144
 20
0.1708558981311814
 30
0.0
  0
LINE
  5
D0
330
A
100
AcDbEntity
  8
1
  6
solid
 62
     7
100
AcDbLine
 10
4.571223421127719
 20
0.1345186888288558
 30
0.0
 11
4.600308072290509
 21
0.2595186888288557
 31
0.0
  0
LINE
  5
D1
330
A
100
AcDbEntity
  8
1
  6
solid
 62
     7
100
AcDbLine
 10
4.600308072290509
 20
0.2595186888288557
 30
0.0
 11
4.620016909499812
 21
0.2595186888288557
 31
0.0
  0
LINE
  5
D2
330
A
100
AcDbEntity
  8
1
  6
solid
 62
     7
100
AcDbLine
 10
4.620016909499812
 20
0.2595186888288557
 30
0.0
 11
4.590947142057951
 21
0.1345186888288558
 31
0.0
  0
LINE
  5
D3
330
A
100
AcDbEntity
  8
1
  6
solid
 62
     7
100
AcDbLine
 10
4.571223421127719
 20
0.1345186888288558
 30
0.0
 11
4.590947142057951
 21
0.1345186888288558
 31
0.0
  0
LINE
  5
D4
330
A
100
AcDbEntity
  8
1
  6
solid
 62
     7
100
AcDbLine
 10
4.697419467639346
 20
0.1345186888288558
 30
0.0
 11
4.672710165313765
 21
0.1345186888288558
 31
0.0
  0
LINE
  5
D5
330
A
100
AcDbEntity
  8
1
  6
solid
 62
     7
100
AcDbLine
 10
4.672710165313765
 20
0.1345186888288558
 30
0.0
 11
4.672710165313765
 21
0.2233749678986232
 31
0.0
  0
SPLINE
  5
D6
330
A
100
AcDbEntity
  8
1
  6
solid
 62
     7
100
AcDbSpline
210
0.0
220
0.0
230
1.0
 70
     8
 71
     2
 72
     6
 73
     3
 74
     0
 42
0.0000000001
 43
0.0000000001
 40
0.0
 40
0.0
 40
0.0
 40
1.0
 40
1.0
 40
1.0
 10
4.672710165313765
 20
0.2233749678986232
 30
0.0
 10
4.65971807229051
 20
0.2092121772009488
 30
0.0
 10
4.642186909499812
 20
0.2028326423172278
 30
0.0
  0
LINE
  5
D7
330
A
100
AcDbEntity
  8
1
  6
solid
 62
     7
100
AcDbLine
 10
4.642186909499812
 20
0.2028326423172278
 30
0.0
 11
4.642186909499812
 21
0.2275419446428093
 31
0.0
  0
SPLINE
  5
D8
330
A
100
AcDbEntity
  8
1
  6
solid
 62
     7
100
AcDbSpline
210
0.0
220
0.0
230
1.0
 70
     8
 71
     2
 72
     7
 73
     4
 74
     0
 42
0.0000000001
 43
0.0000000001
 40
0.0
 40
0.0
 40
0.0
 40
1.0
 40
2.0
 40
2.0
 40
2.0
 10
4.642186909499812
 20
0.2275419446428093
 30
0.0
 10
4.651369235081207
 20
0.2305828748753674
 30
0.0
 10
4.673394816476556
 20
0.2479354330149023
 30
0.0
 10
4.677591560662603
 20
0.2595186888288557
 30
0.0
  0
LINE
  5
D9
330
A
100
AcDbEntity
  8
1
  6
solid
 62
     7
100
AcDbLine
 10
4.677591560662603
 20
0.2595186888288557
 30
0.0
 11
4.697419467639346
 21
0.2595186888288557
 31
0.0
  0
LINE
  5
DA
330
A
100
AcDbEntity
  8
1
  6
solid
 62
     7
100
AcDbLine
 10
4.697419467639346
 20
0.1345186888288558
 30
0.0
 11
4.697419467639346
 21
0.2595186888288557
 31
0.0
  0
LINE
  5
DB
330
A
100
AcDbEntity
  8
1
  6
solid
 62
     7
100
AcDbLine
 10
4.799531328104463
 20
0.2254238051079255
 30
0.0
 11
4.774822025778882
 21
0.2231814795265302
 31
0.0
  0
SPLINE
  5
DC
330
A
100
AcDbEntity
  8
1
  6
solid
 62
     7
100
AcDbSpline
210
0.0
220
0.0
230
1.0
 70
     8
 71
     2
 72
     7
 73
     4
 74
     0
 42
0.0000000001
 43
0.0000000001
 40
0.0
 40
0.0
 40
0.0
 40
1.0
 40
2.0
 40
2.0
 40
2.0
 10
4.774822025778882
 20
0.2231814795265302
 30
0.0
 10
4.773770397871905
 20
0.2305679911544372
 30
0.0
 10
4.766681560662602
 20
0.2377163632474604
 30
0.0
 10
4.761016444383533
 20
0.2377163632474604
 30
0.0
  0
SPLINE
  5
DD
330
A
100
AcDbEntity
  8
1
  6
solid
 62
     7
100
AcDbSpline
210
0.0
220
0.0
230
1.0
 70
     8
 71
     2
 72
     7
 73
     4
 74
     0
 42
0.0000000001
 43
0.0000000001
 40
0.0
 40
0.0
 40
0.0
 40
1.0
 40
2.0
 40
2.0
 40
2.0
 10
4.761016444383533
 20
0.2377163632474604
 30
0.0
 10
4.753659700197486
 20
0.2377163632474604
 30
0.0
 10
4.743440630430044
 20
0.2232112469683906
 30
0.0
 10
4.742061560662603
 20
0.2006252004567627
 30
0.0
  0
SPLINE
  5
DE
330
A
100
AcDbEntity
  8
1
  6
solid
 62
     7
100
AcDbSpline
210
0.0
220
0.0
230
1.0
 70
     8
 71
     2
 72
     6
 73
     3
 74
     0
 42
0.0000000001
 43
0.0000000001
 40
0.0
 40
0.0
 40
0.0
 40
1.0
 40
1.0
 40
1.0
 10
4.742061560662603
 20
0.2006252004567627
 30
0.0
 10
4.751566211825394
 20
0.211553572549786
 30
0.0
 10
4.765004816476556
 20
0.211553572549786
 30
0.0
  0
SPLINE
  5
DF
330
A
100
AcDbEntity
  8
1
  6
solid
 62
     7
100
AcDbSpline
210
0.0
220
0.0
230
1.0
 70
     8
 71
     2
 72
     7
 73
     4
 74
     0
 42
0.0000000001
 43
0.0000000001
 40
0.0
 40
0.0
 40
0.0
 40
1.0
 40
2.0
 40
2.0
 40
2.0
 10
4.765004816476556
 20
0.211553572549786
 30
0.0
 10
4.780075514150975
 20
0.211553572549786
 30
0.0
 10
4.802438304848649
 20
0.1899298516195534
 30
0.0
 10
4.802438304848649
 20
0.1727558981311813
 30
0.0
  0
SPLINE
  5
E0
330
A
100
AcDbEntity
  8
1
  6
solid
 62
     7
100
AcDbSpline
210
0.0
220
0.0
230
1.0
 70
     8
 71
     2
 72
     7
 73
     4
 74
     0
 42
0.0000000001
 43
0.0000000001
 40
0.0
 40
0.0
 40
0.0
 40
1.0
 40
2.0
 40
2.0
 40
2.0
 10
4.802438304848649
 20
0.1727558981311813
 30
0.0
 10
4.802438304848649
 20
0.1548972934800185
 30
0.0
 10
4.77977783973237
 20
0.1330652004567627
 30
0.0
 10
4.762291328104463
 20
0.1330652004567627
 30
0.0
  0
SPLINE
  5
E1
330
A
100
AcDbEntity
  8
1
  6
solid
 62
     7
100
AcDbSpline
210
0.0
220
0.0
230
1.0
 70
     8
 71
     2
 72
     7
 73
     4
 74
     0
 42
0.0000000001
 43
0.0000000001
 40
0.0
 40
0.0
 40
0.0
 40
1.0
 40
2.0
 40
2.0
 40
2.0
 10
4.762291328104463
 20
0.1330652004567627
 30
0.0
 10
4.743470397871905
 20
0.1330652004567627
 30
0.0
 10
4.719589467639346
 20
0.1621796190614139
 30
0.0
 10
4.719589467639346
 20
0.194960084177693
 30
0.0
  0
SPLINE
  5
E2
330
A
100
AcDbEntity
  8
1
  6
solid
 62
     7
100
AcDbSpline
210
0.0
220
0.0
230
1.0
 70
     8
 71
     2
 72
     7
 73
     4
 74
     0
 42
0.0000000001
 43
0.0000000001
 40
0.0
 40
0.0
 40
0.0
 40
1.0
 40
2.0
 40
2.0
 40
2.0
 10
4.719589467639346
 20
0.194960084177693
 30
0.0
 10
4.719589467639346
 20
0.2292931074335069
 30
0.0
 10
4.744507142057951
 20
0.2595186888288557
 30
0.0
 10
4.764116909499812
 20
0.2595186888288557
 30
0.0
  0
SPLINE
  5
E3
330
A
100
AcDbEntity
  8
1
  6
solid
 62
     7
100
AcDbSpline
210
0.0
220
0.0
230
1.0
 70
     8
 71
     2
 72
     7
 73
     4
 74
     0
 42
0.0000000001
 43
0.0000000001
 40
0.0
 40
0.0
 40
0.0
 40
1.0
 40
2.0
 40
2.0
 40
2.0
 10
4.764116909499812
 20
0.2595186888288557
 30
0.0
 10
4.778309467639346
 20
0.2595186888288557
 30
0.0
 10
4.796877374616091
 20
0.2421958981311813
 30
0.0
 10
4.799531328104463
 20
0.2254238051079255
 30
0.0
  0
SPLINE
  5
E4
330
A
100
AcDbEntity
  8
1
  6
solid
 62
     7
100
AcDbSpline
210
0.0
220
0.0
230
1.0
 70
     8
 71
     2
 72
     7
 73
     4
 74
     0
 42
0.0000000001
 43
0.0000000001
 40
0.0
 40
0.0
 40
0.0
 40
1.0
 40
2.0
 40
2.0
 40
2.0
 10
4.744298769964928
 20
0.173053572549786
 30
0.0
 10
4.744298769964928
 20
0.164213572549786
 30
0.0
 10
4.754904816476556
 20
0.1548675260381581
 30
0.0
 10
4.761963886243998
 20
0.1548675260381581
 30
0.0
  0
SPLINE
  5
E5
330
A
100
AcDbEntity
  8
1
  6
solid
 62
     7
100
AcDbSpline
210
0.0
220
0.0
230
1.0
 70
     8
 71
     2
 72
     7
 73
     4
 74
     0
 42
0.0000000001
 43
0.0000000001
 40
0.0
 40
0.0
 40
0.0
 40
1.0
 40
2.0
 40
2.0
 40
2.0
 10
4.761963886243998
 20
0.1548675260381581
 30
0.0
 10
4.768358304848649
 20
0.1548675260381581
 30
0.0
 10
4.777729002523067
 20
0.1625665958056
 30
0.0
 10
4.777729002523067
 20
0.1714958981311813
 30
0.0
  0
SPLINE
  5
E6
330
A
100
AcDbEntity
  8
1
  6
solid
 62
     7
100
AcDbSpline
210
0.0
220
0.0
230
1.0
 70
     8
 71
     2
 72
     7
 73
     4
 74
     0
 42
0.0000000001
 43
0.0000000001
 40
0.0
 40
0.0
 40
0.0
 40
1.0
 40
2.0
 40
2.0
 40
2.0
 10
4.777729002523067
 20
0.1714958981311813
 30
0.0
 10
4.777729002523067
 20
0.1810898516195534
 30
0.0
 10
4.767911793220742
 20
0.1897512469683906
 30
0.0
 10
4.760674118802137
 20
0.1897512469683906
 30
0.0
  0
SPLINE
  5
E7
330
A
100
AcDbEntity
  8
1
  6
solid
 62
     7
100
AcDbSpline
210
0.0
220
0.0
230
1.0
 70
     8
 71
     2
 72
     7
 73
     4
 74
     0
 42
0.0000000001
 43
0.0000000001
 40
0.0
 40
0.0
 40
0.0
 40
1.0
 40
2.0
 40
2.0
 40
2.0
 10
4.760674118802137
 20
0.1897512469683906
 30
0.0
 10
4.753615049034696
 20
0.1897512469683906
 30
0.0
 10
4.744298769964928
 20
0.1813428748753674
 30
0.0
 10
4.744298769964928
 20
0.173053572549786
 30
0.0
  0
LINE
  5
E8
330
A
100
AcDbEntity
  8
1
  6
solid
 62
     7
100
AcDbLine
 10
1.845393004868302
 20
0.6508982085692625
 30
0.0
 11
2.082405679084124
 21
0.4788668617725973
 31
0.0
  0
ARC
  5
E9
330
A
100
AcDbEntity
  8
1
  6
solid
 62
     7
100
AcDbCircle
 10
1.87614911118237
 20
0.7513197023834045
 30
0.0
 40
0.3417197663721066
100
AcDbArc
 50
307.1270329501585
 51
507.2081570668252
  0
LINE
  5
EA
330
A
100
AcDbEntity
  8
1
  6
solid
 62
     7
100
AcDbLine
 10
1.588884555481995
 20
0.9363911361591695
 30
0.0
 11
1.454809072166983
 21
0.9815820173598224
 31
0.0
  0
LINE
  5
EB
330
A
100
AcDbEntity
  8
1
  6
solid
 62
     7
100
AcDbLine
 10
1.621939359379814
 20
0.3430395126
 30
0.0
 11
1.845393074038763
 21
0.650898303808415
 31
0.0
  0
ARC
  5
EC
330
A
100
AcDbEntity
  8
1
  6
solid
 62
     7
100
AcDbCircle
 10
0.5288362742468549
 20
0.6595887301463172
 30
0.0
 40
0.1871203524964412
100
AcDbArc
 50
75.63774443425875
 51
145.5942673368257
  0
ARC
  5
ED
330
A
100
AcDbEntity
  8
1
  6
solid
 62
     7
100
AcDbCircle
 10
0.8788357795638884
 20
0.7343207998276949
 30
0.0
 40
0.0625
100
AcDbArc
 50
23.53997153736695
 51
57.57502982177852
  0
LINE
  5
EE
330
A
100
AcDbEntity
  8
1
  6
solid
 62
     7
100
AcDbLine
 10
0.9123479490748851
 20
0.7870766951823011
 30
0.0
 11
0.7966899976416842
 21
0.8605461879787256
 31
0.0
  0
ARC
  5
EF
330
A
100
AcDbEntity
  8
1
  6
solid
 62
     7
100
AcDbCircle
 10
0.6317043229090426
 20
1.013501129584885
 30
0.0
 40
0.1816356815755631
100
AcDbArc
 50
251.8924946173582
 51
302.5833794949252
  0
ARC
  5
F0
330
A
100
AcDbEntity
  8
1
  6
solid
 62
     7
100
AcDbCircle
 10
0.7631778281306865
 20
0.8077902926241192
 30
0.0
 40
0.0625
100
AcDbArc
 50
57.57502982177843
 51
122.5833794949254
  0
ARC
  5
F1
330
A
100
AcDbEntity
  8
1
  6
solid
 62
     7
100
AcDbCircle
 10
1.061165647818394
 20
1.042741303541482
 30
0.0
 40
0.3983661850689701
100
AcDbArc
 50
258.6552637822891
 51
351.168715944066
  0
LINE
  5
F2
330
A
100
AcDbEntity
  8
1
  6
solid
 62
     7
100
AcDbLine
 10
0.9828023412942762
 20
0.6521586495525835
 30
0.0
 11
0.9361346339365891
 21
0.7592825963891614
 31
0.0
  0
LINE
  5
F3
330
A
100
AcDbEntity
  8
1
  6
solid
 62
     7
100
AcDbLine
 10
0.3744513237286812
 20
0.765321002287882
 30
0.0
 11
0.9562410208183869
 21
0.3430395126
 31
0.0
  0
LINE
  5
F5
330
A
100
AcDbEntity
  8
0
  6
solid
 62
     7
100
AcDbLine
 10
1.621939359379814
 20
0.3430395126
 30
0.0
 11
0.9562410208183871
 21
0.3430395126
 31
0.0
  0
LINE
  5
16D
330
A
100
AcDbEntity
  8
0
  6
solid
 62
     7
370
     0
100
AcDbLine
 10
0.3744513094425201
 20
0.2543585244579418
 30
0.0
 11
0.3744513094425201
 21
-0.1165532090423833
 31
0.0
  0
LINE
  5
16E
330
A
100
AcDbEntity
  8
0
  6
solid
 62
     7
370
     0
100
AcDbLine
 10
2.21786880493164
 20
0.5236848562556418
 30
0.0
 11
2.21786880493164
 21
-0.1165532090423833
 31
0.0
  0
LINE
  5
16F
330
A
100
AcDbEntity
  8
0
  6
solid
 62
     7
370
     0
100
AcDbLine
 10
0.3744513094425201
 20
-0.0540532090423834
 30
0.0
 11
1.29616005718708
 21
-0.0540532090423834
 31
0.0
  0
LINE
  5
170
330
A
100
AcDbEntity
  8
0
  6
solid
 62
     7
370
     0
100
AcDbLine
 10
2.21786880493164
 20
-0.0540532090423834
 30
0.0
 11
1.29616005718708
 21
-0.0540532090423834
 31
0.0
  0
MTEXT
  5
171
330
A
100
AcDbEntity
  8
0
  6
solid
 62
     7
370
     0
100
AcDbMText
 10
1.29616005718708
 20
0.0495318871114628
 30
0.0
 40
0.125
 41
0.0
 71
     5
 72
     1
  1
{\H0.125000;1 13/16}
 73
     1
 44
1.0
  0
SOLID
  5
172
330
A
100
AcDbEntity
  8
0
  6
solid
 62
     7
370
     0
100
AcDbTrace
 10
0.4994513094425202
 20
-0.0332382090423834
 30
0.0
 11
0.4994513094425202
 21
-0.0748682090423834
 31
0.0
 12
0.3744513094425201
 22
-0.0540532090423834
 32
0.0
 13
0.3744513094425201
 23
-0.0540532090423834
 33
0.0
  0
SOLID
  5
173
330
A
100
AcDbEntity
  8
0
  6
solid
 62
     7
370
     0
100
AcDbTrace
 10
2.09286880493164
 20
-0.0748682090423834
 30
0.0
 11
2.09286880493164
 21
-0.0332382090423834
 31
0.0
 12
2.21786880493164
 22
-0.0540532090423834
 32
0.0
 13
2.21786880493164
 23
-0.0540532090423834
 33
0.0
  0
LINE
  5
176
330
A
100
AcDbEntity
  8
0
  6
solid
 62
     7
370
     0
100
AcDbLine
 10
0.3244321163156485
 20
0.3430395126342778
 30
0.0
 11
0.1109199838513831
 21
0.343039512634278
 31
0.0
  0
LINE
  5
177
330
A
100
AcDbEntity
  8
0
  6
solid
 62
     7
370
     0
100
AcDbLine
 10
1.623150075116734
 20
1.093039512634277
 30
0.0
 11
0.1109199838513837
 21
1.093039512634278
 31
0.0
  0
LINE
  5
178
330
A
100
AcDbEntity
  8
0
  6
solid
 62
     7
370
     0
100
AcDbLine
 10
0.1734199838513831
 20
0.3430395126342779
 30
0.0
 11
0.1734199838513834
 21
0.7180395126342783
 31
0.0
  0
LINE
  5
179
330
A
100
AcDbEntity
  8
0
  6
solid
 62
     7
370
     0
100
AcDbLine
 10
0.1734199838513837
 20
1.093039512634278
 30
0.0
 11
0.1734199838513834
 21
0.7180395126342783
 31
0.0
  0
MTEXT
  5
17A
330
A
100
AcDbEntity
  8
0
  6
solid
 62
     7
370
     0
100
AcDbMText
 10
-0.0660425161486167
 20
0.7180395126342781
 30
0.0
 40
0.125
 41
0.0
 71
     5
 72
     1
  1
{\H0.125000;3/4}
 73
     1
 44
1.0
  0
SOLID
  5
17B
330
A
100
AcDbEntity
  8
0
  6
solid
 62
     7
370
     0
100
AcDbTrace
 10
0.1526049838513833
 20
0.4680395126342779
 30
0.0
 11
0.1942349838513834
 21
0.4680395126342779
 31
0.0
 12
0.1734199838513831
 22
0.3430395126342779
 32
0.0
 13
0.1734199838513831
 23
0.3430395126342779
 33
0.0
  0
SOLID
  5
17C
330
A
100
AcDbEntity
  8
0
  6
solid
 62
     7
370
     0
100
AcDbTrace
 10
0.1942349838513836
 20
0.9680395126342787
 30
0.0
 11
0.1526049838513836
 21
0.9680395126342787
 31
0.0
 12
0.1734199838513837
 22
1.093039512634278
 32
0.0
 13
0.1734199838513837
 23
1.093039512634278
 33
0.0
  0
VIEWPORT
  5
129
330
B
100
AcDbEntity
 67
     1
  8
0
  6
Continuous
370
     0
100
AcDbViewport
 10
5.151764306687558
 20
3.968749910906531
 30
0.0
 40
15.6124669658333
 41
8.260650400841111
 68
     1
 69
     1
 12
5.151764306687558
 22
3.968749910906531
 13
0.0
 23
0.0
 14
0.5
 24
0.5
 15
0.5
 25
0.5
 16
0.0
 26
0.0
 36
1.0
 17
0.0
 27
0.0
 37
0.0
 42
50.0
 43
0.0
 44
0.0
 45
8.260650400841111
 50
0.0
 51
0.0
 72
   100
 90
   819232
  1

281
     0
 71
     1
 74
     0
110
0.0
120
0.0
130
0.0
111
1.0
121
0.0
131
0.0
112
0.0
122
1.0
132
0.0
 79
     0
146
0.0
170
     0
  0
VIEWPORT
  5
12C
330
B
100
AcDbEntity
 67
     1
  8
0
  6
Continuous
370
     0
100
AcDbViewport
 10
5.15173834198725
 20
3.96874996762399
 30
0.0
 40
10.51917895085642
 41
8.164233105480644
 68
     2
 69
     2
 12
2.950925739446701
 22
0.3968992072500026
 13
0.0
 23
0.0
 14
0.5
 24
0.5
 15
0.5
 25
0.5
 16
0.0
 26
0.0
 36
1.0
 17
0.0
 27
0.0
 37
0.0
 42
50.0
 43
0.0
 44
0.0
 45
5.633086745261499
 50
0.0
 51
0.0
 72
   100
 90
   819232
  1

281
     0
 71
     1
 74
     0
110
0.0
120
0.0
130
0.0
111
1.0
121
0.0
131
0.0
112
0.0
122
1.0
132
0.0
 79
     0
146
0.0
170
     0
  0
ENDSEC
  0
SECTION
  2
OBJECTS
  0
DICTIONARY
  5
19
330
0
100
AcDbDictionary
281
     1
  3
ACAD_COLOR
350
122
  3
ACAD_GROUP
350
1A
  3
ACAD_LAYOUT
350
1E
  3
ACAD_MATERIAL
350
10D
  3
ACAD_MLEADERSTYLE
350
156
  3
ACAD_MLINESTYLE
350
1B
  3
ACAD_PLOTSETTINGS
350
22
  3
ACAD_PLOTSTYLENAME
350
1F
  3
ACAD_SCALELIST
350
134
  3
ACAD_TABLESTYLE
350
123
  3
ACAD_VISUALSTYLE
350
111
  3
ACAD_WIPEOUT_VARS
350
23
  3
ACDB_RECOMPOSE_DATA
350
19A
  3
AcDbVariableDictionary
350
131
  3
ASE_INDEX_DICTIONARY
350
12E
  0
DICTIONARY
  5
15F
330
14
100
AcDbDictionary
280
     1
281
     1
  3
ADSK_XREC_LAYER_RECONCILED
360
160
  0
DICTIONARY
  5
161
330
27
100
AcDbDictionary
280
     1
281
     1
  3
ADSK_XREC_LAYER_RECONCILED
360
162
  0
DICTIONARY
  5
163
330
F4
100
AcDbDictionary
280
     1
281
     1
  3
ADSK_XREC_LAYER_RECONCILED
360
164
  0
DICTIONARY
  5
174
330
A
100
AcDbDictionary
280
     1
281
     1
  3
ACAD_SORTENTS
360
175
  0
DICTIONARY
  5
122
102
{ACAD_REACTORS
330
19
102
}
330
19
100
AcDbDictionary
281
     1
  0
DICTIONARY
  5
1A
102
{ACAD_REACTORS
330
19
102
}
330
19
100
AcDbDictionary
281
     1
  0
DICTIONARY
  5
1E
102
{ACAD_REACTORS
330
19
102
}
330
19
100
AcDbDictionary
281
     1
  3
Layout1
350
21
  3
Model
350
20
  0
DICTIONARY
  5
10D
102
{ACAD_REACTORS
330
19
102
}
330
19
100
AcDbDictionary
281
     1
  3
ByBlock
350
10F
  3
ByLayer
350
10E
  3
Global
350
110
  0
DICTIONARY
  5
156
102
{ACAD_REACTORS
330
19
102
}
330
19
100
AcDbDictionary
281
     1
  3
Standard
350
157
  0
DICTIONARY
  5
1B
102
{ACAD_REACTORS
330
19
102
}
330
19
100
AcDbDictionary
281
     1
  3
Standard
350
1C
  0
DICTIONARY
  5
22
102
{ACAD_REACTORS
330
19
102
}
330
19
100
AcDbDictionary
281
     1
  0
ACDBDICTIONARYWDFLT
  5
1F
102
{ACAD_REACTORS
330
19
102
}
330
19
100
AcDbDictionary
281
     1
  3
Normal
350
1D
100
AcDbDictionaryWithDefault
340
1D
  0
DICTIONARY
  5
134
102
{ACAD_REACTORS
330
19
102
}
330
19
100
AcDbDictionary
281
     1
  3
A0
350
135
  3
A1
350
136
  3
A2
350
137
  3
A3
350
138
  3
A4
350
139
  3
A5
350
13A
  3
A6
350
13B
  3
A7
350
13C
  3
A8
350
13D
  3
A9
350
13E
  3
B0
350
13F
  3
B1
350
140
  3
B2
350
141
  3
B3
350
142
  3
B4
350
143
  3
B5
350
144
  3
B6
350
145
  3
B7
350
146
  3
B8
350
147
  3
B9
350
148
  3
C0
350
149
  3
C1
350
14A
  3
C2
350
14B
  3
C3
350
14C
  3
C4
350
14D
  3
C5
350
14E
  3
C6
350
14F
  3
C7
350
150
  3
C8
350
151
  3
C9
350
152
  3
D0
350
153
  3
D1
350
154
  3
D2
350
155
  0
DICTIONARY
  5
123
102
{ACAD_REACTORS
330
19
102
}
330
19
100
AcDbDictionary
281
     1
  3
Standard
350
124
  0
DICTIONARY
  5
111
102
{ACAD_REACTORS
330
19
102
}
330
19
100
AcDbDictionary
281
     1
  3
2dWireframe
350
117
  3
3D Hidden
350
119
  3
3dWireframe
350
118
  3
Basic
350
116
  3
Brighten
350
11D
  3
ColorChange
350
121
  3
Conceptual
350
11A
  3
Dim
350
11C
  3
Facepattern
350
120
  3
Flat
350
112
  3
FlatWithEdges
350
113
  3
Gouraud
350
114
  3
GouraudWithEdges
350
115
  3
Linepattern
350
11F
  3
Realistic
350
11B
  3
Thicken
350
11E
  0
WIPEOUTVARIABLES
  5
23
330
19
100
AcDbWipeoutVariables
 70
     1
  0
XRECORD
  5
19A
102
{ACAD_REACTORS
330
19
102
}
330
19
100
AcDbXrecord
280
     1
 90
        1
330
124
  0
DICTIONARY
  5
131
102
{ACAD_REACTORS
330
19
102
}
330
19
100
AcDbDictionary
281
     1
  3
CANNOSCALE
350
197
  3
CMLEADERSTYLE
350
196
  3
CTABLESTYLE
350
132
  0
DICTIONARY
  5
12E
102
{ACAD_REACTORS
330
19
102
}
330
19
100
AcDbDictionary
281
     1
  3
ASEBlockHierarchyIndexRecord
350
130
1001
DCO15
1040
1645091614.719
  0
XRECORD
  5
160
102
{ACAD_REACTORS
330
15F
102
}
330
15F
100
AcDbXrecord
280
     1
290
     1
  0
XRECORD
  5
162
102
{ACAD_REACTORS
330
161
102
}
330
161
100
AcDbXrecord
280
     1
290
     1
  0
XRECORD
  5
164
102
{ACAD_REACTORS
330
163
102
}
330
163
100
AcDbXrecord
280
     1
290
     1
  0
SORTENTSTABLE
  5
175
102
{ACAD_REACTORS
330
174
102
}
330
174
100
AcDbSortentsTable
330
A
331
F3
  5
F3
331
D9
  5
D9
331
173
  5
172
331
EA
  5
EA
331
C8
  5
C8
331
A6
  5
A6
331
84
  5
84
331
6C
  5
6C
331
4A
  5
4A
331
B7
  5
B7
331
95
  5
95
331
5B
  5
5B
331
39
  5
39
331
28
  5
28
331
F1
  5
F1
331
171
  5
170
331
E8
  5
E8
331
C6
  5
C6
331
A4
  5
A4
331
82
  5
82
331
6A
  5
6A
331
48
  5
48
331
D7
  5
D7
331
B5
  5
B5
331
93
  5
93
331
59
  5
59
331
37
  5
37
331
16F
  5
16E
331
E6
  5
E6
331
C4
  5
C4
331
A2
  5
A2
331
80
  5
80
331
68
  5
68
331
46
  5
46
331
D5
  5
D5
331
B3
  5
B3
331
91
  5
91
331
57
  5
57
331
35
  5
35
331
16D
  5
10B
331
E4
  5
E4
331
C2
  5
C2
331
A0
  5
A0
331
7E
  5
7E
331
66
  5
66
331
44
  5
44
331
D3
  5
D3
331
B1
  5
B1
331
8F
  5
8F
331
77
  5
77
331
55
  5
55
331
33
  5
33
331
E2
  5
E2
331
C0
  5
C0
331
9E
  5
9E
331
7C
  5
7C
331
64
  5
64
331
42
  5
42
331
17C
  5
17C
331
D1
  5
D1
331
AF
  5
AF
331
8D
  5
8D
331
75
  5
75
331
53
  5
53
331
31
  5
31
331
E0
  5
E0
331
BE
  5
BE
331
9C
  5
9C
331
7A
  5
7A
331
62
  5
62
331
40
  5
40
331
17A
  5
17A
331
CF
  5
CF
331
AD
  5
AD
331
8B
  5
8B
331
73
  5
73
331
51
  5
51
331
2F
  5
2F
331
DE
  5
DE
331
BC
  5
BC
331
9A
  5
9A
331
78
  5
78
331
60
  5
60
331
178
  5
178
331
EF
  5
EF
331
CD
  5
CD
331
AB
  5
AB
331
89
  5
89
331
71
  5
71
331
4F
  5
4F
331
3E
  5
3E
331
2D
  5
2D
331
DC
  5
DC
331
BA
  5
BA
331
98
  5
98
331
176
  5
176
331
ED
  5
ED
331
CB
  5
CB
331
A9
  5
A9
331
87
  5
87
331
6F
  5
6F
331
4D
  5
4D
331
5E
  5
5E
331
3C
  5
3C
331
2B
  5
2B
331
DA
  5
DA
331
B8
  5
B8
331
EB
  5
EB
331
C9
  5
C9
331
A7
  5
A7
331
85
  5
85
331
6D
  5
6D
331
4B
  5
4B
331
96
  5
96
331
5C
  5
5C
331
3A
  5
3A
331
29
  5
29
331
F2
  5
F2
331
D8
  5
D8
331
172
  5
171
331
E9
  5
E9
331
C7
  5
C7
331
A5
  5
A5
331
83
  5
83
331
6B
  5
6B
331
49
  5
49
331
B6
  5
B6
331
94
  5
94
331
5A
  5
5A
331
38
  5
38
331
F0
  5
F0
331
170
  5
16F
331
E7
  5
E7
331
C5
  5
C5
331
A3
  5
A3
331
81
  5
81
331
69
  5
69
331
47
  5
47
331
D6
  5
D6
331
B4
  5
B4
331
92
  5
92
331
58
  5
58
331
36
  5
36
331
16E
  5
16D
331
E5
  5
E5
331
C3
  5
C3
331
A1
  5
A1
331
7F
  5
7F
331
67
  5
67
331
45
  5
45
331
D4
  5
D4
331
B2
  5
B2
331
90
  5
90
331
56
  5
56
331
34
  5
34
331
E3
  5
E3
331
C1
  5
C1
331
9F
  5
9F
331
7D
  5
7D
331
65
  5
65
331
43
  5
43
331
D2
  5
D2
331
B0
  5
B0
331
8E
  5
8E
331
76
  5
76
331
54
  5
54
331
32
  5
32
331
E1
  5
E1
331
BF
  5
BF
331
9D
  5
9D
331
7B
  5
7B
331
63
  5
63
331
41
  5
41
331
17B
  5
17B
331
D0
  5
D0
331
AE
  5
AE
331
8C
  5
8C
331
74
  5
74
331
52
  5
52
331
30
  5
30
331
DF
  5
DF
331
BD
  5
BD
331
9B
  5
9B
331
79
  5
79
331
61
  5
61
331
179
  5
179
331
CE
  5
CE
331
AC
  5
AC
331
8A
  5
8A
331
72
  5
72
331
50
  5
50
331
3F
  5
3F
331
2E
  5
2E
331
DD
  5
DD
331
BB
  5
BB
331
99
  5
99
331
177
  5
177
331
EE
  5
EE
331
CC
  5
CC
331
AA
  5
AA
331
88
  5
88
331
70
  5
70
331
4E
  5
4E
331
5F
  5
5F
331
3D
  5
3D
331
2C
  5
2C
331
F5
  5
F5
331
DB
  5
DB
331
B9
  5
B9
331
EC
  5
EC
331
CA
  5
CA
331
A8
  5
A8
331
86
  5
86
331
6E
  5
6E
331
4C
  5
4C
331
97
  5
97
331
5D
  5
5D
331
3B
  5
3B
331
2A
  5
2A
  0
LAYOUT
  5
21
102
{ACAD_REACTORS
330
1E
102
}
330
1E
100
AcDbPlotSettings
  1

  2
Foxit PDF Printer
  4
Letter
  6

 40
3.174999952316284
 41
3.174999952316284
 42
3.17498779296875
 43
3.175003051757812
 44
279.3999938964844
 45
215.8999938964844
 46
31.47715384821894
 47
24.12875752349356
 48
0.0
 49
0.0
140
0.0
141
0.0
142
1.0
143
1.0
 70
     4
 72
     0
 73
     0
 74
     1
  7

 75
    16
147
1.0
 76
     1
 77
     2
 78
   300
148
-26.25461124795212
149
-20.16000981431432
100
AcDbLayout
  1
Layout1
 70
     0
 71
     1
 10
-0.3306119115190196
 20
-0.2812499079328949
 11
10.66938784818509
 21
8.218749851771214
 12
0.0
 22
0.0
 32
0.0
 14
-0.1085505195276539
 24
-0.1135482522998323
 34
-0.0015258207003583
 15
10.41207913290277
 25
8.051048074112895
 35
0.0000000349246037
146
0.0
 13
0.0
 23
0.0
 33
0.0
 16
1.0
 26
0.0
 36
0.0
 17
0.0
 27
1.0
 37
0.0
 76
     0
330
B
331
129
1001
ACAD_PSEXT
1000
Foxit PDF Printer
1000
Foxit PDF Printer Driver
1000
FOXIT_PDF
1000

1070
     0
  0
LAYOUT
  5
20
102
{ACAD_REACTORS
330
1E
102
}
330
1E
100
AcDbPlotSettings
  1

  2

  4

  6

 40
0.0
 41
0.0
 42
0.0
 43
0.0
 44
0.0
 45
0.0
 46
0.0
 47
0.0
 48
0.0
 49
0.0
140
0.0
141
0.0
142
1.0
143
1.0
 70
  1024
 72
     0
 73
     0
 74
     0
  7

 75
     0
147
1.0
 76
     0
 77
     2
 78
   300
148
0.0
149
0.0
100
AcDbLayout
  1
Model
 70
     0
 71
     0
 10
0.0
 20
0.0
 11
0.0
 21
0.0
 12
0.0
 22
0.0
 32
0.0
 14
0.0
 24
0.0
 34
0.0
 15
0.0
 25
0.0
 35
0.0
146
0.0
 13
0.0
 23
0.0
 33
0.0
 16
0.0
 26
0.0
 36
0.0
 17
0.0
 27
0.0
 37
0.0
 76
     0
330
A
  0
MATERIAL
  5
10F
102
{ACAD_XDICTIONARY
360
19D
102
}
102
{ACAD_REACTORS
330
10D
102
}
330
10D
100
AcDbMaterial
  1
ByBlock
 73
     1
 78
     1
172
     1
176
     1
270
     1
274
     1
  0
MATERIAL
  5
10E
102
{ACAD_XDICTIONARY
360
19B
102
}
102
{ACAD_REACTORS
330
10D
102
}
330
10D
100
AcDbMaterial
  1
ByLayer
 73
     1
 78
     1
172
     1
176
     1
270
     1
274
     1
  0
MATERIAL
  5
110
102
{ACAD_XDICTIONARY
360
19F
102
}
102
{ACAD_REACTORS
330
10D
102
}
330
10D
100
AcDbMaterial
  1
Global
 73
     1
 78
     1
172
     1
176
     1
270
     1
274
     1
  0
MLEADERSTYLE
  5
157
102
{ACAD_REACTORS
330
156
102
}
330
156
100
AcDbMLeaderStyle
170
     2
171
     1
172
     0
 90
        2
 40
0.0
 41
0.0
173
     1
 91
-1056964608
340
11
 92
       -2
290
     1
 42
0.09
291
     1
 43
0.36
  3
Standard
 44
0.18
300

342
17
174
     1
178
     6
175
     1
176
     0
 93
-1056964608
 45
0.18
292
     0
297
     0
 46
0.18
 94
-1056964608
 47
1.0
 49
1.0
140
1.0
293
     1
141
0.0
294
     1
177
     0
142
1.0
295
     0
296
     0
143
0.125
1001
ACAD_MLEADERVER
1070
     2
  0
MLINESTYLE
  5
1C
102
{ACAD_REACTORS
330
1B
102
}
330
1B
100
AcDbMlineStyle
  2
STANDARD
 70
     0
  3

 62
     0
 51
90.0
 52
90.0
 71
     2
 49
0.5
 62
   256
  6
BYLAYER
 49
-0.5
 62
   256
  6
BYLAYER
  0
ACDBPLACEHOLDER
  5
1D
102
{ACAD_REACTORS
330
1F
102
}
330
1F
  0
SCALE
  5
135
102
{ACAD_REACTORS
330
134
102
}
330
134
100
AcDbScale
 70
     0
300
1:1
140
1.0
141
1.0
290
     1
  0
SCALE
  5
136
102
{ACAD_REACTORS
330
134
102
}
330
134
100
AcDbScale
 70
     0
300
1:2
140
1.0
141
2.0
290
     0
  0
SCALE
  5
137
102
{ACAD_REACTORS
330
134
102
}
330
134
100
AcDbScale
 70
     0
300
1:4
140
1.0
141
4.0
290
     0
  0
SCALE
  5
138
102
{ACAD_REACTORS
330
134
102
}
330
134
100
AcDbScale
 70
     0
300
1:5
140
1.0
141
5.0
290
     0
  0
SCALE
  5
139
102
{ACAD_REACTORS
330
134
102
}
330
134
100
AcDbScale
 70
     0
300
1:8
140
1.0
141
8.0
290
     0
  0
SCALE
  5
13A
102
{ACAD_REACTORS
330
134
102
}
330
134
100
AcDbScale
 70
     0
300
1:10
140
1.0
141
10.0
290
     0
  0
SCALE
  5
13B
102
{ACAD_REACTORS
330
134
102
}
330
134
100
AcDbScale
 70
     0
300
1:16
140
1.0
141
16.0
290
     0
  0
SCALE
  5
13C
102
{ACAD_REACTORS
330
134
102
}
330
134
100
AcDbScale
 70
     0
300
1:20
140
1.0
141
20.0
290
     0
  0
SCALE
  5
13D
102
{ACAD_REACTORS
330
134
102
}
330
134
100
AcDbScale
 70
     0
300
1:30
140
1.0
141
30.0
290
     0
  0
SCALE
  5
13E
102
{ACAD_REACTORS
330
134
102
}
330
134
100
AcDbScale
 70
     0
300
1:40
140
1.0
141
40.0
290
     0
  0
SCALE
  5
13F
102
{ACAD_REACTORS
330
134
102
}
330
134
100
AcDbScale
 70
     0
300
1:50
140
1.0
141
50.0
290
     0
  0
SCALE
  5
140
102
{ACAD_REACTORS
330
134
102
}
330
134
100
AcDbScale
 70
     0
300
1:100
140
1.0
141
100.0
290
     0
  0
SCALE
  5
141
102
{ACAD_REACTORS
330
134
102
}
330
134
100
AcDbScale
 70
     0
300
2:1
140
2.0
141
1.0
290
     0
  0
SCALE
  5
142
102
{ACAD_REACTORS
330
134
102
}
330
134
100
AcDbScale
 70
     0
300
4:1
140
4.0
141
1.0
290
     0
  0
SCALE
  5
143
102
{ACAD_REACTORS
330
134
102
}
330
134
100
AcDbScale
 70
     0
300
8:1
140
8.0
141
1.0
290
     0
  0
SCALE
  5
144
102
{ACAD_REACTORS
330
134
102
}
330
134
100
AcDbScale
 70
     0
300
10:1
140
10.0
141
1.0
290
     0
  0
SCALE
  5
145
102
{ACAD_REACTORS
330
134
102
}
330
134
100
AcDbScale
 70
     0
300
100:1
140
100.0
141
1.0
290
     0
  0
SCALE
  5
146
102
{ACAD_REACTORS
330
134
102
}
330
134
100
AcDbScale
 70
     0
300
1/128" = 1'-0"
140
0.0078125
141
12.0
290
     0
  0
SCALE
  5
147
102
{ACAD_REACTORS
330
134
102
}
330
134
100
AcDbScale
 70
     0
300
1/64" = 1'-0"
140
0.015625
141
12.0
290
     0
  0
SCALE
  5
148
102
{ACAD_REACTORS
330
134
102
}
330
134
100
AcDbScale
 70
     0
300
1/32" = 1'-0"
140
0.03125
141
12.0
290
     0
  0
SCALE
  5
149
102
{ACAD_REACTORS
330
134
102
}
330
134
100
AcDbScale
 70
     0
300
1/16" = 1'-0"
140
0.0625
141
12.0
290
     0
  0
SCALE
  5
14A
102
{ACAD_REACTORS
330
134
102
}
330
134
100
AcDbScale
 70
     0
300
3/32" = 1'-0"
140
0.09375
141
12.0
290
     0
  0
SCALE
  5
14B
102
{ACAD_REACTORS
330
134
102
}
330
134
100
AcDbScale
 70
     0
300
1/8" = 1'-0"
140
0.125
141
12.0
290
     0
  0
SCALE
  5
14C
102
{ACAD_REACTORS
330
134
102
}
330
134
100
AcDbScale
 70
     0
300
3/16" = 1'-0"
140
0.1875
141
12.0
290
     0
  0
SCALE
  5
14D
102
{ACAD_REACTORS
330
134
102
}
330
134
100
AcDbScale
 70
     0
300
1/4" = 1'-0"
140
0.25
141
12.0
290
     0
  0
SCALE
  5
14E
102
{ACAD_REACTORS
330
134
102
}
330
134
100
AcDbScale
 70
     0
300
3/8" = 1'-0"
140
0.375
141
12.0
290
     0
  0
SCALE
  5
14F
102
{ACAD_REACTORS
330
134
102
}
330
134
100
AcDbScale
 70
     0
300
1/2" = 1'-0"
140
0.5
141
12.0
290
     0
  0
SCALE
  5
150
102
{ACAD_REACTORS
330
134
102
}
330
134
100
AcDbScale
 70
     0
300
3/4" = 1'-0"
140
0.75
141
12.0
290
     0
  0
SCALE
  5
151
102
{ACAD_REACTORS
330
134
102
}
330
134
100
AcDbScale
 70
     0
300
1" = 1'-0"
140
1.0
141
12.0
290
     0
  0
SCALE
  5
152
102
{ACAD_REACTORS
330
134
102
}
330
134
100
AcDbScale
 70
     0
300
1-1/2" = 1'-0"
140
1.5
141
12.0
290
     0
  0
SCALE
  5
153
102
{ACAD_REACTORS
330
134
102
}
330
134
100
AcDbScale
 70
     0
300
3" = 1'-0"
140
3.0
141
12.0
290
     0
  0
SCALE
  5
154
102
{ACAD_REACTORS
330
134
102
}
330
134
100
AcDbScale
 70
     0
300
6" = 1'-0"
140
6.0
141
12.0
290
     0
  0
SCALE
  5
155
102
{ACAD_REACTORS
330
134
102
}
330
134
100
AcDbScale
 70
     0
300
1'-0" = 1'-0"
140
12.0
141
12.0
290
     0
  0
TABLESTYLE
  5
124
102
{ACAD_XDICTIONARY
360
198
102
}
102
{ACAD_REACTORS
330
123
102
}
330
123
100
AcDbTableStyle
  3
Standard
 70
     0
 71
     0
 40
0.06
 41
0.06
280
     0
281
     0
  7
Standard
140
0.18
170
     2
 62
     0
 63
     7
283
     0
274
    -2
284
     1
 64
     0
275
    -2
285
     1
 65
     0
276
    -2
286
     1
 66
     0
277
    -2
287
     1
 67
     0
278
    -2
288
     1
 68
     0
279
    -2
289
     1
 69
     0
  7
Standard
140
0.25
170
     5
 62
     0
 63
     7
283
     0
274
    -2
284
     1
 64
     0
275
    -2
285
     1
 65
     0
276
    -2
286
     1
 66
     0
277
    -2
287
     1
 67
     0
278
    -2
288
     1
 68
     0
279
    -2
289
     1
 69
     0
  7
Standard
140
0.18
170
     5
 62
     0
 63
     7
283
     0
274
    -2
284
     1
 64
     0
275
    -2
285
     1
 65
     0
276
    -2
286
     1
 66
     0
277
    -2
287
     1
 67
     0
278
    -2
288
     1
 68
     0
279
    -2
289
     1
 69
     0
  0
VISUALSTYLE
  5
117
102
{ACAD_REACTORS
330
111
102
}
330
111
100
AcDbVisualStyle
  2
2dWireframe
 70
     4
 71
     0
 72
     2
 73
     0
 90
        0
 40
-0.6
 41
-30.0
 62
     5
 63
     7
421
 16777215
 74
     1
 91
        4
 64
     7
 65
   257
 75
     1
175
     1
 42
1.0
 92
        0
 66
   257
 43
1.0
 76
     1
 77
     6
 78
     2
 67
     7
 79
     5
170
     0
171
     0
290
     0
174
     0
 93
        1
 44
0.0
173
     0
291
     0
 45
0.0
1001
ACAD
1000
AcDbSavedByObjectVersion
1070
     0
  0
VISUALSTYLE
  5
119
102
{ACAD_REACTORS
330
111
102
}
330
111
100
AcDbVisualStyle
  2
3D Hidden
 70
     6
 71
     1
 72
     2
 73
     2
 90
        0
 40
-0.6
 41
-30.0
 62
     5
 63
     7
421
 16777215
 74
     2
 91
        2
 64
     7
 65
   257
 75
     2
175
     1
 42
40.0
 92
        0
 66
   257
 43
1.0
 76
     1
 77
     6
 78
     2
 67
     7
 79
     3
170
     0
171
     0
290
     0
174
     0
 93
        1
 44
0.0
173
     0
291
     0
 45
0.0
1001
ACAD
1000
AcDbSavedByObjectVersion
1070
     0
  0
VISUALSTYLE
  5
118
102
{ACAD_REACTORS
330
111
102
}
330
111
100
AcDbVisualStyle
  2
3dWireframe
 70
     5
 71
     0
 72
     2
 73
     0
 90
        0
 40
-0.6
 41
-30.0
 62
     5
 63
     7
421
 16777215
 74
     1
 91
        4
 64
     7
 65
   257
 75
     1
175
     1
 42
1.0
 92
        0
 66
   257
 43
1.0
 76
     1
 77
     6
 78
     2
 67
     7
 79
     5
170
     0
171
     0
290
     0
174
     0
 93
        1
 44
0.0
173
     0
291
     0
 45
0.0
1001
ACAD
1000
AcDbSavedByObjectVersion
1070
     0
  0
VISUALSTYLE
  5
116
102
{ACAD_REACTORS
330
111
102
}
330
111
100
AcDbVisualStyle
  2
Basic
 70
     7
 71
     1
 72
     0
 73
     1
 90
        0
 40
-0.6
 41
-30.0
 62
     5
 63
     7
421
 16777215
 74
     0
 91
        4
 64
     7
 65
   257
 75
     1
175
     1
 42
1.0
 92
        8
 66
     7
 43
1.0
 76
     1
 77
     6
 78
     2
 67
     7
 79
     5
170
     0
171
     0
290
     0
174
     0
 93
        1
 44
0.0
173
     0
291
     1
 45
0.0
1001
ACAD
1000
AcDbSavedByObjectVersion
1070
     0
  0
VISUALSTYLE
  5
11D
102
{ACAD_REACTORS
330
111
102
}
330
111
100
AcDbVisualStyle
  2
Brighten
 70
    12
 71
     2
 72
     2
 73
     0
 90
        0
 40
-0.6
 41
-30.0
 62
     5
 63
     7
421
 16777215
 74
     1
 91
        4
 64
     7
 65
   257
 75
     1
175
     1
 42
1.0
 92
        8
 66
     7
 43
1.0
 76
     1
 77
     6
 78
     2
 67
     7
 79
     5
170
     0
171
     0
290
     0
174
     0
 93
        1
 44
50.0
173
     0
291
     1
 45
0.0
1001
ACAD
1000
AcDbSavedByObjectVersion
1070
     0
  0
VISUALSTYLE
  5
121
102
{ACAD_REACTORS
330
111
102
}
330
111
100
AcDbVisualStyle
  2
ColorChange
 70
    16
 71
     2
 72
     2
 73
     3
 90
        0
 40
-0.6
 41
-30.0
 62
     5
 63
     8
421
  8421504
 74
     1
 91
        4
 64
     7
 65
   257
 75
     1
175
     1
 42
1.0
 92
        8
 66
     8
424
  8421504
 43
1.0
 76
     1
 77
     6
 78
     2
 67
     7
 79
     5
170
     0
171
     0
290
     0
174
     0
 93
        1
 44
0.0
173
     0
291
     1
 45
0.0
1001
ACAD
1000
AcDbSavedByObjectVersion
1070
     0
  0
VISUALSTYLE
  5
11A
102
{ACAD_REACTORS
330
111
102
}
330
111
100
AcDbVisualStyle
  2
Conceptual
 70
     9
 71
     3
 72
     2
 73
     0
 90
        0
 40
-0.6
 41
-30.0
 62
     5
 63
     7
421
 16777215
 74
     2
 91
        2
 64
     7
 65
   257
 75
     1
175
     1
 42
40.0
 92
        8
 66
     7
 43
1.0
 76
     1
 77
     6
 78
     2
 67
     7
 79
     3
170
     0
171
     0
290
     0
174
     0
 93
        1
 44
0.0
173
     0
291
     0
 45
0.0
1001
ACAD
1000
AcDbSavedByObjectVersion
1070
     0
  0
VISUALSTYLE
  5
11C
102
{ACAD_REACTORS
330
111
102
}
330
111
100
AcDbVisualStyle
  2
Dim
 70
    11
 71
     2
 72
     2
 73
     0
 90
        0
 40
-0.6
 41
-30.0
 62
     5
 63
     7
421
 16777215
 74
     1
 91
        4
 64
     7
 65
   257
 75
     1
175
     1
 42
1.0
 92
        8
 66
     7
 43
1.0
 76
     1
 77
     6
 78
     2
 67
     7
 79
     5
170
     0
171
     0
290
     0
174
     0
 93
        1
 44
-50.0
173
     0
291
     1
 45
0.0
1001
ACAD
1000
AcDbSavedByObjectVersion
1070
     0
  0
VISUALSTYLE
  5
120
102
{ACAD_REACTORS
330
111
102
}
330
111
100
AcDbVisualStyle
  2
Facepattern
 70
    15
 71
     2
 72
     2
 73
     0
 90
        0
 40
-0.6
 41
-30.0
 62
     5
 63
     7
421
 16777215
 74
     1
 91
        4
 64
     7
 65
   257
 75
     1
175
     1
 42
1.0
 92
        8
 66
     7
 43
1.0
 76
     1
 77
     6
 78
     2
 67
     7
 79
     5
170
     0
171
     0
290
     0
174
     0
 93
        1
 44
0.0
173
     0
291
     1
 45
0.0
1001
ACAD
1000
AcDbSavedByObjectVersion
1070
     0
  0
VISUALSTYLE
  5
112
102
{ACAD_REACTORS
330
111
102
}
330
111
100
AcDbVisualStyle
  2
Flat
 70
     0
 71
     2
 72
     1
 73
     1
 90
        2
 40
-0.6
 41
30.0
 62
     5
 63
     7
421
 16777215
 74
     0
 91
        4
 64
     7
 65
   257
 75
     1
175
     1
 42
1.0
 92
        8
 66
     7
 43
1.0
 76
     1
 77
     6
 78
     2
 67
     7
 79
     5
170
     0
171
     0
290
     0
174
     0
 93
       13
 44
0.0
173
     0
291
     1
 45
0.0
1001
ACAD
1000
AcDbSavedByObjectVersion
1070
     0
  0
VISUALSTYLE
  5
113
102
{ACAD_REACTORS
330
111
102
}
330
111
100
AcDbVisualStyle
  2
FlatWithEdges
 70
     1
 71
     2
 72
     1
 73
     1
 90
        2
 40
-0.6
 41
30.0
 62
     5
 63
     7
421
 16777215
 74
     1
 91
        4
 64
     7
 65
   257
 75
     1
175
     1
 42
1.0
 92
        0
 66
   257
 43
1.0
 76
     1
 77
     6
 78
     2
 67
     7
 79
     5
170
     0
171
     0
290
     0
174
     0
 93
       13
 44
0.0
173
     0
291
     1
 45
0.0
1001
ACAD
1000
AcDbSavedByObjectVersion
1070
     0
  0
VISUALSTYLE
  5
114
102
{ACAD_REACTORS
330
111
102
}
330
111
100
AcDbVisualStyle
  2
Gouraud
 70
     2
 71
     2
 72
     2
 73
     1
 90
        2
 40
-0.6
 41
30.0
 62
     5
 63
     7
421
 16777215
 74
     0
 91
        4
 64
     7
 65
   257
 75
     1
175
     1
 42
1.0
 92
        0
 66
     7
 43
1.0
 76
     1
 77
     6
 78
     2
 67
     7
 79
     5
170
     0
171
     0
290
     0
174
     0
 93
       13
 44
0.0
173
     0
291
     1
 45
0.0
1001
ACAD
1000
AcDbSavedByObjectVersion
1070
     0
  0
VISUALSTYLE
  5
115
102
{ACAD_REACTORS
330
111
102
}
330
111
100
AcDbVisualStyle
  2
GouraudWithEdges
 70
     3
 71
     2
 72
     2
 73
     1
 90
        2
 40
-0.6
 41
30.0
 62
     5
 63
     7
421
 16777215
 74
     1
 91
        4
 64
     7
 65
   257
 75
     1
175
     1
 42
1.0
 92
        0
 66
   257
 43
1.0
 76
     1
 77
     6
 78
     2
 67
     7
 79
     5
170
     0
171
     0
290
     0
174
     0
 93
       13
 44
0.0
173
     0
291
     1
 45
0.0
1001
ACAD
1000
AcDbSavedByObjectVersion
1070
     0
  0
VISUALSTYLE
  5
11F
102
{ACAD_REACTORS
330
111
102
}
330
111
100
AcDbVisualStyle
  2
Linepattern
 70
    14
 71
     2
 72
     2
 73
     0
 90
        0
 40
-0.6
 41
-30.0
 62
     5
 63
     7
421
 16777215
 74
     1
 91
        4
 64
     7
 65
   257
 75
     7
175
     7
 42
1.0
 92
        8
 66
     7
 43
1.0
 76
     1
 77
     6
 78
     2
 67
     7
 79
     5
170
     0
171
     0
290
     0
174
     0
 93
        1
 44
0.0
173
     0
291
     1
 45
0.0
1001
ACAD
1000
AcDbSavedByObjectVersion
1070
     0
  0
VISUALSTYLE
  5
11B
102
{ACAD_REACTORS
330
111
102
}
330
111
100
AcDbVisualStyle
  2
Realistic
 70
     8
 71
     2
 72
     2
 73
     0
 90
        0
 40
-0.6
 41
-30.0
 62
     5
 63
     7
421
 16777215
 74
     1
 91
        0
 64
     7
 65
   257
 75
     1
175
     1
 42
1.0
 92
        8
 66
     8
424
  7895160
 43
1.0
 76
     1
 77
     6
 78
     2
 67
     7
 79
     5
170
     0
171
     0
290
     0
174
     0
 93
       13
 44
0.0
173
     0
291
     0
 45
0.0
1001
ACAD
1000
AcDbSavedByObjectVersion
1070
     0
  0
VISUALSTYLE
  5
11E
102
{ACAD_REACTORS
330
111
102
}
330
111
100
AcDbVisualStyle
  2
Thicken
 70
    13
 71
     2
 72
     2
 73
     0
 90
        0
 40
-0.6
 41
-30.0
 62
     5
 63
     7
421
 16777215
 74
     1
 91
        4
 64
     7
 65
   257
 75
     1
175
     1
 42
1.0
 92
       12
 66
     7
 43
1.0
 76
     1
 77
     6
 78
     2
 67
     7
 79
     5
170
     0
171
     0
290
     0
174
     0
 93
        1
 44
0.0
173
     0
291
     1
 45
0.0
1001
ACAD
1000
AcDbSavedByObjectVersion
1070
     0
  0
DICTIONARYVAR
  5
197
102
{ACAD_REACTORS
330
131
102
}
330
131
100
DictionaryVariables
280
     0
  1
1:1
  0
DICTIONARYVAR
  5
196
102
{ACAD_REACTORS
330
131
102
}
330
131
100
DictionaryVariables
280
     0
  1
STANDARD
  0
DICTIONARYVAR
  5
132
102
{ACAD_REACTORS
330
131
102
}
330
131
100
DictionaryVariables
280
     0
  1
STANDARD
  0
XRECORD
  5
130
102
{ACAD_REACTORS
330
12E
102
}
330
12E
100
AcDbXrecord
280
     1
  0
DICTIONARY
  5
19D
330
10F
100
AcDbDictionary
280
     1
281
     1
  3
ACAD_XREC_ROUNDTRIP
360
19E
  0
DICTIONARY
  5
19B
330
10E
100
AcDbDictionary
280
     1
281
     1
  3
ACAD_XREC_ROUNDTRIP
360
19C
  0
DICTIONARY
  5
19F
330
110
100
AcDbDictionary
280
     1
281
     1
  3
ACAD_XREC_ROUNDTRIP
360
1A0
  0
DICTIONARY
  5
198
330
124
100
AcDbDictionary
280
     1
281
     1
  3
ACAD_ROUNDTRIP_2008_TABLESTYLE_CELLSTYLEMAP
360
199
  3
ACAD_XREC_ROUNDTRIP
360
1A1
  0
XRECORD
  5
19E
102
{ACAD_REACTORS
330
19D
102
}
330
19D
100
AcDbXrecord
280
     1
102
MATERIAL
148
0.0
149
0.0
149
0.0
 93
        0
 94
       63
282
     0
 72
     1
 77
     1
171
     1
175
     1
179
     1
273
     0
  0
XRECORD
  5
19C
102
{ACAD_REACTORS
330
19B
102
}
330
19B
100
AcDbXrecord
280
     1
102
MATERIAL
148
0.0
149
0.0
149
0.0
 93
        0
 94
       63
282
     0
 72
     1
 77
     1
171
     1
175
     1
179
     1
273
     0
  0
XRECORD
  5
1A0
102
{ACAD_REACTORS
330
19F
102
}
330
19F
100
AcDbXrecord
280
     1
102
MATERIAL
148
0.0
149
0.0
149
0.0
 93
        0
 94
       63
282
     0
 72
     1
 77
     1
171
     1
175
     1
179
     1
273
     0
  0
CELLSTYLEMAP
  5
199
102
{ACAD_REACTORS
330
198
102
}
330
198
100
AcDbCellStyleMap
 90
        3
300
CELLSTYLE
  1
TABLEFORMAT_BEGIN
 90
        5
170
     1
 91
        0
 92
    32768
 62
   257
 93
        1
300
CONTENTFORMAT
  1
CONTENTFORMAT_BEGIN
 90
        0
 91
        0
 92
      512
 93
        0
300

 40
0.0
140
1.0
 94
        5
 62
     0
340
17
144
0.25
309
CONTENTFORMAT_END
171
     0
 94
        6
 95
        1
302
GRIDFORMAT
  1
GRIDFORMAT_BEGIN
 90
        0
 91
        1
 62
     0
 92
       -2
340
0
 93
        0
 40
0.045
309
GRIDFORMAT_END
 95
        2
302
GRIDFORMAT
  1
GRIDFORMAT_BEGIN
 90
        0
 91
        1
 62
     0
 92
       -2
340
0
 93
        0
 40
0.045
309
GRIDFORMAT_END
 95
        4
302
GRIDFORMAT
  1
GRIDFORMAT_BEGIN
 90
        0
 91
        1
 62
     0
 92
       -2
340
0
 93
        0
 40
0.045
309
GRIDFORMAT_END
 95
        8
302
GRIDFORMAT
  1
GRIDFORMAT_BEGIN
 90
        0
 91
        1
 62
     0
 92
       -2
340
0
 93
        0
 40
0.045
309
GRIDFORMAT_END
 95
       16
302
GRIDFORMAT
  1
GRIDFORMAT_BEGIN
 90
        0
 91
        1
 62
     0
 92
       -2
340
0
 93
        0
 40
0.045
309
GRIDFORMAT_END
 95
       32
302
GRIDFORMAT
  1
GRIDFORMAT_BEGIN
 90
        0
 91
        1
 62
     0
 92
       -2
340
0
 93
        0
 40
0.045
309
GRIDFORMAT_END
309
TABLEFORMAT_END
  1
CELLSTYLE_BEGIN
 90
        1
 91
        1
300
_TITLE
309
CELLSTYLE_END
300
CELLSTYLE
  1
TABLEFORMAT_BEGIN
 90
        5
170
     1
 91
        0
 92
        0
 62
   257
 93
        1
300
CONTENTFORMAT
  1
CONTENTFORMAT_BEGIN
 90
        0
 91
        0
 92
      512
 93
        0
300

 40
0.0
140
1.0
 94
        5
 62
     0
340
17
144
0.18
309
CONTENTFORMAT_END
171
     0
 94
        6
 95
        1
302
GRIDFORMAT
  1
GRIDFORMAT_BEGIN
 90
        0
 91
        1
 62
     0
 92
       -2
340
0
 93
        0
 40
0.045
309
GRIDFORMAT_END
 95
        2
302
GRIDFORMAT
  1
GRIDFORMAT_BEGIN
 90
        0
 91
        1
 62
     0
 92
       -2
340
0
 93
        0
 40
0.045
309
GRIDFORMAT_END
 95
        4
302
GRIDFORMAT
  1
GRIDFORMAT_BEGIN
 90
        0
 91
        1
 62
     0
 92
       -2
340
0
 93
        0
 40
0.045
309
GRIDFORMAT_END
 95
        8
302
GRIDFORMAT
  1
GRIDFORMAT_BEGIN
 90
        0
 91
        1
 62
     0
 92
       -2
340
0
 93
        0
 40
0.045
309
GRIDFORMAT_END
 95
       16
302
GRIDFORMAT
  1
GRIDFORMAT_BEGIN
 90
        0
 91
        1
 62
     0
 92
       -2
340
0
 93
        0
 40
0.045
309
GRIDFORMAT_END
 95
       32
302
GRIDFORMAT
  1
GRIDFORMAT_BEGIN
 90
        0
 91
        1
 62
     0
 92
       -2
340
0
 93
        0
 40
0.045
309
GRIDFORMAT_END
309
TABLEFORMAT_END
  1
CELLSTYLE_BEGIN
 90
        2
 91
        1
300
_HEADER
309
CELLSTYLE_END
300
CELLSTYLE
  1
TABLEFORMAT_BEGIN
 90
        5
170
     1
 91
        0
 92
        0
 62
   257
 93
        1
300
CONTENTFORMAT
  1
CONTENTFORMAT_BEGIN
 90
        0
 91
        0
 92
      512
 93
        0
300

 40
0.0
140
1.0
 94
        2
 62
     0
340
17
144
0.18
309
CONTENTFORMAT_END
171
     0
 94
        6
 95
        1
302
GRIDFORMAT
  1
GRIDFORMAT_BEGIN
 90
        0
 91
        1
 62
     0
 92
       -2
340
0
 93
        0
 40
0.045
309
GRIDFORMAT_END
 95
        2
302
GRIDFORMAT
  1
GRIDFORMAT_BEGIN
 90
        0
 91
        1
 62
     0
 92
       -2
340
0
 93
        0
 40
0.045
309
GRIDFORMAT_END
 95
        4
302
GRIDFORMAT
  1
GRIDFORMAT_BEGIN
 90
        0
 91
        1
 62
     0
 92
       -2
340
0
 93
        0
 40
0.045
309
GRIDFORMAT_END
 95
        8
302
GRIDFORMAT
  1
GRIDFORMAT_BEGIN
 90
        0
 91
        1
 62
     0
 92
       -2
340
0
 93
        0
 40
0.045
309
GRIDFORMAT_END
 95
       16
302
GRIDFORMAT
  1
GRIDFORMAT_BEGIN
 90
        0
 91
        1
 62
     0
 92
       -2
340
0
 93
        0
 40
0.045
309
GRIDFORMAT_END
 95
       32
302
GRIDFORMAT
  1
GRIDFORMAT_BEGIN
 90
        0
 91
        1
 62
     0
 92
       -2
340
0
 93
        0
 40
0.045
309
GRIDFORMAT_END
309
TABLEFORMAT_END
  1
CELLSTYLE_BEGIN
 90
        3
 91
        2
300
_DATA
309
CELLSTYLE_END
  0
XRECORD
  5
1A1
102
{ACAD_REACTORS
330
198
102
}
330
198
100
AcDbXrecord
280
     1
102
ACAD_ROUNDTRIP_PRE2007_TABLESTYLE
 90
      512
 91
        0
  1

 92
      512
 93
        0
  2

 94
      512
 95
        0
  3

  0
ENDSEC
  0
EOF
