  0
SECTION
  2
HEADER
  9
$ACADVER
  1
AC1018
  9
$ACADMAINTVER
 70
   104
  9
$DWGCODEPAGE
  3
ANSI_1252
  9
$LASTSAVEDBY
  1
EARL
  9
$INSBASE
 10
0.0
 20
0.0
 30
0.0
  9
$EXTMIN
 10
-6.497534275054931
 20
-2.501528620719909
 30
0.0
  9
$EXTMAX
 10
7.235868953352291
 20
1.230598700432351
 30
0.0
  9
$LIMMIN
 10
0.0
 20
0.0
  9
$LIMMAX
 10
0.0
 20
0.0
  9
$ORTHOMODE
 70
     1
  9
$REGENMODE
 70
     1
  9
$FILLMODE
 70
     1
  9
$QTEXTMODE
 70
     0
  9
$MIRRTEXT
 70
     1
  9
$LTSCALE
 40
1.0
  9
$ATTMODE
 70
     1
  9
$TEXTSIZE
 40
0.0
  9
$TRACEWID
 40
0.05
  9
$TEXTSTYLE
  7
Standard
  9
$CLAYER
  8
0
  9
$CELTYPE
  6
Continuous
  9
$CECOLOR
 62
   256
  9
$CELTSCALE
 40
1.0
  9
$DISPSILH
 70
     0
  9
$DIMSCALE
 40
1.0
  9
$DIMASZ
 40
0.18
  9
$DIMEXO
 40
0.0625
  9
$DIMDLI
 40
0.38
  9
$DIMRND
 40
0.0
  9
$DIMDLE
 40
0.0
  9
$DIMEXE
 40
0.18
  9
$DIMTP
 40
0.0
  9
$DIMTM
 40
0.0
  9
$DIMTXT
 40
0.18
  9
$DIMCEN
 40
0.09
  9
$DIMTSZ
 40
0.0
  9
$DIMTOL
 70
     0
  9
$DIMLIM
 70
     0
  9
$DIMTIH
 70
     1
  9
$DIMTOH
 70
     1
  9
$DIMSE1
 70
     0
  9
$DIMSE2
 70
     0
  9
$DIMTAD
 70
     0
  9
$DIMZIN
 70
     0
  9
$DIMBLK
  1

  9
$DIMASO
 70
     1
  9
$DIMSHO
 70
     1
  9
$DIMPOST
  1

  9
$DIMAPOST
  1

  9
$DIMALT
 70
     0
  9
$DIMALTD
 70
     2
  9
$DIMALTF
 40
25.4
  9
$DIMLFAC
 40
1.0
  9
$DIMTOFL
 70
     0
  9
$DIMTVP
 40
0.0
  9
$DIMTIX
 70
     0
  9
$DIMSOXD
 70
     0
  9
$DIMSAH
 70
     0
  9
$DIMBLK1
  1

  9
$DIMBLK2
  1

  9
$DIMSTYLE
  2
Standard
  9
$DIMCLRD
 70
     0
  9
$DIMCLRE
 70
     0
  9
$DIMCLRT
 70
     0
  9
$DIMTFAC
 40
1.0
  9
$DIMGAP
 40
0.09
  9
$DIMJUST
 70
     0
  9
$DIMSD1
 70
     0
  9
$DIMSD2
 70
     0
  9
$DIMTOLJ
 70
     1
  9
$DIMTZIN
 70
     0
  9
$DIMALTZ
 70
     0
  9
$DIMALTTZ
 70
     0
  9
$DIMUPT
 70
     0
  9
$DIMDEC
 70
     4
  9
$DIMTDEC
 70
     4
  9
$DIMALTU
 70
     2
  9
$DIMALTTD
 70
     2
  9
$DIMTXSTY
  7
Standard
  9
$DIMAUNIT
 70
     0
  9
$DIMADEC
 70
     0
  9
$DIMALTRND
 40
0.0
  9
$DIMAZIN
 70
     0
  9
$DIMDSEP
 70
    46
  9
$DIMATFIT
 70
     0
  9
$DIMFRAC
 70
     0
  9
$DIMLDRBLK
  1

  9
$DIMLUNIT
 70
     2
  9
$DIMLWD
 70
    -2
  9
$DIMLWE
 70
    -2
  9
$DIMTMOVE
 70
     0
  9
$LUNITS
 70
     2
  9
$LUPREC
 70
     4
  9
$SKETCHINC
 40
0.1
  9
$FILLETRAD
 40
0.0
  9
$AUNITS
 70
     0
  9
$AUPREC
 70
     0
  9
$MENU
  1
acad
  9
$ELEVATION
 40
0.0
  9
$PELEVATION
 40
0.0
  9
$THICKNESS
 40
0.0
  9
$LIMCHECK
 70
     0
  9
$CHAMFERA
 40
0.0
  9
$CHAMFERB
 40
0.0
  9
$CHAMFERC
 40
0.0
  9
$CHAMFERD
 40
0.0
  9
$SKPOLY
 70
     0
  9
$TDCREATE
 40
2454843.196018519
  9
$TDUCREATE
 40
2454843.362685185
  9
$TDUPDATE
 40
2455104.979791296
  9
$TDUUPDATE
 40
2455105.146457963
  9
$TDINDWG
 40
0.0009805208
  9
$TDUSRTIMER
 40
0.0009805208
  9
$USRTIMER
 70
     1
  9
$ANGBASE
 50
0.0
  9
$ANGDIR
 70
     0
  9
$PDMODE
 70
     0
  9
$PDSIZE
 40
0.0
  9
$PLINEWID
 40
0.0
  9
$SPLFRAME
 70
     0
  9
$SPLINETYPE
 70
     6
  9
$SPLINESEGS
 70
     8
  9
$HANDSEED
  5
142
  9
$SURFTAB1
 70
     6
  9
$SURFTAB2
 70
     6
  9
$SURFTYPE
 70
     6
  9
$SURFU
 70
     6
  9
$SURFV
 70
     6
  9
$UCSBASE
  2

  9
$UCSNAME
  2

  9
$UCSORG
 10
0.0
 20
0.0
 30
0.0
  9
$UCSXDIR
 10
1.0
 20
0.0
 30
0.0
  9
$UCSYDIR
 10
0.0
 20
1.0
 30
0.0
  9
$UCSORTHOREF
  2

  9
$UCSORTHOVIEW
 70
     0
  9
$UCSORGTOP
 10
0.0
 20
0.0
 30
0.0
  9
$UCSORGBOTTOM
 10
0.0
 20
0.0
 30
0.0
  9
$UCSORGLEFT
 10
0.0
 20
0.0
 30
0.0
  9
$UCSORGRIGHT
 10
0.0
 20
0.0
 30
0.0
  9
$UCSORGFRONT
 10
0.0
 20
0.0
 30
0.0
  9
$UCSORGBACK
 10
0.0
 20
0.0
 30
0.0
  9
$PUCSBASE
  2

  9
$PUCSNAME
  2

  9
$PUCSORG
 10
0.0
 20
0.0
 30
0.0
  9
$PUCSXDIR
 10
1.0
 20
0.0
 30
0.0
  9
$PUCSYDIR
 10
0.0
 20
1.0
 30
0.0
  9
$PUCSORTHOREF
  2

  9
$PUCSORTHOVIEW
 70
     0
  9
$PUCSORGTOP
 10
0.0
 20
0.0
 30
0.0
  9
$PUCSORGBOTTOM
 10
0.0
 20
0.0
 30
0.0
  9
$PUCSORGLEFT
 10
0.0
 20
0.0
 30
0.0
  9
$PUCSORGRIGHT
 10
0.0
 20
0.0
 30
0.0
  9
$PUCSORGFRONT
 10
0.0
 20
0.0
 30
0.0
  9
$PUCSORGBACK
 10
0.0
 20
0.0
 30
0.0
  9
$USERI1
 70
     0
  9
$USERI2
 70
     0
  9
$USERI3
 70
     0
  9
$USERI4
 70
     0
  9
$USERI5
 70
     0
  9
$USERR1
 40
0.0
  9
$USERR2
 40
0.0
  9
$USERR3
 40
0.0
  9
$USERR4
 40
0.0
  9
$USERR5
 40
0.0
  9
$WORLDVIEW
 70
     1
  9
$SHADEDGE
 70
     3
  9
$SHADEDIF
 70
    70
  9
$TILEMODE
 70
     0
  9
$MAXACTVP
 70
    16
  9
$PINSBASE
 10
0.0
 20
0.0
 30
0.0
  9
$PLIMCHECK
 70
     0
  9
$PEXTMIN
 10
-0.0909266185249429
 20
-0.0960387923252242
 30
-0.0015258207003583
  9
$PEXTMAX
 10
10.39445523190006
 20
7.99851969418907
 30
0.0000000349246037
  9
$PLIMMIN
 10
-0.3306119115190196
 20
-0.2812499079328949
  9
$PLIMMAX
 10
10.66938784818509
 20
8.218749851771214
  9
$UNITMODE
 70
     0
  9
$VISRETAIN
 70
     0
  9
$PLINEGEN
 70
     1
  9
$PSLTSCALE
 70
     0
  9
$TREEDEPTH
 70
  3020
  9
$CMLSTYLE
  2
Standard
  9
$CMLJUST
 70
     0
  9
$CMLSCALE
 40
1.0
  9
$PROXYGRAPHICS
 70
     0
  9
$MEASUREMENT
 70
     0
  9
$CELWEIGHT
370
     0
  9
$ENDCAPS
280
     0
  9
$JOINSTYLE
280
     0
  9
$LWDISPLAY
290
     0
  9
$INSUNITS
 70
     0
  9
$HYPERLINKBASE
  1

  9
$STYLESHEET
  1

  9
$XEDIT
290
     1
  9
$CEPSNTYPE
380
     0
  9
$PSTYLEMODE
290
     1
  9
$FINGERPRINTGUID
  2

  9
$VERSIONGUID
  2
{D4BB6429-7C52-4C0D-B0DE-8042CD6ED1C5}
  9
$EXTNAMES
290
     1
  9
$PSVPSCALE
 40
0.0
  9
$OLESTARTUP
290
     0
  9
$SORTENTS
280
   127
  9
$INDEXCTL
280
     0
  9
$HIDETEXT
280
     0
  9
$XCLIPFRAME
290
     0
  9
$HALOGAP
280
     0
  9
$OBSCOLOR
 70
   257
  9
$OBSLTYPE
280
     0
  9
$INTERSECTIONDISPLAY
280
     0
  9
$INTERSECTIONCOLOR
 70
   257
  9
$DIMASSOC
280
     1
  9
$PROJECTNAME
  1

  0
ENDSEC
  0
SECTION
  2
CLASSES
  0
CLASS
  1
IMAGE
  2
AcDbRasterImage
  3
ISM
 90
     2175
 91
        0
280
     0
281
     1
  0
CLASS
  1
DICTIONARYVAR
  2
AcDbDictionaryVar
  3
ObjectDBX Classes
 90
        0
 91
        5
280
     0
281
     0
  0
CLASS
  1
RASTERVARIABLES
  2
AcDbRasterVariables
  3
ISM
 90
        0
 91
        0
280
     0
281
     0
  0
CLASS
  1
IMAGEDEF
  2
AcDbRasterImageDef
  3
ISM
 90
        0
 91
        0
280
     0
281
     0
  0
CLASS
  1
IMAGEDEF_REACTOR
  2
AcDbRasterImageDefReactor
  3
ISM
 90
        1
 91
        0
280
     0
281
     0
  0
CLASS
  1
IDBUFFER
  2
AcDbIdBuffer
  3
ObjectDBX Classes
 90
        0
 91
        0
280
     0
281
     0
  0
CLASS
  1
SPATIAL_FILTER
  2
AcDbSpatialFilter
  3
ObjectDBX Classes
 90
        0
 91
        0
280
     0
281
     0
  0
CLASS
  1
SORTENTSTABLE
  2
AcDbSortentsTable
  3
ObjectDBX Classes
 90
        0
 91
        1
280
     0
281
     0
  0
CLASS
  1
LAYER_INDEX
  2
AcDbLayerIndex
  3
ObjectDBX Classes
 90
        0
 91
        0
280
     0
281
     0
  0
CLASS
  1
SPATIAL_INDEX
  2
AcDbSpatialIndex
  3
ObjectDBX Classes
 90
        0
 91
        0
280
     0
281
     0
  0
CLASS
  1
OBJECT_PTR
  2
CAseDLPNTableRecord
  3
ASE-LPNTableRecord
 90
        1
 91
        0
280
     0
281
     0
  0
CLASS
  1
PLOTSETTINGS
  2
AcDbPlotSettings
  3
ObjectDBX Classes
 90
        0
 91
        0
280
     0
281
     0
  0
CLASS
  1
ACDBDICTIONARYWDFLT
  2
AcDbDictionaryWithDefault
  3
ObjectDBX Classes
 90
        0
 91
        1
280
     0
281
     0
  0
CLASS
  1
WIPEOUT
  2
AcDbWipeout
  3
"WipeOut|Product Desc: Object Enabler for WipeOut entity                        |Company: Autodesk, Inc.                        |WEB Address: www.autodesk.com"
 90
     2175
 91
        0
280
     0
281
     1
  0
CLASS
  1
WIPEOUTVARIABLES
  2
AcDbWipeoutVariables
  3
"WipeOut|Product Desc:     WipeOut Dbx Application|Company:          Autodesk, Inc.|WEB Address:      www.autodesk.com"
 90
        0
 91
        1
280
     0
281
     0
  0
CLASS
  1
RTEXT
  2
RText
  3
RText|AutoCAD Express Tool|expresstools@autodesk.com
 90
     3071
 91
        0
280
     0
281
     1
  0
CLASS
  1
ARCALIGNEDTEXT
  2
AcDbArcAlignedText
  3
ATEXT|AutoCAD Express Tool|expresstools@autodesk.com
 90
        0
 91
        0
280
     0
281
     1
  0
CLASS
  1
MATERIAL
  2
AcDbMaterial
  3
ObjectDBX Classes
 90
     1153
 91
        3
280
     0
281
     0
  0
CLASS
  1
VISUALSTYLE
  2
AcDbVisualStyle
  3
ObjectDBX Classes
 90
     4095
 91
       16
280
     0
281
     0
  0
CLASS
  1
TABLESTYLE
  2
AcDbTableStyle
  3
ObjectDBX Classes
 90
     4095
 91
        1
280
     0
281
     0
  0
CLASS
  1
SCALE
  2
AcDbScale
  3
ObjectDBX Classes
 90
     1153
 91
       33
280
     0
281
     0
  0
CLASS
  1
MLEADERSTYLE
  2
AcDbMLeaderStyle
  3
ACDB_MLEADERSTYLE_CLASS
 90
     4095
 91
        1
280
     0
281
     0
  0
CLASS
  1
CELLSTYLEMAP
  2
AcDbCellStyleMap
  3
ObjectDBX Classes
 90
     1152
 91
        2
280
     0
281
     0
  0
ENDSEC
  0
SECTION
  2
TABLES
  0
TABLE
  2
VPORT
  5
7
330
0
100
AcDbSymbolTable
 70
     1
  0
VPORT
  5
15
330
7
100
AcDbSymbolTableRecord
100
AcDbViewportTableRecord
  2
*ACTIVE
 70
     0
 10
0.0
 20
0.0
 11
1.0
 21
1.0
 12
13.89621157632295
 22
4.579183999999999
 13
0.0
 23
0.0
 14
1.0
 24
1.0
 15
0.0
 25
0.0
 16
0.0
 26
0.0
 36
1.0
 17
0.0
 27
0.0
 37
0.0
 40
9.158369
 41
2.283809523809523
 42
50.0
 43
0.0
 44
0.0
 50
0.0
 51
0.0
 71
     0
 72
   100
 73
     1
 74
     1
 75
     0
 76
     0
 77
     0
 78
     0
281
     0
 65
     0
110
0.0
120
0.0
130
0.0
111
1.0
121
0.0
131
0.0
112
0.0
122
1.0
132
0.0
 79
     0
146
0.0
  0
ENDTAB
  0
TABLE
  2
LTYPE
  5
4
330
0
100
AcDbSymbolTable
 70
     5
  0
LTYPE
  5
11
330
4
100
AcDbSymbolTableRecord
100
AcDbLinetypeTableRecord
  2
ByBlock
 70
     0
  3

 72
    65
 73
     0
 40
0.0
  0
LTYPE
  5
12
330
4
100
AcDbSymbolTableRecord
100
AcDbLinetypeTableRecord
  2
ByLayer
 70
     0
  3

 72
    65
 73
     0
 40
0.0
  0
LTYPE
  5
13
330
4
100
AcDbSymbolTableRecord
100
AcDbLinetypeTableRecord
  2
Continuous
 70
     0
  3
Solid line
 72
    65
 73
     0
 40
0.0
  0
LTYPE
  5
24
330
4
100
AcDbSymbolTableRecord
100
AcDbLinetypeTableRecord
  2
solid
 70
     0
  3

 72
    65
 73
     0
 40
0.0
  0
LTYPE
  5
25
330
4
100
AcDbSymbolTableRecord
100
AcDbLinetypeTableRecord
  2
dashed
 70
     0
  3

 72
    65
 73
     0
 40
0.0
  0
LTYPE
  5
26
330
4
100
AcDbSymbolTableRecord
100
AcDbLinetypeTableRecord
  2
center
 70
     0
  3

 72
    65
 73
     0
 40
0.0
  0
ENDTAB
  0
TABLE
  2
LAYER
  5
2
330
0
100
AcDbSymbolTable
 70
     2
  0
LAYER
  5
14
102
{ACAD_XDICTIONARY
360
FE
102
}
330
2
100
AcDbSymbolTableRecord
100
AcDbLayerTableRecord
  2
0
 70
     0
 62
     7
  6
Continuous
370
    -3
390
1D
  0
LAYER
  5
27
102
{ACAD_XDICTIONARY
360
100
102
}
330
2
100
AcDbSymbolTableRecord
100
AcDbLayerTableRecord
  2
0
 70
     0
 62
     1
  6
solid
370
    -3
390
1D
  0
ENDTAB
  0
TABLE
  2
STYLE
  5
3
330
0
100
AcDbSymbolTable
 70
     2
  0
STYLE
  5
17
330
3
100
AcDbSymbolTableRecord
100
AcDbTextStyleTableRecord
  2
Standard
 70
     0
 40
0.0
 41
1.0
 50
0.0
 71
     0
 42
0.0
  3
txt
  4

  0
ENDTAB
  0
TABLE
  2
VIEW
  5
5
330
0
100
AcDbSymbolTable
 70
     0
  0
ENDTAB
  0
TABLE
  2
UCS
  5
6
330
0
100
AcDbSymbolTable
 70
     0
  0
ENDTAB
  0
TABLE
  2
APPID
  5
8
330
0
100
AcDbSymbolTable
 70
     5
  0
APPID
  5
16
330
8
100
AcDbSymbolTableRecord
100
AcDbRegAppTableRecord
  2
ACAD
 70
     0
  0
APPID
  5
C9
330
8
100
AcDbSymbolTableRecord
100
AcDbRegAppTableRecord
  2
ACAD_PSEXT
 70
     0
  0
APPID
  5
CE
330
8
100
AcDbSymbolTableRecord
100
AcDbRegAppTableRecord
  2
DCO15
 70
     0
  0
APPID
  5
F7
330
8
100
AcDbSymbolTableRecord
100
AcDbRegAppTableRecord
  2
ACAD_MLEADERVER
 70
     0
  0
APPID
  5
11B
330
8
100
AcDbSymbolTableRecord
100
AcDbRegAppTableRecord
  2
ACAD_EXEMPT_FROM_CAD_STANDARDS
 70
     0
  0
ENDTAB
  0
TABLE
  2
DIMSTYLE
  5
9
330
0
100
AcDbSymbolTable
 70
     3
100
AcDbDimStyleTable
 71
     1
340
18
  0
DIMSTYLE
105
18
330
9
100
AcDbSymbolTableRecord
100
AcDbDimStyleTableRecord
  2
Standard
 70
     0
289
     0
340
17
  0
ENDTAB
  0
TABLE
  2
BLOCK_RECORD
  5
1
330
0
100
AcDbSymbolTable
 70
     4
  0
BLOCK_RECORD
  5
A
102
{ACAD_XDICTIONARY
360
111
102
}
330
1
100
AcDbSymbolTableRecord
100
AcDbBlockTableRecord
  2
*MODEL_SPACE
340
20
  0
BLOCK_RECORD
  5
B
330
1
100
AcDbSymbolTableRecord
100
AcDbBlockTableRecord
  2
*PAPER_SPACE
340
21
  0
BLOCK_RECORD
  5
2B
330
1
100
AcDbSymbolTableRecord
100
AcDbBlockTableRecord
  2
*D0
340
0
  0
BLOCK_RECORD
  5
48
330
1
100
AcDbSymbolTableRecord
100
AcDbBlockTableRecord
  2
*D1
340
0
  0
ENDTAB
  0
ENDSEC
  0
SECTION
  2
BLOCKS
  0
BLOCK
  5
D
330
A
100
AcDbEntity
  8
0
100
AcDbBlockBegin
  2
*MODEL_SPACE
 70
     0
 10
0.0
 20
0.0
 30
0.0
  3
*MODEL_SPACE
  1

  0
ENDBLK
  5
E
330
A
100
AcDbEntity
  8
0
100
AcDbBlockEnd
  0
BLOCK
  5
F
330
B
100
AcDbEntity
 67
     1
  8
0
100
AcDbBlockBegin
  2
*PAPER_SPACE
 70
     0
 10
0.0
 20
0.0
 30
0.0
  3
*PAPER_SPACE
  1

  0
ENDBLK
  5
10
330
B
100
AcDbEntity
 67
     1
  8
0
100
AcDbBlockEnd
  0
BLOCK
  5
2C
330
2B
100
AcDbEntity
  8
0
  6
solid
 62
     7
100
AcDbBlockBegin
  2
*D0
 70
     0
 10
0.0
 20
0.0
 30
0.0
  3
*D0
  1

  0
LINE
  5
2D
330
2B
100
AcDbEntity
  8
0
  6
solid
 62
     7
100
AcDbLine
 10
0.6274657249450684
 20
-0.0015285880072063
 30
0.0
 11
0.6274657249450684
 21
-0.0015285880072063
 31
0.0
  0
LINE
  5
2E
330
2B
100
AcDbEntity
  8
0
  6
solid
 62
     7
100
AcDbLine
 10
-1.497534275054931
 20
1.060971379280088
 30
0.0
 11
1.020483634836004
 21
1.060971379280086
 31
0.0
  0
LINE
  5
2F
330
2B
100
AcDbEntity
  8
0
  6
solid
 62
     7
100
AcDbLine
 10
-0.479516365163996
 20
-0.0015285880072056
 30
0.0
 11
-0.4795163651639957
 21
0.4098169485210571
 31
0.0
  0
LINE
  5
30
330
2B
100
AcDbEntity
  8
0
  6
solid
 62
     7
100
AcDbLine
 10
-0.4795163651639952
 20
1.060971379280087
 30
0.0
 11
-0.4795163651639954
 21
0.6496258427518265
 31
0.0
  0
MTEXT
  5
31
330
2B
100
AcDbEntity
  8
0
  6
solid
 62
     7
100
AcDbMText
 10
-0.4795163651639955
 20
0.5297213956364418
 30
0.0
 40
0.09375
 41
0.0
 71
     5
 72
     1
  1
{\H0.093750;1 1/16}
 73
     1
 44
1.0
  0
SOLID
  5
32
330
2B
100
AcDbEntity
  8
0
  6
solid
 62
     7
100
AcDbTrace
 10
-0.5107663651639959
 20
0.0609714119927945
 30
0.0
 11
-0.4482663651639959
 21
0.0609714119927944
 31
0.0
 12
-0.479516365163996
 22
-0.0015285880072056
 32
0.0
 13
-0.479516365163996
 23
-0.0015285880072056
 33
0.0
  0
SOLID
  5
33
330
2B
100
AcDbEntity
  8
0
  6
solid
 62
     7
100
AcDbTrace
 10
-0.4482663651639953
 20
0.9984713792800874
 30
0.0
 11
-0.5107663651639953
 21
0.9984713792800874
 31
0.0
 12
-0.4795163651639952
 22
1.060971379280087
 32
0.0
 13
-0.4795163651639952
 23
1.060971379280087
 33
0.0
  0
ENDBLK
  5
34
330
2B
100
AcDbEntity
  8
0
  6
solid
 62
     7
100
AcDbBlockEnd
  0
BLOCK
  5
49
330
48
100
AcDbEntity
  8
0
  6
solid
 62
     7
100
AcDbBlockBegin
  2
*D1
 70
     0
 10
0.0
 20
0.0
 30
0.0
  3
*D1
  1

  0
LINE
  5
4A
330
48
100
AcDbEntity
  8
0
  6
solid
 62
     7
100
AcDbLine
 10
-6.497534275054931
 20
-2.501528620719909
 30
0.0
 11
-6.497534275054931
 21
-2.501528620719909
 31
0.0
  0
LINE
  5
4B
330
48
100
AcDbEntity
  8
0
  6
solid
 62
     7
100
AcDbLine
 10
-0.9975342154502868
 20
-2.470278561115264
 30
0.0
 11
-0.9975342154502868
 21
-2.470278561115264
 31
0.0
  0
LINE
  5
4C
330
48
100
AcDbEntity
  8
0
  6
solid
 62
     7
100
AcDbLine
 10
-6.497534275054931
 20
-0.3474703535369668
 30
0.0
 11
-3.92467762760555
 21
-0.3474703535369668
 31
0.0
  0
LINE
  5
4D
330
48
100
AcDbEntity
  8
0
  6
solid
 62
     7
100
AcDbLine
 10
-0.9975342154502868
 20
-0.3474703535369668
 30
0.0
 11
-3.570390862899668
 21
-0.3474703535369668
 31
0.0
  0
MTEXT
  5
4E
330
48
100
AcDbEntity
  8
0
  6
solid
 62
     7
100
AcDbMText
 10
-3.747534245252609
 20
-0.3474703535369668
 30
0.0
 40
0.09375
 41
0.0
 71
     5
 72
     1
  1
{\H0.093750;5 1/2}
 73
     1
 44
1.0
  0
SOLID
  5
4F
330
48
100
AcDbEntity
  8
0
  6
solid
 62
     7
100
AcDbTrace
 10
-6.435034275054931
 20
-0.3162203535369668
 30
0.0
 11
-6.435034275054931
 21
-0.3787203535369668
 31
0.0
 12
-6.497534275054931
 22
-0.3474703535369668
 32
0.0
 13
-6.497534275054931
 23
-0.3474703535369668
 33
0.0
  0
SOLID
  5
50
330
48
100
AcDbEntity
  8
0
  6
solid
 62
     7
100
AcDbTrace
 10
-1.060034215450286
 20
-0.3787203535369668
 30
0.0
 11
-1.060034215450286
 21
-0.3162203535369668
 31
0.0
 12
-0.9975342154502868
 22
-0.3474703535369668
 32
0.0
 13
-0.9975342154502868
 23
-0.3474703535369668
 33
0.0
  0
ENDBLK
  5
51
330
48
100
AcDbEntity
  8
0
  6
solid
 62
     7
100
AcDbBlockEnd
  0
ENDSEC
  0
SECTION
  2
ENTITIES
  0
ARC
  5
28
330
A
100
AcDbEntity
  8
0
  6
solid
 62
     7
100
AcDbCircle
 10
-1.528784190428977
 20
0.5297214259145359
 30
0.0
 40
0.53125
100
AcDbArc
 50
269.9999999999999
 51
450.0
  0
LINE
  5
29
330
A
100
AcDbEntity
  8
0
  6
solid
 62
     7
100
AcDbLine
 10
-1.528784190428977
 20
-0.0015285740854641
 30
0.0
 11
-2.372534190428977
 21
-0.0015285740854641
 31
0.0
  0
LINE
  5
2A
330
A
100
AcDbEntity
  8
0
  6
solid
 62
     7
100
AcDbLine
 10
-2.372534199041741
 20
-0.0015285879956173
 30
0.0
 11
-2.372534199041741
 21
0.4984714120043828
 31
0.0
  0
ARC
  5
36
330
A
100
AcDbEntity
  8
0
  6
solid
 62
     7
100
AcDbCircle
 10
5.876183410887092
 20
0.5312500139101532
 30
0.0
 40
0.53125
100
AcDbArc
 50
269.9999999999999
 51
89.99999999999998
  0
LINE
  5
37
330
A
100
AcDbEntity
  8
0
  6
solid
 62
     7
100
AcDbLine
 10
5.876183410887092
 20
0.0000000139101531
 30
0.0
 11
5.032433410887092
 21
0.0000000139101531
 31
0.0
  0
LINE
  5
38
330
A
100
AcDbEntity
  8
0
  6
solid
 62
     7
100
AcDbLine
 10
5.032433402274328
 20
0.0
 30
0.0
 11
5.032433402274328
 21
0.5
 31
0.0
  0
ARC
  5
39
330
A
100
AcDbEntity
  8
0
  6
solid
 62
     7
100
AcDbCircle
 10
6.956831322390916
 20
0.3808710977600059
 30
0.0
 40
0.125
100
AcDbArc
 50
283.1517682242865
 51
308.3768034950696
  0
ARC
  5
3A
330
A
100
AcDbEntity
  8
0
  6
solid
 62
     7
100
AcDbCircle
 10
6.956831322390916
 20
0.3808710977600063
 30
0.0
 40
0.125
100
AcDbArc
 50
283.1517682242864
 51
308.3768034950699
  0
ARC
  5
3B
330
A
100
AcDbEntity
  8
0
  6
solid
 62
     7
100
AcDbCircle
 10
6.956831322390916
 20
0.3808710977600063
 30
0.0
 40
0.125
100
AcDbArc
 50
283.1517682242864
 51
308.3768034950699
  0
ARC
  5
3C
330
A
100
AcDbEntity
  8
0
  6
solid
 62
     7
100
AcDbCircle
 10
6.704618953352291
 20
0.6993487004323514
 30
0.0
 40
0.53125
100
AcDbArc
 50
308.3768034950698
 51
89.99999999999998
  0
ARC
  5
3D
330
A
100
AcDbEntity
  8
0
  6
solid
 62
     7
100
AcDbCircle
 10
6.956831322390916
 20
0.3808710977600062
 30
0.0
 40
0.125
100
AcDbArc
 50
283.1517682242864
 51
308.3768034950699
  0
LINE
  5
3E
330
A
100
AcDbEntity
  8
0
  6
solid
 62
     7
100
AcDbLine
 10
6.111594330859114
 20
0.0550061044919582
 30
0.0
 11
6.985272725812817
 21
0.2591497497088419
 31
0.0
  0
POINT
  5
3F
330
A
100
AcDbEntity
  8
0
  6
solid
 62
     7
100
AcDbPoint
 10
4.907433402274328
 20
0.0
 30
0.0
  0
LINE
  5
40
330
A
100
AcDbEntity
  8
0
  6
solid
 62
     7
100
AcDbLine
 10
5.876183410887092
 20
1.0625000139
 30
0.0
 11
0.9074334022743286
 21
1.0625000139
 31
0.0
  0
LINE
  5
41
330
A
100
AcDbEntity
  8
0
  6
solid
 62
     7
100
AcDbLine
 10
0.9074334022743286
 20
1.0625
 30
0.0
 11
1.735868942473608
 21
1.23059868812561
 31
0.0
  0
LINE
  5
42
330
A
100
AcDbEntity
  8
0
  6
solid
 62
     7
100
AcDbLine
 10
1.735868942473608
 20
1.23059868812561
 30
0.0
 11
6.704618823264318
 21
1.23059868812561
 31
0.0
  0
LINE
  5
43
330
A
100
AcDbEntity
  8
0
  6
solid
 62
     7
100
AcDbLine
 10
5.032433402274328
 20
0.5
 30
0.0
 11
0.9074334022743286
 21
0.5
 31
0.0
  0
LINE
  5
44
330
A
100
AcDbEntity
  8
0
  6
solid
 62
     7
100
AcDbLine
 10
0.9074334022743286
 20
0.5
 30
0.0
 11
0.9074334022743286
 21
1.0625
 31
0.0
  0
LINE
  5
45
330
A
100
AcDbEntity
  8
0
  6
solid
 62
     7
100
AcDbLine
 10
-1.528784147232878
 20
1.06097139318009
 30
0.0
 11
-6.497534155845642
 21
1.06097139318009
 31
0.0
  0
LINE
  5
46
330
A
100
AcDbEntity
  8
0
  6
solid
 62
     7
100
AcDbLine
 10
-2.372534155845642
 20
0.4984713792800904
 30
0.0
 11
-6.497534155845642
 21
0.4984713792800904
 31
0.0
  0
LINE
  5
47
330
A
100
AcDbEntity
  8
0
  6
solid
 62
     7
100
AcDbLine
 10
-6.497534155845642
 20
0.4984713792800904
 30
0.0
 11
-6.497534155845642
 21
1.06097137928009
 31
0.0
  0
LINE
  5
53
330
A
100
AcDbEntity
  8
0
  6
solid
 62
     7
100
AcDbLine
 10
1.899349750083426
 20
0.7035685722831974
 30
0.0
 11
1.899349750083426
 21
0.8285685722831972
 31
0.0
  0
LINE
  5
54
330
A
100
AcDbEntity
  8
0
  6
solid
 62
     7
100
AcDbLine
 10
1.899349750083426
 20
0.8285685722831972
 30
0.0
 11
1.922900474721107
 21
0.8285685722831972
 31
0.0
  0
LINE
  5
55
330
A
100
AcDbEntity
  8
0
  6
solid
 62
     7
100
AcDbLine
 10
1.922900474721107
 20
0.8285685722831972
 30
0.0
 11
1.922900474721107
 21
0.7253077027179799
 31
0.0
  0
LINE
  5
56
330
A
100
AcDbEntity
  8
0
  6
solid
 62
     7
100
AcDbLine
 10
1.922900474721107
 20
0.7253077027179799
 30
0.0
 11
1.988117866025455
 21
0.7253077027179799
 31
0.0
  0
LINE
  5
57
330
A
100
AcDbEntity
  8
0
  6
solid
 62
     7
100
AcDbLine
 10
1.988117866025455
 20
0.7253077027179799
 30
0.0
 11
1.988117866025455
 21
0.7035685722831974
 31
0.0
  0
LINE
  5
58
330
A
100
AcDbEntity
  8
0
  6
solid
 62
     7
100
AcDbLine
 10
1.899349750083426
 20
0.7035685722831974
 30
0.0
 11
1.988117866025455
 21
0.7035685722831974
 31
0.0
  0
LINE
  5
59
330
A
100
AcDbEntity
  8
0
  6
solid
 62
     7
100
AcDbLine
 10
2.000437866025455
 20
0.8285685722831972
 30
0.0
 11
2.0463584457356
 21
0.8285685722831972
 31
0.0
  0
SPLINE
  5
5A
330
A
100
AcDbEntity
  8
0
  6
solid
 62
     7
100
AcDbSpline
210
0.0
220
0.0
230
1.0
 70
     8
 71
     2
 72
     6
 73
     3
 74
     0
 42
0.0000000001
 43
0.0000000001
 40
0.0
 40
0.0
 40
0.0
 40
1.0
 40
1.0
 40
1.0
 10
2.0463584457356
 20
0.8285685722831972
 30
0.0
 10
2.062236126895021
 20
0.8285685722831972
 30
0.0
 10
2.070113228344296
 20
0.8257616157614581
 30
0.0
  0
SPLINE
  5
5B
330
A
100
AcDbEntity
  8
0
  6
solid
 62
     7
100
AcDbSpline
210
0.0
220
0.0
230
1.0
 70
     8
 71
     2
 72
     8
 73
     5
 74
     0
 42
0.0000000001
 43
0.0000000001
 40
0.0
 40
0.0
 40
0.0
 40
1.0
 40
2.0
 40
3.0
 40
3.0
 40
3.0
 10
2.070113228344296
 20
0.8257616157614581
 30
0.0
 10
2.081075547184875
 20
0.8223795867759509
 30
0.0
 10
2.097008880518209
 20
0.8059268331527626
 30
0.0
 10
2.105510329793571
 20
0.7820978476455162
 30
0.0
 10
2.105510329793571
 20
0.7643529201092844
 30
0.0
  0
SPLINE
  5
5C
330
A
100
AcDbEntity
  8
0
  6
solid
 62
     7
100
AcDbSpline
210
0.0
220
0.0
230
1.0
 70
     8
 71
     2
 72
     6
 73
     3
 74
     0
 42
0.0000000001
 43
0.0000000001
 40
0.0
 40
0.0
 40
0.0
 40
1.0
 40
1.0
 40
1.0
 10
2.105510329793571
 20
0.7643529201092844
 30
0.0
 10
2.105510329793571
 20
0.7492479925730525
 30
0.0
 10
2.101114387764586
 20
0.7381743693846467
 30
0.0
  0
SPLINE
  5
5D
330
A
100
AcDbEntity
  8
0
  6
solid
 62
     7
100
AcDbSpline
210
0.0
220
0.0
230
1.0
 70
     8
 71
     2
 72
     6
 73
     3
 74
     0
 42
0.0000000001
 43
0.0000000001
 40
0.0
 40
0.0
 40
0.0
 40
1.0
 40
1.0
 40
1.0
 10
2.101114387764586
 20
0.7381743693846467
 30
0.0
 10
2.096786271822557
 20
0.7242381375005886
 30
0.0
 10
2.087950909503716
 20
0.7155882824281249
 30
0.0
  0
SPLINE
  5
5E
330
A
100
AcDbEntity
  8
0
  6
solid
 62
     7
100
AcDbSpline
210
0.0
220
0.0
230
1.0
 70
     8
 71
     2
 72
     6
 73
     3
 74
     0
 42
0.0000000001
 43
0.0000000001
 40
0.0
 40
0.0
 40
0.0
 40
1.0
 40
1.0
 40
1.0
 10
2.087950909503716
 20
0.7155882824281249
 30
0.0
 10
2.081131199358789
 20
0.7095227751817481
 30
0.0
 10
2.070057576170383
 20
0.7059181375005887
 30
0.0
  0
SPLINE
  5
5F
330
A
100
AcDbEntity
  8
0
  6
solid
 62
     7
100
AcDbSpline
210
0.0
220
0.0
230
1.0
 70
     8
 71
     2
 72
     6
 73
     3
 74
     0
 42
0.0000000001
 43
0.0000000001
 40
0.0
 40
0.0
 40
0.0
 40
1.0
 40
1.0
 40
1.0
 10
2.070057576170383
 20
0.7059181375005887
 30
0.0
 10
2.062069170373281
 20
0.7035685722831974
 30
0.0
 10
2.047873228344296
 20
0.7035685722831974
 30
0.0
  0
LINE
  5
60
330
A
100
AcDbEntity
  8
0
  6
solid
 62
     7
100
AcDbLine
 10
2.047873228344296
 20
0.7035685722831974
 30
0.0
 11
2.000437866025455
 21
0.7035685722831974
 31
0.0
  0
LINE
  5
61
330
A
100
AcDbEntity
  8
0
  6
solid
 62
     7
100
AcDbLine
 10
2.000437866025455
 20
0.8285685722831972
 30
0.0
 11
2.000437866025455
 21
0.7035685722831974
 31
0.0
  0
LINE
  5
62
330
A
100
AcDbEntity
  8
0
  6
solid
 62
     7
100
AcDbLine
 10
2.023988590663136
 20
0.8068294418484146
 30
0.0
 11
2.023988590663136
 21
0.7253077027179799
 31
0.0
  0
LINE
  5
63
330
A
100
AcDbEntity
  8
0
  6
solid
 62
     7
100
AcDbLine
 10
2.023988590663136
 20
0.7253077027179799
 30
0.0
 11
2.044250039938499
 21
0.7253077027179799
 31
0.0
  0
SPLINE
  5
64
330
A
100
AcDbEntity
  8
0
  6
solid
 62
     7
100
AcDbSpline
210
0.0
220
0.0
230
1.0
 70
     8
 71
     2
 72
     6
 73
     3
 74
     0
 42
0.0000000001
 43
0.0000000001
 40
0.0
 40
0.0
 40
0.0
 40
1.0
 40
1.0
 40
1.0
 10
2.044250039938499
 20
0.7253077027179799
 30
0.0
 10
2.055509170373281
 20
0.7253077027179799
 30
0.0
 10
2.060721344286325
 20
0.7260868331527626
 30
0.0
  0
SPLINE
  5
65
330
A
100
AcDbEntity
  8
0
  6
solid
 62
     7
100
AcDbSpline
210
0.0
220
0.0
230
1.0
 70
     8
 71
     2
 72
     8
 73
     5
 74
     0
 42
0.0000000001
 43
0.0000000001
 40
0.0
 40
0.0
 40
0.0
 40
1.0
 40
2.0
 40
3.0
 40
3.0
 40
3.0
 10
2.060721344286325
 20
0.7260868331527626
 30
0.0
 10
2.067578155880528
 20
0.7276943693846466
 30
0.0
 10
2.075826271822557
 20
0.7349221954716033
 30
0.0
 10
2.08195960515589
 20
0.7513749490947915
 30
0.0
 10
2.08195960515589
 20
0.7657378476455162
 30
0.0
  0
SPLINE
  5
66
330
A
100
AcDbEntity
  8
0
  6
solid
 62
     7
100
AcDbSpline
210
0.0
220
0.0
230
1.0
 70
     8
 71
     2
 72
     8
 73
     5
 74
     0
 42
0.0000000001
 43
0.0000000001
 40
0.0
 40
0.0
 40
0.0
 40
1.0
 40
2.0
 40
3.0
 40
3.0
 40
3.0
 10
2.08195960515589
 20
0.7657378476455162
 30
0.0
 10
2.08195960515589
 20
0.7800821954716032
 30
0.0
 10
2.075826271822557
 20
0.7950943693846467
 30
0.0
 10
2.066156126895021
 20
0.8038184273556611
 30
0.0
 10
2.058631489213861
 20
0.8054259635875451
 30
0.0
  0
SPLINE
  5
67
330
A
100
AcDbEntity
  8
0
  6
solid
 62
     7
100
AcDbSpline
210
0.0
220
0.0
230
1.0
 70
     8
 71
     2
 72
     6
 73
     3
 74
     0
 42
0.0000000001
 43
0.0000000001
 40
0.0
 40
0.0
 40
0.0
 40
1.0
 40
1.0
 40
1.0
 10
2.058631489213861
 20
0.8054259635875451
 30
0.0
 10
2.053011199358788
 20
0.8068294418484146
 30
0.0
 10
2.035785692112412
 20
0.8068294418484146
 30
0.0
  0
LINE
  5
68
330
A
100
AcDbEntity
  8
0
  6
solid
 62
     7
100
AcDbLine
 10
2.023988590663136
 20
0.8068294418484146
 30
0.0
 11
2.035785692112412
 21
0.8068294418484146
 31
0.0
  0
LINE
  5
69
330
A
100
AcDbEntity
  8
0
  6
solid
 62
     7
100
AcDbLine
 10
2.16855496747473
 20
0.7035685722831974
 30
0.0
 11
2.16855496747473
 21
0.7289308911237771
 31
0.0
  0
LINE
  5
6A
330
A
100
AcDbEntity
  8
0
  6
solid
 62
     7
100
AcDbLine
 10
2.16855496747473
 20
0.7289308911237771
 30
0.0
 11
2.11964192399647
 21
0.7289308911237771
 31
0.0
  0
LINE
  5
6B
330
A
100
AcDbEntity
  8
0
  6
solid
 62
     7
100
AcDbLine
 10
2.11964192399647
 20
0.7289308911237771
 30
0.0
 11
2.11964192399647
 21
0.7499900215585597
 31
0.0
  0
LINE
  5
6C
330
A
100
AcDbEntity
  8
0
  6
solid
 62
     7
100
AcDbLine
 10
2.11964192399647
 20
0.7499900215585597
 30
0.0
 11
2.171219895010962
 21
0.8267569780802988
 31
0.0
  0
LINE
  5
6D
330
A
100
AcDbEntity
  8
0
  6
solid
 62
     7
100
AcDbLine
 10
2.171219895010962
 20
0.8267569780802988
 30
0.0
 11
2.192105692112412
 21
0.8267569780802988
 31
0.0
  0
LINE
  5
6E
330
A
100
AcDbEntity
  8
0
  6
solid
 62
     7
100
AcDbLine
 10
2.192105692112412
 20
0.8267569780802988
 30
0.0
 11
2.192105692112412
 21
0.7506700215585597
 31
0.0
  0
LINE
  5
6F
330
A
100
AcDbEntity
  8
0
  6
solid
 62
     7
100
AcDbLine
 10
2.192105692112412
 20
0.7506700215585597
 30
0.0
 11
2.208410039938499
 21
0.7506700215585597
 31
0.0
  0
LINE
  5
70
330
A
100
AcDbEntity
  8
0
  6
solid
 62
     7
100
AcDbLine
 10
2.208410039938499
 20
0.7506700215585597
 30
0.0
 11
2.208410039938499
 21
0.7289308911237771
 31
0.0
  0
LINE
  5
71
330
A
100
AcDbEntity
  8
0
  6
solid
 62
     7
100
AcDbLine
 10
2.208410039938499
 20
0.7289308911237771
 30
0.0
 11
2.192105692112412
 21
0.7289308911237771
 31
0.0
  0
LINE
  5
72
330
A
100
AcDbEntity
  8
0
  6
solid
 62
     7
100
AcDbLine
 10
2.192105692112412
 20
0.7289308911237771
 30
0.0
 11
2.192105692112412
 21
0.7035685722831974
 31
0.0
  0
LINE
  5
73
330
A
100
AcDbEntity
  8
0
  6
solid
 62
     7
100
AcDbLine
 10
2.16855496747473
 20
0.7035685722831974
 30
0.0
 11
2.192105692112412
 21
0.7035685722831974
 31
0.0
  0
LINE
  5
74
330
A
100
AcDbEntity
  8
0
  6
solid
 62
     7
100
AcDbLine
 10
2.16855496747473
 20
0.7506700215585597
 30
0.0
 11
2.16855496747473
 21
0.7906178476455163
 31
0.0
  0
LINE
  5
75
330
A
100
AcDbEntity
  8
0
  6
solid
 62
     7
100
AcDbLine
 10
2.16855496747473
 20
0.7906178476455163
 30
0.0
 11
2.140663952981977
 21
0.7506700215585597
 31
0.0
  0
LINE
  5
76
330
A
100
AcDbEntity
  8
0
  6
solid
 62
     7
100
AcDbLine
 10
2.16855496747473
 20
0.7506700215585597
 30
0.0
 11
2.140663952981977
 21
0.7506700215585597
 31
0.0
  0
LINE
  5
77
330
A
100
AcDbEntity
  8
0
  6
solid
 62
     7
100
AcDbLine
 10
2.271454677619658
 20
0.7035685722831974
 30
0.0
 11
2.271454677619658
 21
0.7289308911237771
 31
0.0
  0
LINE
  5
78
330
A
100
AcDbEntity
  8
0
  6
solid
 62
     7
100
AcDbLine
 10
2.271454677619658
 20
0.7289308911237771
 30
0.0
 11
2.222541634141397
 21
0.7289308911237771
 31
0.0
  0
LINE
  5
79
330
A
100
AcDbEntity
  8
0
  6
solid
 62
     7
100
AcDbLine
 10
2.222541634141397
 20
0.7289308911237771
 30
0.0
 11
2.222541634141397
 21
0.7499900215585597
 31
0.0
  0
LINE
  5
7A
330
A
100
AcDbEntity
  8
0
  6
solid
 62
     7
100
AcDbLine
 10
2.222541634141397
 20
0.7499900215585597
 30
0.0
 11
2.27411960515589
 21
0.8267569780802988
 31
0.0
  0
LINE
  5
7B
330
A
100
AcDbEntity
  8
0
  6
solid
 62
     7
100
AcDbLine
 10
2.27411960515589
 20
0.8267569780802988
 30
0.0
 11
2.295005402257339
 21
0.8267569780802988
 31
0.0
  0
LINE
  5
7C
330
A
100
AcDbEntity
  8
0
  6
solid
 62
     7
100
AcDbLine
 10
2.295005402257339
 20
0.8267569780802988
 30
0.0
 11
2.295005402257339
 21
0.7506700215585597
 31
0.0
  0
LINE
  5
7D
330
A
100
AcDbEntity
  8
0
  6
solid
 62
     7
100
AcDbLine
 10
2.295005402257339
 20
0.7506700215585597
 30
0.0
 11
2.311309750083426
 21
0.7506700215585597
 31
0.0
  0
LINE
  5
7E
330
A
100
AcDbEntity
  8
0
  6
solid
 62
     7
100
AcDbLine
 10
2.311309750083426
 20
0.7506700215585597
 30
0.0
 11
2.311309750083426
 21
0.7289308911237771
 31
0.0
  0
LINE
  5
7F
330
A
100
AcDbEntity
  8
0
  6
solid
 62
     7
100
AcDbLine
 10
2.311309750083426
 20
0.7289308911237771
 30
0.0
 11
2.295005402257339
 21
0.7289308911237771
 31
0.0
  0
LINE
  5
80
330
A
100
AcDbEntity
  8
0
  6
solid
 62
     7
100
AcDbLine
 10
2.295005402257339
 20
0.7289308911237771
 30
0.0
 11
2.295005402257339
 21
0.7035685722831974
 31
0.0
  0
LINE
  5
81
330
A
100
AcDbEntity
  8
0
  6
solid
 62
     7
100
AcDbLine
 10
2.271454677619658
 20
0.7035685722831974
 30
0.0
 11
2.295005402257339
 21
0.7035685722831974
 31
0.0
  0
LINE
  5
82
330
A
100
AcDbEntity
  8
0
  6
solid
 62
     7
100
AcDbLine
 10
2.271454677619658
 20
0.7506700215585597
 30
0.0
 11
2.271454677619658
 21
0.7906178476455163
 31
0.0
  0
LINE
  5
83
330
A
100
AcDbEntity
  8
0
  6
solid
 62
     7
100
AcDbLine
 10
2.271454677619658
 20
0.7906178476455163
 30
0.0
 11
2.243563663126904
 21
0.7506700215585597
 31
0.0
  0
LINE
  5
84
330
A
100
AcDbEntity
  8
0
  6
solid
 62
     7
100
AcDbLine
 10
2.271454677619658
 20
0.7506700215585597
 30
0.0
 11
2.243563663126904
 21
0.7506700215585597
 31
0.0
  0
LINE
  5
85
330
A
100
AcDbEntity
  8
0
  6
solid
 62
     7
100
AcDbLine
 10
2.325441344286325
 20
0.7385268331527626
 30
0.0
 11
2.348992068924006
 21
0.7416120505440669
 31
0.0
  0
SPLINE
  5
86
330
A
100
AcDbEntity
  8
0
  6
solid
 62
     7
100
AcDbSpline
210
0.0
220
0.0
230
1.0
 70
     8
 71
     2
 72
     7
 73
     4
 74
     0
 42
0.0000000001
 43
0.0000000001
 40
0.0
 40
0.0
 40
0.0
 40
1.0
 40
2.0
 40
2.0
 40
2.0
 10
2.348992068924006
 20
0.7416120505440669
 30
0.0
 10
2.349696996460238
 20
0.7327210360513134
 30
0.0
 10
2.359033228344296
 20
0.7234961085150814
 30
0.0
 10
2.365945692112412
 20
0.7234961085150814
 30
0.0
  0
SPLINE
  5
87
330
A
100
AcDbEntity
  8
0
  6
solid
 62
     7
100
AcDbSpline
210
0.0
220
0.0
230
1.0
 70
     8
 71
     2
 72
     7
 73
     4
 74
     0
 42
0.0000000001
 43
0.0000000001
 40
0.0
 40
0.0
 40
0.0
 40
1.0
 40
2.0
 40
2.0
 40
2.0
 10
2.365945692112412
 20
0.7234961085150814
 30
0.0
 10
2.373173518199368
 20
0.7234961085150814
 30
0.0
 10
2.383412358779079
 20
0.7332219056165307
 30
0.0
 10
2.383412358779079
 20
0.7419645143121829
 30
0.0
  0
SPLINE
  5
88
330
A
100
AcDbEntity
  8
0
  6
solid
 62
     7
100
AcDbSpline
210
0.0
220
0.0
230
1.0
 70
     8
 71
     2
 72
     7
 73
     4
 74
     0
 42
0.0000000001
 43
0.0000000001
 40
0.0
 40
0.0
 40
0.0
 40
1.0
 40
2.0
 40
2.0
 40
2.0
 10
2.383412358779079
 20
0.7419645143121829
 30
0.0
 10
2.383412358779079
 20
0.7497674128629076
 30
0.0
 10
2.374465692112412
 20
0.7597279925730525
 30
0.0
 10
2.367775837039948
 20
0.7597279925730525
 30
0.0
  0
SPLINE
  5
89
330
A
100
AcDbEntity
  8
0
  6
solid
 62
     7
100
AcDbSpline
210
0.0
220
0.0
230
1.0
 70
     8
 71
     2
 72
     6
 73
     3
 74
     0
 42
0.0000000001
 43
0.0000000001
 40
0.0
 40
0.0
 40
0.0
 40
1.0
 40
1.0
 40
1.0
 10
2.367775837039948
 20
0.7597279925730525
 30
0.0
 10
2.36376308341676
 20
0.7597279925730525
 30
0.0
 10
2.358050039938499
 20
0.7579349490947916
 30
0.0
  0
LINE
  5
8A
330
A
100
AcDbEntity
  8
0
  6
solid
 62
     7
100
AcDbLine
 10
2.358050039938499
 20
0.7579349490947916
 30
0.0
 11
2.360195547184876
 21
0.777843934602038
 31
0.0
  0
SPLINE
  5
8B
330
A
100
AcDbEntity
  8
0
  6
solid
 62
     7
100
AcDbSpline
210
0.0
220
0.0
230
1.0
 70
     8
 71
     2
 72
     7
 73
     4
 74
     0
 42
0.0000000001
 43
0.0000000001
 40
0.0
 40
0.0
 40
0.0
 40
1.0
 40
2.0
 40
2.0
 40
2.0
 10
2.360195547184876
 20
0.777843934602038
 30
0.0
 10
2.368938155880528
 20
0.7770526302542119
 30
0.0
 10
2.377977576170382
 20
0.7858694418484148
 30
0.0
 10
2.377977576170382
 20
0.7930601664860959
 30
0.0
  0
SPLINE
  5
8C
330
A
100
AcDbEntity
  8
0
  6
solid
 62
     7
100
AcDbSpline
210
0.0
220
0.0
230
1.0
 70
     8
 71
     2
 72
     7
 73
     4
 74
     0
 42
0.0000000001
 43
0.0000000001
 40
0.0
 40
0.0
 40
0.0
 40
1.0
 40
2.0
 40
2.0
 40
2.0
 10
2.377977576170382
 20
0.7930601664860959
 30
0.0
 10
2.377977576170382
 20
0.798940166486096
 30
0.0
 10
2.370953808054441
 20
0.8068294418484146
 30
0.0
 10
2.365314967474731
 20
0.8068294418484146
 30
0.0
  0
SPLINE
  5
8D
330
A
100
AcDbEntity
  8
0
  6
solid
 62
     7
100
AcDbSpline
210
0.0
220
0.0
230
1.0
 70
     8
 71
     2
 72
     7
 73
     4
 74
     0
 42
0.0000000001
 43
0.0000000001
 40
0.0
 40
0.0
 40
0.0
 40
1.0
 40
2.0
 40
2.0
 40
2.0
 10
2.365314967474731
 20
0.8068294418484146
 30
0.0
 10
2.359125981967484
 20
0.8068294418484146
 30
0.0
 10
2.351378735590673
 20
0.7982537896745017
 30
0.0
 10
2.350803663126904
 20
0.7905250940223279
 30
0.0
  0
LINE
  5
8E
330
A
100
AcDbEntity
  8
0
  6
solid
 62
     7
100
AcDbLine
 10
2.350803663126904
 20
0.7905250940223279
 30
0.0
 11
2.327252938489223
 21
0.7941668331527626
 31
0.0
  0
SPLINE
  5
8F
330
A
100
AcDbEntity
  8
0
  6
solid
 62
     7
100
AcDbSpline
210
0.0
220
0.0
230
1.0
 70
     8
 71
     2
 72
     8
 73
     5
 74
     0
 42
0.0000000001
 43
0.0000000001
 40
0.0
 40
0.0
 40
0.0
 40
1.0
 40
2.0
 40
3.0
 40
3.0
 40
3.0
 10
2.327252938489223
 20
0.7941668331527626
 30
0.0
 10
2.329361344286325
 20
0.8057413259063858
 30
0.0
 10
2.338456416750093
 20
0.8200856737324727
 30
0.0
 10
2.354779315300818
 20
0.8285685722831972
 30
0.0
 10
2.364542213851542
 20
0.8285685722831972
 30
0.0
  0
SPLINE
  5
90
330
A
100
AcDbEntity
  8
0
  6
solid
 62
     7
100
AcDbSpline
210
0.0
220
0.0
230
1.0
 70
     8
 71
     2
 72
     6
 73
     3
 74
     0
 42
0.0000000001
 43
0.0000000001
 40
0.0
 40
0.0
 40
0.0
 40
1.0
 40
1.0
 40
1.0
 10
2.364542213851542
 20
0.8285685722831972
 30
0.0
 10
2.38215728631531
 20
0.8285685722831972
 30
0.0
 10
2.392748590663137
 20
0.81666654329769
 30
0.0
  0
SPLINE
  5
91
330
A
100
AcDbEntity
  8
0
  6
solid
 62
     7
100
AcDbSpline
210
0.0
220
0.0
230
1.0
 70
     8
 71
     2
 72
     6
 73
     3
 74
     0
 42
0.0000000001
 43
0.0000000001
 40
0.0
 40
0.0
 40
0.0
 40
1.0
 40
1.0
 40
1.0
 10
2.392748590663137
 20
0.81666654329769
 30
0.0
 10
2.401528300808064
 20
0.8073674128629074
 30
0.0
 10
2.401528300808064
 20
0.7952242244571104
 30
0.0
  0
SPLINE
  5
92
330
A
100
AcDbEntity
  8
0
  6
solid
 62
     7
100
AcDbSpline
210
0.0
220
0.0
230
1.0
 70
     8
 71
     2
 72
     6
 73
     3
 74
     0
 42
0.0000000001
 43
0.0000000001
 40
0.0
 40
0.0
 40
0.0
 40
1.0
 40
1.0
 40
1.0
 10
2.401528300808064
 20
0.7952242244571104
 30
0.0
 10
2.401528300808064
 20
0.7785859635875453
 30
0.0
 10
2.383727721097919
 20
0.7688972679353713
 30
0.0
  0
SPLINE
  5
93
330
A
100
AcDbEntity
  8
0
  6
solid
 62
     7
100
AcDbSpline
210
0.0
220
0.0
230
1.0
 70
     8
 71
     2
 72
     7
 73
     4
 74
     0
 42
0.0000000001
 43
0.0000000001
 40
0.0
 40
0.0
 40
0.0
 40
1.0
 40
2.0
 40
2.0
 40
2.0
 10
2.383727721097919
 20
0.7688972679353713
 30
0.0
 10
2.39435612689502
 20
0.7661830650368206
 30
0.0
 10
2.406963083416759
 20
0.751003934602038
 30
0.0
 10
2.406963083416759
 20
0.740060166486096
 30
0.0
  0
SPLINE
  5
94
330
A
100
AcDbEntity
  8
0
  6
solid
 62
     7
100
AcDbSpline
210
0.0
220
0.0
230
1.0
 70
     8
 71
     2
 72
     7
 73
     4
 74
     0
 42
0.0000000001
 43
0.0000000001
 40
0.0
 40
0.0
 40
0.0
 40
1.0
 40
2.0
 40
2.0
 40
2.0
 10
2.406963083416759
 20
0.740060166486096
 30
0.0
 10
2.406963083416759
 20
0.7239784273556611
 30
0.0
 10
2.382750909503716
 20
0.7017569780802989
 30
0.0
 10
2.365611779068934
 20
0.7017569780802989
 30
0.0
  0
SPLINE
  5
95
330
A
100
AcDbEntity
  8
0
  6
solid
 62
     7
100
AcDbSpline
210
0.0
220
0.0
230
1.0
 70
     8
 71
     2
 72
     7
 73
     4
 74
     0
 42
0.0000000001
 43
0.0000000001
 40
0.0
 40
0.0
 40
0.0
 40
1.0
 40
2.0
 40
2.0
 40
2.0
 10
2.365611779068934
 20
0.7017569780802989
 30
0.0
 10
2.349084822547194
 20
0.7017569780802989
 30
0.0
 10
2.326591489213861
 20
0.7220555288049365
 30
0.0
 10
2.325441344286325
 20
0.7385268331527626
 30
0.0
  0
LINE
  5
96
330
A
100
AcDbEntity
  8
0
  6
solid
 62
     7
100
AcDbLine
 10
2.419283083416759
 20
0.8285685722831972
 30
0.0
 11
2.469234967474731
 21
0.8285685722831972
 31
0.0
  0
SPLINE
  5
97
330
A
100
AcDbEntity
  8
0
  6
solid
 62
     7
100
AcDbSpline
210
0.0
220
0.0
230
1.0
 70
     8
 71
     2
 72
     9
 73
     6
 74
     0
 42
0.0000000001
 43
0.0000000001
 40
0.0
 40
0.0
 40
0.0
 40
1.0
 40
2.0
 40
3.0
 40
4.0
 40
4.0
 40
4.0
 10
2.469234967474731
 20
0.8285685722831972
 30
0.0
 10
2.484685981967484
 20
0.8285685722831972
 30
0.0
 10
2.499345692112412
 20
0.8256688621382698
 30
0.0
 10
2.510716126895021
 20
0.8179030650368204
 30
0.0
 10
2.51892076457618
 20
0.8041523403991394
 30
0.0
 10
2.51892076457618
 20
0.796219586775951
 30
0.0
  0
SPLINE
  5
98
330
A
100
AcDbEntity
  8
0
  6
solid
 62
     7
100
AcDbSpline
210
0.0
220
0.0
230
1.0
 70
     8
 71
     2
 72
     7
 73
     4
 74
     0
 42
0.0000000001
 43
0.0000000001
 40
0.0
 40
0.0
 40
0.0
 40
1.0
 40
2.0
 40
2.0
 40
2.0
 10
2.51892076457618
 20
0.796219586775951
 30
0.0
 10
2.51892076457618
 20
0.7871987172107336
 30
0.0
 10
2.510178155880528
 20
0.7717477027179801
 30
0.0
 10
2.502857576170383
 20
0.7680317606889945
 30
0.0
  0
SPLINE
  5
99
330
A
100
AcDbEntity
  8
0
  6
solid
 62
     7
100
AcDbSpline
210
0.0
220
0.0
230
1.0
 70
     8
 71
     2
 72
     7
 73
     4
 74
     0
 42
0.0000000001
 43
0.0000000001
 40
0.0
 40
0.0
 40
0.0
 40
1.0
 40
2.0
 40
2.0
 40
2.0
 10
2.502857576170383
 20
0.7680317606889945
 30
0.0
 10
2.512731779068934
 20
0.7652740795295742
 30
0.0
 10
2.524355547184875
 20
0.7493778476455163
 30
0.0
 10
2.524355547184875
 20
0.738675238949864
 30
0.0
  0
SPLINE
  5
9A
330
A
100
AcDbEntity
  8
0
  6
solid
 62
     7
100
AcDbSpline
210
0.0
220
0.0
230
1.0
 70
     8
 71
     2
 72
     8
 73
     5
 74
     0
 42
0.0000000001
 43
0.0000000001
 40
0.0
 40
0.0
 40
0.0
 40
1.0
 40
2.0
 40
3.0
 40
3.0
 40
3.0
 10
2.524355547184875
 20
0.738675238949864
 30
0.0
 10
2.524355547184875
 20
0.7300810360513133
 30
0.0
 10
2.516021054431252
 20
0.7147534998194293
 30
0.0
 10
2.502616416750093
 20
0.7054543693846468
 30
0.0
 10
2.492266271822557
 20
0.7041065432976901
 30
0.0
  0
SPLINE
  5
9B
330
A
100
AcDbEntity
  8
0
  6
solid
 62
     7
100
AcDbSpline
210
0.0
220
0.0
230
1.0
 70
     8
 71
     2
 72
     6
 73
     3
 74
     0
 42
0.0000000001
 43
0.0000000001
 40
0.0
 40
0.0
 40
0.0
 40
1.0
 40
1.0
 40
1.0
 10
2.492266271822557
 20
0.7041065432976901
 30
0.0
 10
2.485613518199368
 20
0.7036798766310235
 30
0.0
 10
2.461617576170383
 20
0.7035685722831974
 30
0.0
  0
LINE
  5
9C
330
A
100
AcDbEntity
  8
0
  6
solid
 62
     7
100
AcDbLine
 10
2.461617576170383
 20
0.7035685722831974
 30
0.0
 11
2.419283083416759
 21
0.7035685722831974
 31
0.0
  0
LINE
  5
9D
330
A
100
AcDbEntity
  8
0
  6
solid
 62
     7
100
AcDbLine
 10
2.419283083416759
 20
0.8285685722831972
 30
0.0
 11
2.419283083416759
 21
0.7035685722831974
 31
0.0
  0
LINE
  5
9E
330
A
100
AcDbEntity
  8
0
  6
solid
 62
     7
100
AcDbLine
 10
2.442833808054441
 20
0.8068294418484146
 30
0.0
 11
2.442833808054441
 21
0.777843934602038
 31
0.0
  0
LINE
  5
9F
330
A
100
AcDbEntity
  8
0
  6
solid
 62
     7
100
AcDbLine
 10
2.442833808054441
 20
0.777843934602038
 30
0.0
 11
2.460121344286325
 21
0.777843934602038
 31
0.0
  0
SPLINE
  5
A0
330
A
100
AcDbEntity
  8
0
  6
solid
 62
     7
100
AcDbSpline
210
0.0
220
0.0
230
1.0
 70
     8
 71
     2
 72
     6
 73
     3
 74
     0
 42
0.0000000001
 43
0.0000000001
 40
0.0
 40
0.0
 40
0.0
 40
1.0
 40
1.0
 40
1.0
 10
2.460121344286325
 20
0.777843934602038
 30
0.0
 10
2.476165981967484
 20
0.777843934602038
 30
0.0
 10
2.479937576170383
 20
0.7781221954716031
 30
0.0
  0
SPLINE
  5
A1
330
A
100
AcDbEntity
  8
0
  6
solid
 62
     7
100
AcDbSpline
210
0.0
220
0.0
230
1.0
 70
     8
 71
     2
 72
     7
 73
     4
 74
     0
 42
0.0000000001
 43
0.0000000001
 40
0.0
 40
0.0
 40
0.0
 40
1.0
 40
2.0
 40
2.0
 40
2.0
 10
2.479937576170383
 20
0.7781221954716031
 30
0.0
 10
2.487016996460238
 20
0.7786230650368206
 30
0.0
 10
2.495370039938499
 20
0.7859992969208786
 30
0.0
 10
2.495370039938499
 20
0.7924850940223278
 30
0.0
  0
SPLINE
  5
A2
330
A
100
AcDbEntity
  8
0
  6
solid
 62
     7
100
AcDbSpline
210
0.0
220
0.0
230
1.0
 70
     8
 71
     2
 72
     7
 73
     4
 74
     0
 42
0.0000000001
 43
0.0000000001
 40
0.0
 40
0.0
 40
0.0
 40
1.0
 40
2.0
 40
2.0
 40
2.0
 10
2.495370039938499
 20
0.7924850940223278
 30
0.0
 10
2.495370039938499
 20
0.7981610360513133
 30
0.0
 10
2.488364822547194
 20
0.8054259635875451
 30
0.0
 10
2.481415257329803
 20
0.8059268331527626
 30
0.0
  0
SPLINE
  5
A3
330
A
100
AcDbEntity
  8
0
  6
solid
 62
     7
100
AcDbSpline
210
0.0
220
0.0
230
1.0
 70
     8
 71
     2
 72
     6
 73
     3
 74
     0
 42
0.0000000001
 43
0.0000000001
 40
0.0
 40
0.0
 40
0.0
 40
1.0
 40
1.0
 40
1.0
 10
2.481415257329803
 20
0.8059268331527626
 30
0.0
 10
2.477513808054441
 20
0.8068294418484146
 30
0.0
 10
2.458068590663136
 20
0.8068294418484146
 30
0.0
  0
LINE
  5
A4
330
A
100
AcDbEntity
  8
0
  6
solid
 62
     7
100
AcDbLine
 10
2.442833808054441
 20
0.8068294418484146
 30
0.0
 11
2.458068590663136
 21
0.8068294418484146
 31
0.0
  0
LINE
  5
A5
330
A
100
AcDbEntity
  8
0
  6
solid
 62
     7
100
AcDbLine
 10
2.442833808054441
 20
0.7561048041672553
 30
0.0
 11
2.442833808054441
 21
0.7253077027179799
 31
0.0
  0
LINE
  5
A6
330
A
100
AcDbEntity
  8
0
  6
solid
 62
     7
100
AcDbLine
 10
2.442833808054441
 20
0.7253077027179799
 30
0.0
 11
2.46819612689502
 21
0.7253077027179799
 31
0.0
  0
SPLINE
  5
A7
330
A
100
AcDbEntity
  8
0
  6
solid
 62
     7
100
AcDbSpline
210
0.0
220
0.0
230
1.0
 70
     8
 71
     2
 72
     6
 73
     3
 74
     0
 42
0.0000000001
 43
0.0000000001
 40
0.0
 40
0.0
 40
0.0
 40
1.0
 40
1.0
 40
1.0
 10
2.46819612689502
 20
0.7253077027179799
 30
0.0
 10
2.482911489213861
 20
0.7253077027179799
 30
0.0
 10
2.486775837039948
 20
0.7257714708339221
 30
0.0
  0
SPLINE
  5
A8
330
A
100
AcDbEntity
  8
0
  6
solid
 62
     7
100
AcDbSpline
210
0.0
220
0.0
230
1.0
 70
     8
 71
     2
 72
     7
 73
     4
 74
     0
 42
0.0000000001
 43
0.0000000001
 40
0.0
 40
0.0
 40
0.0
 40
1.0
 40
2.0
 40
2.0
 40
2.0
 10
2.486775837039948
 20
0.7257714708339221
 30
0.0
 10
2.49263728631531
 20
0.7263836447469655
 30
0.0
 10
2.500804822547194
 20
0.733667123007835
 30
0.0
 10
2.500804822547194
 20
0.7401900215585597
 30
0.0
  0
SPLINE
  5
A9
330
A
100
AcDbEntity
  8
0
  6
solid
 62
     7
100
AcDbSpline
210
0.0
220
0.0
230
1.0
 70
     8
 71
     2
 72
     8
 73
     5
 74
     0
 42
0.0000000001
 43
0.0000000001
 40
0.0
 40
0.0
 40
0.0
 40
1.0
 40
2.0
 40
3.0
 40
3.0
 40
3.0
 10
2.500804822547194
 20
0.7401900215585597
 30
0.0
 10
2.500804822547194
 20
0.7454578476455162
 30
0.0
 10
2.494430329793571
 20
0.7526856737324728
 30
0.0
 10
2.483338155880528
 20
0.7561048041672553
 30
0.0
 10
2.464832648634151
 20
0.7561048041672553
 30
0.0
  0
LINE
  5
AA
330
A
100
AcDbEntity
  8
0
  6
solid
 62
     7
100
AcDbLine
 10
2.442833808054441
 20
0.7561048041672553
 30
0.0
 11
2.464832648634151
 21
0.7561048041672553
 31
0.0
  0
LINE
  5
10A
330
A
100
AcDbEntity
  8
0
  6
solid
 62
     7
370
     0
100
AcDbLine
 10
-6.497534275054931
 20
-2.501528620719909
 30
0.0
 11
-6.497534275054931
 21
-2.501528620719909
 31
0.0
  0
LINE
  5
10B
330
A
100
AcDbEntity
  8
0
  6
solid
 62
     7
370
     0
100
AcDbLine
 10
-0.9975342154502868
 20
-2.470278561115264
 30
0.0
 11
-0.9975342154502868
 21
-2.470278561115264
 31
0.0
  0
LINE
  5
10C
330
A
100
AcDbEntity
  8
0
  6
solid
 62
     7
370
     0
100
AcDbLine
 10
-6.497534275054931
 20
-0.3474703535369668
 30
0.0
 11
-4.190737725233336
 21
-0.3474703535369668
 31
0.0
  0
LINE
  5
10D
330
A
100
AcDbEntity
  8
0
  6
solid
 62
     7
370
     0
100
AcDbLine
 10
-0.9975342154502868
 20
-0.3474703535369668
 30
0.0
 11
-3.372460391402491
 21
-0.3474703535369668
 31
0.0
  0
MTEXT
  5
10E
330
A
100
AcDbEntity
  8
0
  6
solid
 62
     7
370
     0
100
AcDbMText
 10
-3.747534245252609
 20
-0.3474703535369668
 30
0.0
 40
0.09375
 41
0.0
 71
     5
 72
     1
  1
{\H0.093750;5 1/2}
 73
     1
 44
1.0
  0
SOLID
  5
10F
330
A
100
AcDbEntity
  8
0
  6
solid
 62
     7
370
     0
100
AcDbTrace
 10
-6.435034275054931
 20
-0.3162203535369668
 30
0.0
 11
-6.435034275054931
 21
-0.3787203535369668
 31
0.0
 12
-6.497534275054931
 22
-0.3474703535369668
 32
0.0
 13
-6.497534275054931
 23
-0.3474703535369668
 33
0.0
  0
SOLID
  5
110
330
A
100
AcDbEntity
  8
0
  6
solid
 62
     7
370
     0
100
AcDbTrace
 10
-1.060034215450286
 20
-0.3787203535369668
 30
0.0
 11
-1.060034215450286
 21
-0.3162203535369668
 31
0.0
 12
-0.9975342154502868
 22
-0.3474703535369668
 32
0.0
 13
-0.9975342154502868
 23
-0.3474703535369668
 33
0.0
  0
LINE
  5
113
330
A
100
AcDbEntity
  8
0
  6
solid
 62
     7
370
     0
100
AcDbLine
 10
1.534899127219397
 20
-0.0015285880072063
 30
0.0
 11
1.534899127219397
 21
-0.0015285880072063
 31
0.0
  0
LINE
  5
114
330
A
100
AcDbEntity
  8
0
  6
solid
 62
     7
370
     0
100
AcDbLine
 10
-1.122197670730109
 20
1.060971379280088
 30
0.0
 11
-0.3448342111104523
 21
1.060971379280086
 31
0.0
  0
LINE
  5
115
330
A
100
AcDbEntity
  8
0
  6
solid
 62
     7
370
     0
100
AcDbLine
 10
-0.479516365163996
 20
-0.0015285880072056
 30
0.0
 11
-0.4795163651639957
 21
0.4098169485210571
 31
0.0
  0
LINE
  5
116
330
A
100
AcDbEntity
  8
0
  6
solid
 62
     7
370
     0
100
AcDbLine
 10
-0.4795163651639952
 20
1.060971379280087
 30
0.0
 11
-0.4795163651639954
 21
0.6496258427518265
 31
0.0
  0
MTEXT
  5
117
330
A
100
AcDbEntity
  8
0
  6
solid
 62
     7
370
     0
100
AcDbMText
 10
-0.4795163651639955
 20
0.5297213956364418
 30
0.0
 40
0.09375
 41
0.0
 71
     5
 72
     1
  1
{\H0.093750;1 1/16}
 73
     1
 44
1.0
  0
SOLID
  5
118
330
A
100
AcDbEntity
  8
0
  6
solid
 62
     7
370
     0
100
AcDbTrace
 10
-0.5107663651639959
 20
0.0609714119927945
 30
0.0
 11
-0.4482663651639959
 21
0.0609714119927944
 31
0.0
 12
-0.479516365163996
 22
-0.0015285880072056
 32
0.0
 13
-0.479516365163996
 23
-0.0015285880072056
 33
0.0
  0
SOLID
  5
119
330
A
100
AcDbEntity
  8
0
  6
solid
 62
     7
370
     0
100
AcDbTrace
 10
-0.4482663651639953
 20
0.9984713792800874
 30
0.0
 11
-0.5107663651639953
 21
0.9984713792800874
 31
0.0
 12
-0.4795163651639952
 22
1.060971379280087
 32
0.0
 13
-0.4795163651639952
 23
1.060971379280087
 33
0.0
  0
LINE
  5
121
330
A
100
AcDbEntity
  8
0
  6
solid
 62
     7
370
     0
100
AcDbLine
 10
-1.122197670730109
 20
-0.0149172164372176
 30
0.0
 11
-0.3448342111104523
 21
-0.0149172164372193
 31
0.0
  0
VIEWPORT
  5
C8
330
B
100
AcDbEntity
 67
     1
  8
0
  6
Continuous
370
     0
100
AcDbViewport
 10
5.15176430668756
 20
3.951240450931923
 30
0.0
 40
15.47853952863286
 41
8.189788586355639
 68
     1
 69
     1
 12
5.15176430668756
 22
3.951240450931923
 13
0.0
 23
0.0
 14
0.5
 24
0.5
 15
0.5
 25
0.5
 16
0.0
 26
0.0
 36
1.0
 17
0.0
 27
0.0
 37
0.0
 42
50.0
 43
0.0
 44
0.0
 45
8.189788586355639
 50
0.0
 51
0.0
 72
   100
 90
   819232
  1

281
     0
 71
     1
 74
     0
110
0.0
120
0.0
130
0.0
111
1.0
121
0.0
131
0.0
112
0.0
122
1.0
132
0.0
 79
     0
146
0.0
170
     0
  0
VIEWPORT
  5
CB
330
B
100
AcDbEntity
 67
     1
  8
0
  6
Continuous
370
     0
100
AcDbViewport
 10
5.15173834198725
 20
3.951116626858965
 30
0.0
 40
10.483879683004
 41
8.09369979302366
 68
     2
 69
     2
 12
0.5872322862089252
 22
0.028966849017795
 13
0.0
 23
0.0
 14
0.5
 24
0.5
 15
0.5
 25
0.5
 16
0.0
 26
0.0
 36
1.0
 17
0.0
 27
0.0
 37
0.0
 42
50.0
 43
0.0
 44
0.0
 45
12.70726317936718
 50
0.0
 51
0.0
 72
   100
 90
   819232
  1

281
     0
 71
     1
 74
     0
110
0.0
120
0.0
130
0.0
111
1.0
121
0.0
131
0.0
112
0.0
122
1.0
132
0.0
 79
     0
146
0.0
170
     0
  0
ENDSEC
  0
SECTION
  2
OBJECTS
  0
DICTIONARY
  5
19
330
0
100
AcDbDictionary
281
     1
  3
ACAD_COLOR
350
C1
  3
ACAD_GROUP
350
1A
  3
ACAD_LAYOUT
350
1E
  3
ACAD_MATERIAL
350
AC
  3
ACAD_MLEADERSTYLE
350
F5
  3
ACAD_MLINESTYLE
350
1B
  3
ACAD_PLOTSETTINGS
350
22
  3
ACAD_PLOTSTYLENAME
350
1F
  3
ACAD_SCALELIST
350
D3
  3
ACAD_TABLESTYLE
350
C2
  3
ACAD_VISUALSTYLE
350
B0
  3
ACAD_WIPEOUT_VARS
350
23
  3
ACDB_RECOMPOSE_DATA
350
13A
  3
AcDbVariableDictionary
350
D0
  3
ASE_INDEX_DICTIONARY
350
122
  0
DICTIONARY
  5
FE
330
14
100
AcDbDictionary
280
     1
281
     1
  3
ADSK_XREC_LAYER_RECONCILED
360
FF
  0
DICTIONARY
  5
100
330
27
100
AcDbDictionary
280
     1
281
     1
  3
ADSK_XREC_LAYER_RECONCILED
360
101
  0
DICTIONARY
  5
111
330
A
100
AcDbDictionary
280
     1
281
     1
  3
ACAD_SORTENTS
360
112
  0
DICTIONARY
  5
C1
102
{ACAD_REACTORS
330
19
102
}
330
19
100
AcDbDictionary
281
     1
  0
DICTIONARY
  5
1A
102
{ACAD_REACTORS
330
19
102
}
330
19
100
AcDbDictionary
281
     1
  0
DICTIONARY
  5
1E
102
{ACAD_REACTORS
330
19
102
}
330
19
100
AcDbDictionary
281
     1
  3
Layout1
350
21
  3
Model
350
20
  0
DICTIONARY
  5
AC
102
{ACAD_REACTORS
330
19
102
}
330
19
100
AcDbDictionary
281
     1
  3
ByBlock
350
AE
  3
ByLayer
350
AD
  3
Global
350
AF
  0
DICTIONARY
  5
F5
102
{ACAD_REACTORS
330
19
102
}
330
19
100
AcDbDictionary
281
     1
  3
Standard
350
F6
  0
DICTIONARY
  5
1B
102
{ACAD_REACTORS
330
19
102
}
330
19
100
AcDbDictionary
281
     1
  3
Standard
350
1C
  0
DICTIONARY
  5
22
102
{ACAD_REACTORS
330
19
102
}
330
19
100
AcDbDictionary
281
     1
  0
ACDBDICTIONARYWDFLT
  5
1F
102
{ACAD_REACTORS
330
19
102
}
330
19
100
AcDbDictionary
281
     1
  3
Normal
350
1D
100
AcDbDictionaryWithDefault
340
1D
  0
DICTIONARY
  5
D3
102
{ACAD_REACTORS
330
19
102
}
330
19
100
AcDbDictionary
281
     1
  3
A0
350
D4
  3
A1
350
D5
  3
A2
350
D6
  3
A3
350
D7
  3
A4
350
D8
  3
A5
350
D9
  3
A6
350
DA
  3
A7
350
DB
  3
A8
350
DC
  3
A9
350
DD
  3
B0
350
DE
  3
B1
350
DF
  3
B2
350
E0
  3
B3
350
E1
  3
B4
350
E2
  3
B5
350
E3
  3
B6
350
E4
  3
B7
350
E5
  3
B8
350
E6
  3
B9
350
E7
  3
C0
350
E8
  3
C1
350
E9
  3
C2
350
EA
  3
C3
350
EB
  3
C4
350
EC
  3
C5
350
ED
  3
C6
350
EE
  3
C7
350
EF
  3
C8
350
F0
  3
C9
350
F1
  3
D0
350
F2
  3
D1
350
F3
  3
D2
350
F4
  0
DICTIONARY
  5
C2
102
{ACAD_REACTORS
330
19
102
}
330
19
100
AcDbDictionary
281
     1
  3
Standard
350
C3
  0
DICTIONARY
  5
B0
102
{ACAD_REACTORS
330
19
102
}
330
19
100
AcDbDictionary
281
     1
  3
2dWireframe
350
B6
  3
3D Hidden
350
B8
  3
3dWireframe
350
B7
  3
Basic
350
B5
  3
Brighten
350
BC
  3
ColorChange
350
C0
  3
Conceptual
350
B9
  3
Dim
350
BB
  3
Facepattern
350
BF
  3
Flat
350
B1
  3
FlatWithEdges
350
B2
  3
Gouraud
350
B3
  3
GouraudWithEdges
350
B4
  3
Linepattern
350
BE
  3
Realistic
350
BA
  3
Thicken
350
BD
  0
WIPEOUTVARIABLES
  5
23
330
19
100
AcDbWipeoutVariables
 70
     1
  0
XRECORD
  5
13A
102
{ACAD_REACTORS
330
19
102
}
330
19
100
AcDbXrecord
280
     1
 90
        1
330
C3
  0
DICTIONARY
  5
D0
102
{ACAD_REACTORS
330
19
102
}
330
19
100
AcDbDictionary
281
     1
  3
CANNOSCALE
350
137
  3
CMLEADERSTYLE
350
136
  3
CTABLESTYLE
350
D1
  0
DICTIONARY
  5
122
102
{ACAD_REACTORS
330
19
102
}
330
19
100
AcDbDictionary
281
     1
  3
ASEBlockHierarchyIndexRecord
350
123
1001
DCO15
1040
1667672749.968
  0
XRECORD
  5
FF
102
{ACAD_REACTORS
330
FE
102
}
330
FE
100
AcDbXrecord
280
     1
290
     1
  0
XRECORD
  5
101
102
{ACAD_REACTORS
330
100
102
}
330
100
100
AcDbXrecord
280
     1
290
     1
  0
SORTENTSTABLE
  5
112
102
{ACAD_REACTORS
330
111
102
}
330
111
100
AcDbSortentsTable
330
A
331
117
  5
3A
331
A8
  5
117
331
86
  5
94
331
6C
  5
7A
331
97
  5
A5
331
5B
  5
69
331
39
  5
40
331
28
  5
28
331
A6
  5
115
331
84
  5
92
331
6A
  5
78
331
115
  5
38
331
95
  5
A3
331
59
  5
67
331
37
  5
3E
331
A4
  5
113
331
82
  5
90
331
68
  5
76
331
46
  5
58
331
113
  5
36
331
93
  5
A1
331
57
  5
65
331
A2
  5
10F
331
80
  5
8E
331
66
  5
74
331
44
  5
56
331
91
  5
9F
331
77
  5
85
331
55
  5
63
331
A0
  5
10D
331
7E
  5
8C
331
64
  5
72
331
42
  5
54
331
8F
  5
9D
331
75
  5
83
331
53
  5
61
331
10F
  5
5F
331
9E
  5
10B
331
7C
  5
8A
331
62
  5
70
331
40
  5
47
331
8D
  5
9B
331
73
  5
81
331
10D
  5
5D
331
9C
  5
AA
331
7A
  5
88
331
60
  5
6E
331
8B
  5
99
331
71
  5
7F
331
10B
  5
5B
331
3E
  5
45
331
9A
  5
A8
331
78
  5
86
331
89
  5
97
331
6F
  5
7D
331
5E
  5
6C
331
3C
  5
43
331
98
  5
A6
331
118
  5
3B
331
A9
  5
118
331
87
  5
95
331
6D
  5
7B
331
5C
  5
6A
331
3A
  5
41
331
29
  5
29
331
A7
  5
116
331
85
  5
93
331
6B
  5
79
331
116
  5
39
331
96
  5
A4
331
5A
  5
68
331
38
  5
3F
331
A5
  5
114
331
83
  5
91
331
69
  5
77
331
47
  5
59
331
114
  5
37
331
94
  5
A2
331
58
  5
66
331
36
  5
3D
331
A3
  5
110
331
81
  5
8F
331
67
  5
75
331
45
  5
57
331
92
  5
A0
331
56
  5
64
331
110
  5
60
331
A1
  5
10E
331
7F
  5
8D
331
65
  5
73
331
43
  5
55
331
90
  5
9E
331
76
  5
84
331
54
  5
62
331
9F
  5
10C
331
7D
  5
8B
331
63
  5
71
331
41
  5
53
331
8E
  5
9C
331
74
  5
82
331
10E
  5
5E
331
9D
  5
10A
331
7B
  5
89
331
61
  5
6F
331
8C
  5
9A
331
72
  5
80
331
10C
  5
5C
331
3F
  5
46
331
9B
  5
A9
331
79
  5
87
331
8A
  5
98
331
70
  5
7E
331
10A
  5
5A
331
5F
  5
6D
331
3D
  5
44
331
99
  5
A7
331
119
  5
3C
331
AA
  5
119
331
88
  5
96
331
6E
  5
7C
331
5D
  5
6B
331
3B
  5
42
331
2A
  5
2A
  0
LAYOUT
  5
21
102
{ACAD_REACTORS
330
1E
102
}
330
1E
100
AcDbPlotSettings
  1

  2
Foxit PDF Printer
  4
Letter
  6

 40
3.174999952316284
 41
3.174999952316284
 42
3.17498779296875
 43
3.175003051757812
 44
279.3999938964844
 45
215.8999938964844
 46
31.47715384821894
 47
24.12875752349356
 48
0.0
 49
0.0
140
0.0
141
0.0
142
1.0
143
1.0
 70
     4
 72
     0
 73
     0
 74
     1
  7

 75
    16
147
1.0
 76
     1
 77
     2
 78
   300
148
-26.25461124795212
149
-20.16000981431432
100
AcDbLayout
  1
Layout1
 70
     0
 71
     1
 10
-0.3306119115190196
 20
-0.2812499079328949
 11
10.66938784818509
 21
8.218749851771214
 12
0.0
 22
0.0
 32
0.0
 14
-0.0909266185249429
 24
-0.0960387923252242
 34
-0.0015258207003583
 15
10.39445523190006
 25
7.99851969418907
 35
0.0000000349246037
146
0.0
 13
0.0
 23
0.0
 33
0.0
 16
1.0
 26
0.0
 36
0.0
 17
0.0
 27
1.0
 37
0.0
 76
     0
330
B
331
C8
1001
ACAD_PSEXT
1000
Foxit PDF Printer
1000
Foxit PDF Printer Driver
1000
FOXIT_PDF
1000

1070
     0
  0
LAYOUT
  5
20
102
{ACAD_REACTORS
330
1E
102
}
330
1E
100
AcDbPlotSettings
  1

  2

  4

  6

 40
0.0
 41
0.0
 42
0.0
 43
0.0
 44
0.0
 45
0.0
 46
0.0
 47
0.0
 48
0.0
 49
0.0
140
0.0
141
0.0
142
1.0
143
1.0
 70
  1024
 72
     0
 73
     0
 74
     0
  7

 75
     0
147
1.0
 76
     0
 77
     2
 78
   300
148
0.0
149
0.0
100
AcDbLayout
  1
Model
 70
     0
 71
     0
 10
0.0
 20
0.0
 11
0.0
 21
0.0
 12
0.0
 22
0.0
 32
0.0
 14
0.0
 24
0.0
 34
0.0
 15
0.0
 25
0.0
 35
0.0
146
0.0
 13
0.0
 23
0.0
 33
0.0
 16
0.0
 26
0.0
 36
0.0
 17
0.0
 27
0.0
 37
0.0
 76
     0
330
A
  0
MATERIAL
  5
AE
102
{ACAD_XDICTIONARY
360
13D
102
}
102
{ACAD_REACTORS
330
AC
102
}
330
AC
100
AcDbMaterial
  1
ByBlock
 73
     1
 78
     1
172
     1
176
     1
270
     1
274
     1
  0
MATERIAL
  5
AD
102
{ACAD_XDICTIONARY
360
13B
102
}
102
{ACAD_REACTORS
330
AC
102
}
330
AC
100
AcDbMaterial
  1
ByLayer
 73
     1
 78
     1
172
     1
176
     1
270
     1
274
     1
  0
MATERIAL
  5
AF
102
{ACAD_XDICTIONARY
360
13F
102
}
102
{ACAD_REACTORS
330
AC
102
}
330
AC
100
AcDbMaterial
  1
Global
 73
     1
 78
     1
172
     1
176
     1
270
     1
274
     1
  0
MLEADERSTYLE
  5
F6
102
{ACAD_REACTORS
330
F5
102
}
330
F5
100
AcDbMLeaderStyle
170
     2
171
     1
172
     0
 90
        2
 40
0.0
 41
0.0
173
     1
 91
-1056964608
340
11
 92
       -2
290
     1
 42
0.09
291
     1
 43
0.36
  3
Standard
 44
0.18
300

342
17
174
     1
178
     6
175
     1
176
     0
 93
-1056964608
 45
0.18
292
     0
297
     0
 46
0.18
 94
-1056964608
 47
1.0
 49
1.0
140
1.0
293
     1
141
0.0
294
     1
177
     0
142
1.0
295
     0
296
     0
143
0.125
1001
ACAD_MLEADERVER
1070
     2
  0
MLINESTYLE
  5
1C
102
{ACAD_REACTORS
330
1B
102
}
330
1B
100
AcDbMlineStyle
  2
STANDARD
 70
     0
  3

 62
     0
 51
90.0
 52
90.0
 71
     2
 49
0.5
 62
   256
  6
BYLAYER
 49
-0.5
 62
   256
  6
BYLAYER
  0
ACDBPLACEHOLDER
  5
1D
102
{ACAD_REACTORS
330
1F
102
}
330
1F
  0
SCALE
  5
D4
102
{ACAD_REACTORS
330
D3
102
}
330
D3
100
AcDbScale
 70
     0
300
1:1
140
1.0
141
1.0
290
     1
  0
SCALE
  5
D5
102
{ACAD_REACTORS
330
D3
102
}
330
D3
100
AcDbScale
 70
     0
300
1:2
140
1.0
141
2.0
290
     0
  0
SCALE
  5
D6
102
{ACAD_REACTORS
330
D3
102
}
330
D3
100
AcDbScale
 70
     0
300
1:4
140
1.0
141
4.0
290
     0
  0
SCALE
  5
D7
102
{ACAD_REACTORS
330
D3
102
}
330
D3
100
AcDbScale
 70
     0
300
1:5
140
1.0
141
5.0
290
     0
  0
SCALE
  5
D8
102
{ACAD_REACTORS
330
D3
102
}
330
D3
100
AcDbScale
 70
     0
300
1:8
140
1.0
141
8.0
290
     0
  0
SCALE
  5
D9
102
{ACAD_REACTORS
330
D3
102
}
330
D3
100
AcDbScale
 70
     0
300
1:10
140
1.0
141
10.0
290
     0
  0
SCALE
  5
DA
102
{ACAD_REACTORS
330
D3
102
}
330
D3
100
AcDbScale
 70
     0
300
1:16
140
1.0
141
16.0
290
     0
  0
SCALE
  5
DB
102
{ACAD_REACTORS
330
D3
102
}
330
D3
100
AcDbScale
 70
     0
300
1:20
140
1.0
141
20.0
290
     0
  0
SCALE
  5
DC
102
{ACAD_REACTORS
330
D3
102
}
330
D3
100
AcDbScale
 70
     0
300
1:30
140
1.0
141
30.0
290
     0
  0
SCALE
  5
DD
102
{ACAD_REACTORS
330
D3
102
}
330
D3
100
AcDbScale
 70
     0
300
1:40
140
1.0
141
40.0
290
     0
  0
SCALE
  5
DE
102
{ACAD_REACTORS
330
D3
102
}
330
D3
100
AcDbScale
 70
     0
300
1:50
140
1.0
141
50.0
290
     0
  0
SCALE
  5
DF
102
{ACAD_REACTORS
330
D3
102
}
330
D3
100
AcDbScale
 70
     0
300
1:100
140
1.0
141
100.0
290
     0
  0
SCALE
  5
E0
102
{ACAD_REACTORS
330
D3
102
}
330
D3
100
AcDbScale
 70
     0
300
2:1
140
2.0
141
1.0
290
     0
  0
SCALE
  5
E1
102
{ACAD_REACTORS
330
D3
102
}
330
D3
100
AcDbScale
 70
     0
300
4:1
140
4.0
141
1.0
290
     0
  0
SCALE
  5
E2
102
{ACAD_REACTORS
330
D3
102
}
330
D3
100
AcDbScale
 70
     0
300
8:1
140
8.0
141
1.0
290
     0
  0
SCALE
  5
E3
102
{ACAD_REACTORS
330
D3
102
}
330
D3
100
AcDbScale
 70
     0
300
10:1
140
10.0
141
1.0
290
     0
  0
SCALE
  5
E4
102
{ACAD_REACTORS
330
D3
102
}
330
D3
100
AcDbScale
 70
     0
300
100:1
140
100.0
141
1.0
290
     0
  0
SCALE
  5
E5
102
{ACAD_REACTORS
330
D3
102
}
330
D3
100
AcDbScale
 70
     0
300
1/128" = 1'-0"
140
0.0078125
141
12.0
290
     0
  0
SCALE
  5
E6
102
{ACAD_REACTORS
330
D3
102
}
330
D3
100
AcDbScale
 70
     0
300
1/64" = 1'-0"
140
0.015625
141
12.0
290
     0
  0
SCALE
  5
E7
102
{ACAD_REACTORS
330
D3
102
}
330
D3
100
AcDbScale
 70
     0
300
1/32" = 1'-0"
140
0.03125
141
12.0
290
     0
  0
SCALE
  5
E8
102
{ACAD_REACTORS
330
D3
102
}
330
D3
100
AcDbScale
 70
     0
300
1/16" = 1'-0"
140
0.0625
141
12.0
290
     0
  0
SCALE
  5
E9
102
{ACAD_REACTORS
330
D3
102
}
330
D3
100
AcDbScale
 70
     0
300
3/32" = 1'-0"
140
0.09375
141
12.0
290
     0
  0
SCALE
  5
EA
102
{ACAD_REACTORS
330
D3
102
}
330
D3
100
AcDbScale
 70
     0
300
1/8" = 1'-0"
140
0.125
141
12.0
290
     0
  0
SCALE
  5
EB
102
{ACAD_REACTORS
330
D3
102
}
330
D3
100
AcDbScale
 70
     0
300
3/16" = 1'-0"
140
0.1875
141
12.0
290
     0
  0
SCALE
  5
EC
102
{ACAD_REACTORS
330
D3
102
}
330
D3
100
AcDbScale
 70
     0
300
1/4" = 1'-0"
140
0.25
141
12.0
290
     0
  0
SCALE
  5
ED
102
{ACAD_REACTORS
330
D3
102
}
330
D3
100
AcDbScale
 70
     0
300
3/8" = 1'-0"
140
0.375
141
12.0
290
     0
  0
SCALE
  5
EE
102
{ACAD_REACTORS
330
D3
102
}
330
D3
100
AcDbScale
 70
     0
300
1/2" = 1'-0"
140
0.5
141
12.0
290
     0
  0
SCALE
  5
EF
102
{ACAD_REACTORS
330
D3
102
}
330
D3
100
AcDbScale
 70
     0
300
3/4" = 1'-0"
140
0.75
141
12.0
290
     0
  0
SCALE
  5
F0
102
{ACAD_REACTORS
330
D3
102
}
330
D3
100
AcDbScale
 70
     0
300
1" = 1'-0"
140
1.0
141
12.0
290
     0
  0
SCALE
  5
F1
102
{ACAD_REACTORS
330
D3
102
}
330
D3
100
AcDbScale
 70
     0
300
1-1/2" = 1'-0"
140
1.5
141
12.0
290
     0
  0
SCALE
  5
F2
102
{ACAD_REACTORS
330
D3
102
}
330
D3
100
AcDbScale
 70
     0
300
3" = 1'-0"
140
3.0
141
12.0
290
     0
  0
SCALE
  5
F3
102
{ACAD_REACTORS
330
D3
102
}
330
D3
100
AcDbScale
 70
     0
300
6" = 1'-0"
140
6.0
141
12.0
290
     0
  0
SCALE
  5
F4
102
{ACAD_REACTORS
330
D3
102
}
330
D3
100
AcDbScale
 70
     0
300
1'-0" = 1'-0"
140
12.0
141
12.0
290
     0
  0
TABLESTYLE
  5
C3
102
{ACAD_XDICTIONARY
360
138
102
}
102
{ACAD_REACTORS
330
C2
102
}
330
C2
100
AcDbTableStyle
  3
Standard
 70
     0
 71
     0
 40
0.06
 41
0.06
280
     0
281
     0
  7
Standard
140
0.18
170
     2
 62
     0
 63
     7
283
     0
274
    -2
284
     1
 64
     0
275
    -2
285
     1
 65
     0
276
    -2
286
     1
 66
     0
277
    -2
287
     1
 67
     0
278
    -2
288
     1
 68
     0
279
    -2
289
     1
 69
     0
  7
Standard
140
0.25
170
     5
 62
     0
 63
     7
283
     0
274
    -2
284
     1
 64
     0
275
    -2
285
     1
 65
     0
276
    -2
286
     1
 66
     0
277
    -2
287
     1
 67
     0
278
    -2
288
     1
 68
     0
279
    -2
289
     1
 69
     0
  7
Standard
140
0.18
170
     5
 62
     0
 63
     7
283
     0
274
    -2
284
     1
 64
     0
275
    -2
285
     1
 65
     0
276
    -2
286
     1
 66
     0
277
    -2
287
     1
 67
     0
278
    -2
288
     1
 68
     0
279
    -2
289
     1
 69
     0
  0
VISUALSTYLE
  5
B6
102
{ACAD_REACTORS
330
B0
102
}
330
B0
100
AcDbVisualStyle
  2
2dWireframe
 70
     4
 71
     0
 72
     2
 73
     0
 90
        0
 40
-0.6
 41
-30.0
 62
     5
 63
     7
421
 16777215
 74
     1
 91
        4
 64
     7
 65
   257
 75
     1
175
     1
 42
1.0
 92
        0
 66
   257
 43
1.0
 76
     1
 77
     6
 78
     2
 67
     7
 79
     5
170
     0
171
     0
290
     0
174
     0
 93
        1
 44
0.0
173
     0
291
     0
 45
0.0
1001
ACAD
1000
AcDbSavedByObjectVersion
1070
     0
  0
VISUALSTYLE
  5
B8
102
{ACAD_REACTORS
330
B0
102
}
330
B0
100
AcDbVisualStyle
  2
3D Hidden
 70
     6
 71
     1
 72
     2
 73
     2
 90
        0
 40
-0.6
 41
-30.0
 62
     5
 63
     7
421
 16777215
 74
     2
 91
        2
 64
     7
 65
   257
 75
     2
175
     1
 42
40.0
 92
        0
 66
   257
 43
1.0
 76
     1
 77
     6
 78
     2
 67
     7
 79
     3
170
     0
171
     0
290
     0
174
     0
 93
        1
 44
0.0
173
     0
291
     0
 45
0.0
1001
ACAD
1000
AcDbSavedByObjectVersion
1070
     0
  0
VISUALSTYLE
  5
B7
102
{ACAD_REACTORS
330
B0
102
}
330
B0
100
AcDbVisualStyle
  2
3dWireframe
 70
     5
 71
     0
 72
     2
 73
     0
 90
        0
 40
-0.6
 41
-30.0
 62
     5
 63
     7
421
 16777215
 74
     1
 91
        4
 64
     7
 65
   257
 75
     1
175
     1
 42
1.0
 92
        0
 66
   257
 43
1.0
 76
     1
 77
     6
 78
     2
 67
     7
 79
     5
170
     0
171
     0
290
     0
174
     0
 93
        1
 44
0.0
173
     0
291
     0
 45
0.0
1001
ACAD
1000
AcDbSavedByObjectVersion
1070
     0
  0
VISUALSTYLE
  5
B5
102
{ACAD_REACTORS
330
B0
102
}
330
B0
100
AcDbVisualStyle
  2
Basic
 70
     7
 71
     1
 72
     0
 73
     1
 90
        0
 40
-0.6
 41
-30.0
 62
     5
 63
     7
421
 16777215
 74
     0
 91
        4
 64
     7
 65
   257
 75
     1
175
     1
 42
1.0
 92
        8
 66
     7
 43
1.0
 76
     1
 77
     6
 78
     2
 67
     7
 79
     5
170
     0
171
     0
290
     0
174
     0
 93
        1
 44
0.0
173
     0
291
     1
 45
0.0
1001
ACAD
1000
AcDbSavedByObjectVersion
1070
     0
  0
VISUALSTYLE
  5
BC
102
{ACAD_REACTORS
330
B0
102
}
330
B0
100
AcDbVisualStyle
  2
Brighten
 70
    12
 71
     2
 72
     2
 73
     0
 90
        0
 40
-0.6
 41
-30.0
 62
     5
 63
     7
421
 16777215
 74
     1
 91
        4
 64
     7
 65
   257
 75
     1
175
     1
 42
1.0
 92
        8
 66
     7
 43
1.0
 76
     1
 77
     6
 78
     2
 67
     7
 79
     5
170
     0
171
     0
290
     0
174
     0
 93
        1
 44
50.0
173
     0
291
     1
 45
0.0
1001
ACAD
1000
AcDbSavedByObjectVersion
1070
     0
  0
VISUALSTYLE
  5
C0
102
{ACAD_REACTORS
330
B0
102
}
330
B0
100
AcDbVisualStyle
  2
ColorChange
 70
    16
 71
     2
 72
     2
 73
     3
 90
        0
 40
-0.6
 41
-30.0
 62
     5
 63
     8
421
  8421504
 74
     1
 91
        4
 64
     7
 65
   257
 75
     1
175
     1
 42
1.0
 92
        8
 66
     8
424
  8421504
 43
1.0
 76
     1
 77
     6
 78
     2
 67
     7
 79
     5
170
     0
171
     0
290
     0
174
     0
 93
        1
 44
0.0
173
     0
291
     1
 45
0.0
1001
ACAD
1000
AcDbSavedByObjectVersion
1070
     0
  0
VISUALSTYLE
  5
B9
102
{ACAD_REACTORS
330
B0
102
}
330
B0
100
AcDbVisualStyle
  2
Conceptual
 70
     9
 71
     3
 72
     2
 73
     0
 90
        0
 40
-0.6
 41
-30.0
 62
     5
 63
     7
421
 16777215
 74
     2
 91
        2
 64
     7
 65
   257
 75
     1
175
     1
 42
40.0
 92
        8
 66
     7
 43
1.0
 76
     1
 77
     6
 78
     2
 67
     7
 79
     3
170
     0
171
     0
290
     0
174
     0
 93
        1
 44
0.0
173
     0
291
     0
 45
0.0
1001
ACAD
1000
AcDbSavedByObjectVersion
1070
     0
  0
VISUALSTYLE
  5
BB
102
{ACAD_REACTORS
330
B0
102
}
330
B0
100
AcDbVisualStyle
  2
Dim
 70
    11
 71
     2
 72
     2
 73
     0
 90
        0
 40
-0.6
 41
-30.0
 62
     5
 63
     7
421
 16777215
 74
     1
 91
        4
 64
     7
 65
   257
 75
     1
175
     1
 42
1.0
 92
        8
 66
     7
 43
1.0
 76
     1
 77
     6
 78
     2
 67
     7
 79
     5
170
     0
171
     0
290
     0
174
     0
 93
        1
 44
-50.0
173
     0
291
     1
 45
0.0
1001
ACAD
1000
AcDbSavedByObjectVersion
1070
     0
  0
VISUALSTYLE
  5
BF
102
{ACAD_REACTORS
330
B0
102
}
330
B0
100
AcDbVisualStyle
  2
Facepattern
 70
    15
 71
     2
 72
     2
 73
     0
 90
        0
 40
-0.6
 41
-30.0
 62
     5
 63
     7
421
 16777215
 74
     1
 91
        4
 64
     7
 65
   257
 75
     1
175
     1
 42
1.0
 92
        8
 66
     7
 43
1.0
 76
     1
 77
     6
 78
     2
 67
     7
 79
     5
170
     0
171
     0
290
     0
174
     0
 93
        1
 44
0.0
173
     0
291
     1
 45
0.0
1001
ACAD
1000
AcDbSavedByObjectVersion
1070
     0
  0
VISUALSTYLE
  5
B1
102
{ACAD_REACTORS
330
B0
102
}
330
B0
100
AcDbVisualStyle
  2
Flat
 70
     0
 71
     2
 72
     1
 73
     1
 90
        2
 40
-0.6
 41
30.0
 62
     5
 63
     7
421
 16777215
 74
     0
 91
        4
 64
     7
 65
   257
 75
     1
175
     1
 42
1.0
 92
        8
 66
     7
 43
1.0
 76
     1
 77
     6
 78
     2
 67
     7
 79
     5
170
     0
171
     0
290
     0
174
     0
 93
       13
 44
0.0
173
     0
291
     1
 45
0.0
1001
ACAD
1000
AcDbSavedByObjectVersion
1070
     0
  0
VISUALSTYLE
  5
B2
102
{ACAD_REACTORS
330
B0
102
}
330
B0
100
AcDbVisualStyle
  2
FlatWithEdges
 70
     1
 71
     2
 72
     1
 73
     1
 90
        2
 40
-0.6
 41
30.0
 62
     5
 63
     7
421
 16777215
 74
     1
 91
        4
 64
     7
 65
   257
 75
     1
175
     1
 42
1.0
 92
        0
 66
   257
 43
1.0
 76
     1
 77
     6
 78
     2
 67
     7
 79
     5
170
     0
171
     0
290
     0
174
     0
 93
       13
 44
0.0
173
     0
291
     1
 45
0.0
1001
ACAD
1000
AcDbSavedByObjectVersion
1070
     0
  0
VISUALSTYLE
  5
B3
102
{ACAD_REACTORS
330
B0
102
}
330
B0
100
AcDbVisualStyle
  2
Gouraud
 70
     2
 71
     2
 72
     2
 73
     1
 90
        2
 40
-0.6
 41
30.0
 62
     5
 63
     7
421
 16777215
 74
     0
 91
        4
 64
     7
 65
   257
 75
     1
175
     1
 42
1.0
 92
        0
 66
     7
 43
1.0
 76
     1
 77
     6
 78
     2
 67
     7
 79
     5
170
     0
171
     0
290
     0
174
     0
 93
       13
 44
0.0
173
     0
291
     1
 45
0.0
1001
ACAD
1000
AcDbSavedByObjectVersion
1070
     0
  0
VISUALSTYLE
  5
B4
102
{ACAD_REACTORS
330
B0
102
}
330
B0
100
AcDbVisualStyle
  2
GouraudWithEdges
 70
     3
 71
     2
 72
     2
 73
     1
 90
        2
 40
-0.6
 41
30.0
 62
     5
 63
     7
421
 16777215
 74
     1
 91
        4
 64
     7
 65
   257
 75
     1
175
     1
 42
1.0
 92
        0
 66
   257
 43
1.0
 76
     1
 77
     6
 78
     2
 67
     7
 79
     5
170
     0
171
     0
290
     0
174
     0
 93
       13
 44
0.0
173
     0
291
     1
 45
0.0
1001
ACAD
1000
AcDbSavedByObjectVersion
1070
     0
  0
VISUALSTYLE
  5
BE
102
{ACAD_REACTORS
330
B0
102
}
330
B0
100
AcDbVisualStyle
  2
Linepattern
 70
    14
 71
     2
 72
     2
 73
     0
 90
        0
 40
-0.6
 41
-30.0
 62
     5
 63
     7
421
 16777215
 74
     1
 91
        4
 64
     7
 65
   257
 75
     7
175
     7
 42
1.0
 92
        8
 66
     7
 43
1.0
 76
     1
 77
     6
 78
     2
 67
     7
 79
     5
170
     0
171
     0
290
     0
174
     0
 93
        1
 44
0.0
173
     0
291
     1
 45
0.0
1001
ACAD
1000
AcDbSavedByObjectVersion
1070
     0
  0
VISUALSTYLE
  5
BA
102
{ACAD_REACTORS
330
B0
102
}
330
B0
100
AcDbVisualStyle
  2
Realistic
 70
     8
 71
     2
 72
     2
 73
     0
 90
        0
 40
-0.6
 41
-30.0
 62
     5
 63
     7
421
 16777215
 74
     1
 91
        0
 64
     7
 65
   257
 75
     1
175
     1
 42
1.0
 92
        8
 66
     8
424
  7895160
 43
1.0
 76
     1
 77
     6
 78
     2
 67
     7
 79
     5
170
     0
171
     0
290
     0
174
     0
 93
       13
 44
0.0
173
     0
291
     0
 45
0.0
1001
ACAD
1000
AcDbSavedByObjectVersion
1070
     0
  0
VISUALSTYLE
  5
BD
102
{ACAD_REACTORS
330
B0
102
}
330
B0
100
AcDbVisualStyle
  2
Thicken
 70
    13
 71
     2
 72
     2
 73
     0
 90
        0
 40
-0.6
 41
-30.0
 62
     5
 63
     7
421
 16777215
 74
     1
 91
        4
 64
     7
 65
   257
 75
     1
175
     1
 42
1.0
 92
       12
 66
     7
 43
1.0
 76
     1
 77
     6
 78
     2
 67
     7
 79
     5
170
     0
171
     0
290
     0
174
     0
 93
        1
 44
0.0
173
     0
291
     1
 45
0.0
1001
ACAD
1000
AcDbSavedByObjectVersion
1070
     0
  0
DICTIONARYVAR
  5
137
102
{ACAD_REACTORS
330
D0
102
}
330
D0
100
DictionaryVariables
280
     0
  1
1:1
  0
DICTIONARYVAR
  5
136
102
{ACAD_REACTORS
330
D0
102
}
330
D0
100
DictionaryVariables
280
     0
  1
STANDARD
  0
DICTIONARYVAR
  5
D1
102
{ACAD_REACTORS
330
D0
102
}
330
D0
100
DictionaryVariables
280
     0
  1
STANDARD
  0
XRECORD
  5
123
102
{ACAD_REACTORS
330
122
102
}
330
122
100
AcDbXrecord
280
     1
  0
DICTIONARY
  5
13D
330
AE
100
AcDbDictionary
280
     1
281
     1
  3
ACAD_XREC_ROUNDTRIP
360
13E
  0
DICTIONARY
  5
13B
330
AD
100
AcDbDictionary
280
     1
281
     1
  3
ACAD_XREC_ROUNDTRIP
360
13C
  0
DICTIONARY
  5
13F
330
AF
100
AcDbDictionary
280
     1
281
     1
  3
ACAD_XREC_ROUNDTRIP
360
140
  0
DICTIONARY
  5
138
330
C3
100
AcDbDictionary
280
     1
281
     1
  3
ACAD_ROUNDTRIP_2008_TABLESTYLE_CELLSTYLEMAP
360
139
  3
ACAD_XREC_ROUNDTRIP
360
141
  0
XRECORD
  5
13E
102
{ACAD_REACTORS
330
13D
102
}
330
13D
100
AcDbXrecord
280
     1
102
MATERIAL
148
0.0
149
0.0
149
0.0
 93
        0
 94
       63
282
     0
 72
     1
 77
     1
171
     1
175
     1
179
     1
273
     0
  0
XRECORD
  5
13C
102
{ACAD_REACTORS
330
13B
102
}
330
13B
100
AcDbXrecord
280
     1
102
MATERIAL
148
0.0
149
0.0
149
0.0
 93
        0
 94
       63
282
     0
 72
     1
 77
     1
171
     1
175
     1
179
     1
273
     0
  0
XRECORD
  5
140
102
{ACAD_REACTORS
330
13F
102
}
330
13F
100
AcDbXrecord
280
     1
102
MATERIAL
148
0.0
149
0.0
149
0.0
 93
        0
 94
       63
282
     0
 72
     1
 77
     1
171
     1
175
     1
179
     1
273
     0
  0
CELLSTYLEMAP
  5
139
102
{ACAD_REACTORS
330
138
102
}
330
138
100
AcDbCellStyleMap
 90
        3
300
CELLSTYLE
  1
TABLEFORMAT_BEGIN
 90
        5
170
     1
 91
        0
 92
    32768
 62
   257
 93
        1
300
CONTENTFORMAT
  1
CONTENTFORMAT_BEGIN
 90
        0
 91
        0
 92
      512
 93
        0
300

 40
0.0
140
1.0
 94
        5
 62
     0
340
17
144
0.25
309
CONTENTFORMAT_END
171
     0
 94
        6
 95
        1
302
GRIDFORMAT
  1
GRIDFORMAT_BEGIN
 90
        0
 91
        1
 62
     0
 92
       -2
340
0
 93
        0
 40
0.045
309
GRIDFORMAT_END
 95
        2
302
GRIDFORMAT
  1
GRIDFORMAT_BEGIN
 90
        0
 91
        1
 62
     0
 92
       -2
340
0
 93
        0
 40
0.045
309
GRIDFORMAT_END
 95
        4
302
GRIDFORMAT
  1
GRIDFORMAT_BEGIN
 90
        0
 91
        1
 62
     0
 92
       -2
340
0
 93
        0
 40
0.045
309
GRIDFORMAT_END
 95
        8
302
GRIDFORMAT
  1
GRIDFORMAT_BEGIN
 90
        0
 91
        1
 62
     0
 92
       -2
340
0
 93
        0
 40
0.045
309
GRIDFORMAT_END
 95
       16
302
GRIDFORMAT
  1
GRIDFORMAT_BEGIN
 90
        0
 91
        1
 62
     0
 92
       -2
340
0
 93
        0
 40
0.045
309
GRIDFORMAT_END
 95
       32
302
GRIDFORMAT
  1
GRIDFORMAT_BEGIN
 90
        0
 91
        1
 62
     0
 92
       -2
340
0
 93
        0
 40
0.045
309
GRIDFORMAT_END
309
TABLEFORMAT_END
  1
CELLSTYLE_BEGIN
 90
        1
 91
        1
300
_TITLE
309
CELLSTYLE_END
300
CELLSTYLE
  1
TABLEFORMAT_BEGIN
 90
        5
170
     1
 91
        0
 92
        0
 62
   257
 93
        1
300
CONTENTFORMAT
  1
CONTENTFORMAT_BEGIN
 90
        0
 91
        0
 92
      512
 93
        0
300

 40
0.0
140
1.0
 94
        5
 62
     0
340
17
144
0.18
309
CONTENTFORMAT_END
171
     0
 94
        6
 95
        1
302
GRIDFORMAT
  1
GRIDFORMAT_BEGIN
 90
        0
 91
        1
 62
     0
 92
       -2
340
0
 93
        0
 40
0.045
309
GRIDFORMAT_END
 95
        2
302
GRIDFORMAT
  1
GRIDFORMAT_BEGIN
 90
        0
 91
        1
 62
     0
 92
       -2
340
0
 93
        0
 40
0.045
309
GRIDFORMAT_END
 95
        4
302
GRIDFORMAT
  1
GRIDFORMAT_BEGIN
 90
        0
 91
        1
 62
     0
 92
       -2
340
0
 93
        0
 40
0.045
309
GRIDFORMAT_END
 95
        8
302
GRIDFORMAT
  1
GRIDFORMAT_BEGIN
 90
        0
 91
        1
 62
     0
 92
       -2
340
0
 93
        0
 40
0.045
309
GRIDFORMAT_END
 95
       16
302
GRIDFORMAT
  1
GRIDFORMAT_BEGIN
 90
        0
 91
        1
 62
     0
 92
       -2
340
0
 93
        0
 40
0.045
309
GRIDFORMAT_END
 95
       32
302
GRIDFORMAT
  1
GRIDFORMAT_BEGIN
 90
        0
 91
        1
 62
     0
 92
       -2
340
0
 93
        0
 40
0.045
309
GRIDFORMAT_END
309
TABLEFORMAT_END
  1
CELLSTYLE_BEGIN
 90
        2
 91
        1
300
_HEADER
309
CELLSTYLE_END
300
CELLSTYLE
  1
TABLEFORMAT_BEGIN
 90
        5
170
     1
 91
        0
 92
        0
 62
   257
 93
        1
300
CONTENTFORMAT
  1
CONTENTFORMAT_BEGIN
 90
        0
 91
        0
 92
      512
 93
        0
300

 40
0.0
140
1.0
 94
        2
 62
     0
340
17
144
0.18
309
CONTENTFORMAT_END
171
     0
 94
        6
 95
        1
302
GRIDFORMAT
  1
GRIDFORMAT_BEGIN
 90
        0
 91
        1
 62
     0
 92
       -2
340
0
 93
        0
 40
0.045
309
GRIDFORMAT_END
 95
        2
302
GRIDFORMAT
  1
GRIDFORMAT_BEGIN
 90
        0
 91
        1
 62
     0
 92
       -2
340
0
 93
        0
 40
0.045
309
GRIDFORMAT_END
 95
        4
302
GRIDFORMAT
  1
GRIDFORMAT_BEGIN
 90
        0
 91
        1
 62
     0
 92
       -2
340
0
 93
        0
 40
0.045
309
GRIDFORMAT_END
 95
        8
302
GRIDFORMAT
  1
GRIDFORMAT_BEGIN
 90
        0
 91
        1
 62
     0
 92
       -2
340
0
 93
        0
 40
0.045
309
GRIDFORMAT_END
 95
       16
302
GRIDFORMAT
  1
GRIDFORMAT_BEGIN
 90
        0
 91
        1
 62
     0
 92
       -2
340
0
 93
        0
 40
0.045
309
GRIDFORMAT_END
 95
       32
302
GRIDFORMAT
  1
GRIDFORMAT_BEGIN
 90
        0
 91
        1
 62
     0
 92
       -2
340
0
 93
        0
 40
0.045
309
GRIDFORMAT_END
309
TABLEFORMAT_END
  1
CELLSTYLE_BEGIN
 90
        3
 91
        2
300
_DATA
309
CELLSTYLE_END
  0
XRECORD
  5
141
102
{ACAD_REACTORS
330
138
102
}
330
138
100
AcDbXrecord
280
     1
102
ACAD_ROUNDTRIP_PRE2007_TABLESTYLE
 90
      512
 91
        0
  1

 92
      512
 93
        0
  2

 94
      512
 95
        0
  3

  0
ENDSEC
  0
EOF
