  0
SECTION
  2
HEADER
  9
$ACADVER
  1
AC1018
  9
$ACADMAINTVER
 70
   104
  9
$DWGCODEPAGE
  3
ANSI_1252
  9
$LASTSAVEDBY
  1
EARL
  9
$INSBASE
 10
0.0
 20
0.0
 30
0.0
  9
$EXTMIN
 10
-7.259189327895039
 20
-0.4340724496772176
 30
0.0
  9
$EXTMAX
 10
4.583353959847766
 20
3.981407842285782
 30
0.0
  9
$LIMMIN
 10
0.0
 20
0.0
  9
$LIMMAX
 10
0.0
 20
0.0
  9
$ORTHOMODE
 70
     1
  9
$REGENMODE
 70
     1
  9
$FILLMODE
 70
     1
  9
$QTEXTMODE
 70
     0
  9
$MIRRTEXT
 70
     1
  9
$LTSCALE
 40
1.0
  9
$ATTMODE
 70
     1
  9
$TEXTSIZE
 40
0.0
  9
$TRACEWID
 40
0.05
  9
$TEXTSTYLE
  7
Standard
  9
$CLAYER
  8
0
  9
$CELTYPE
  6
Continuous
  9
$CECOLOR
 62
   256
  9
$CELTSCALE
 40
1.0
  9
$DISPSILH
 70
     0
  9
$DIMSCALE
 40
1.0
  9
$DIMASZ
 40
0.18
  9
$DIMEXO
 40
0.0625
  9
$DIMDLI
 40
0.38
  9
$DIMRND
 40
0.0
  9
$DIMDLE
 40
0.0
  9
$DIMEXE
 40
0.18
  9
$DIMTP
 40
0.0
  9
$DIMTM
 40
0.0
  9
$DIMTXT
 40
0.18
  9
$DIMCEN
 40
0.09
  9
$DIMTSZ
 40
0.0
  9
$DIMTOL
 70
     0
  9
$DIMLIM
 70
     0
  9
$DIMTIH
 70
     1
  9
$DIMTOH
 70
     1
  9
$DIMSE1
 70
     0
  9
$DIMSE2
 70
     0
  9
$DIMTAD
 70
     0
  9
$DIMZIN
 70
     0
  9
$DIMBLK
  1

  9
$DIMASO
 70
     1
  9
$DIMSHO
 70
     1
  9
$DIMPOST
  1

  9
$DIMAPOST
  1

  9
$DIMALT
 70
     0
  9
$DIMALTD
 70
     2
  9
$DIMALTF
 40
25.4
  9
$DIMLFAC
 40
1.0
  9
$DIMTOFL
 70
     0
  9
$DIMTVP
 40
0.0
  9
$DIMTIX
 70
     0
  9
$DIMSOXD
 70
     0
  9
$DIMSAH
 70
     0
  9
$DIMBLK1
  1

  9
$DIMBLK2
  1

  9
$DIMSTYLE
  2
Standard
  9
$DIMCLRD
 70
     0
  9
$DIMCLRE
 70
     0
  9
$DIMCLRT
 70
     0
  9
$DIMTFAC
 40
1.0
  9
$DIMGAP
 40
0.09
  9
$DIMJUST
 70
     0
  9
$DIMSD1
 70
     0
  9
$DIMSD2
 70
     0
  9
$DIMTOLJ
 70
     1
  9
$DIMTZIN
 70
     0
  9
$DIMALTZ
 70
     0
  9
$DIMALTTZ
 70
     0
  9
$DIMUPT
 70
     0
  9
$DIMDEC
 70
     4
  9
$DIMTDEC
 70
     4
  9
$DIMALTU
 70
     2
  9
$DIMALTTD
 70
     2
  9
$DIMTXSTY
  7
Standard
  9
$DIMAUNIT
 70
     0
  9
$DIMADEC
 70
     0
  9
$DIMALTRND
 40
0.0
  9
$DIMAZIN
 70
     0
  9
$DIMDSEP
 70
    46
  9
$DIMATFIT
 70
     0
  9
$DIMFRAC
 70
     0
  9
$DIMLDRBLK
  1

  9
$DIMLUNIT
 70
     2
  9
$DIMLWD
 70
    -2
  9
$DIMLWE
 70
    -2
  9
$DIMTMOVE
 70
     0
  9
$LUNITS
 70
     2
  9
$LUPREC
 70
     4
  9
$SKETCHINC
 40
0.1
  9
$FILLETRAD
 40
0.0
  9
$AUNITS
 70
     0
  9
$AUPREC
 70
     0
  9
$MENU
  1
acad
  9
$ELEVATION
 40
0.0
  9
$PELEVATION
 40
0.0
  9
$THICKNESS
 40
0.0
  9
$LIMCHECK
 70
     0
  9
$CHAMFERA
 40
0.0
  9
$CHAMFERB
 40
0.0
  9
$CHAMFERC
 40
0.0
  9
$CHAMFERD
 40
0.0
  9
$SKPOLY
 70
     0
  9
$TDCREATE
 40
2454842.818923611
  9
$TDUCREATE
 40
2454842.985590278
  9
$TDUPDATE
 40
2455104.570137072
  9
$TDUUPDATE
 40
2455104.736803738
  9
$TDINDWG
 40
0.0014044792
  9
$TDUSRTIMER
 40
0.0014044792
  9
$USRTIMER
 70
     1
  9
$ANGBASE
 50
0.0
  9
$ANGDIR
 70
     0
  9
$PDMODE
 70
     0
  9
$PDSIZE
 40
0.0
  9
$PLINEWID
 40
0.0
  9
$SPLFRAME
 70
     0
  9
$SPLINETYPE
 70
     6
  9
$SPLINESEGS
 70
     8
  9
$HANDSEED
  5
205
  9
$SURFTAB1
 70
     6
  9
$SURFTAB2
 70
     6
  9
$SURFTYPE
 70
     6
  9
$SURFU
 70
     6
  9
$SURFV
 70
     6
  9
$UCSBASE
  2

  9
$UCSNAME
  2

  9
$UCSORG
 10
0.0
 20
0.0
 30
0.0
  9
$UCSXDIR
 10
1.0
 20
0.0
 30
0.0
  9
$UCSYDIR
 10
0.0
 20
1.0
 30
0.0
  9
$UCSORTHOREF
  2

  9
$UCSORTHOVIEW
 70
     0
  9
$UCSORGTOP
 10
0.0
 20
0.0
 30
0.0
  9
$UCSORGBOTTOM
 10
0.0
 20
0.0
 30
0.0
  9
$UCSORGLEFT
 10
0.0
 20
0.0
 30
0.0
  9
$UCSORGRIGHT
 10
0.0
 20
0.0
 30
0.0
  9
$UCSORGFRONT
 10
0.0
 20
0.0
 30
0.0
  9
$UCSORGBACK
 10
0.0
 20
0.0
 30
0.0
  9
$PUCSBASE
  2

  9
$PUCSNAME
  2

  9
$PUCSORG
 10
0.0
 20
0.0
 30
0.0
  9
$PUCSXDIR
 10
1.0
 20
0.0
 30
0.0
  9
$PUCSYDIR
 10
0.0
 20
1.0
 30
0.0
  9
$PUCSORTHOREF
  2

  9
$PUCSORTHOVIEW
 70
     0
  9
$PUCSORGTOP
 10
0.0
 20
0.0
 30
0.0
  9
$PUCSORGBOTTOM
 10
0.0
 20
0.0
 30
0.0
  9
$PUCSORGLEFT
 10
0.0
 20
0.0
 30
0.0
  9
$PUCSORGRIGHT
 10
0.0
 20
0.0
 30
0.0
  9
$PUCSORGFRONT
 10
0.0
 20
0.0
 30
0.0
  9
$PUCSORGBACK
 10
0.0
 20
0.0
 30
0.0
  9
$USERI1
 70
     0
  9
$USERI2
 70
     0
  9
$USERI3
 70
     0
  9
$USERI4
 70
     0
  9
$USERI5
 70
     0
  9
$USERR1
 40
0.0
  9
$USERR2
 40
0.0
  9
$USERR3
 40
0.0
  9
$USERR4
 40
0.0
  9
$USERR5
 40
0.0
  9
$WORLDVIEW
 70
     1
  9
$SHADEDGE
 70
     3
  9
$SHADEDIF
 70
    70
  9
$TILEMODE
 70
     0
  9
$MAXACTVP
 70
    16
  9
$PINSBASE
 10
0.0
 20
0.0
 30
0.0
  9
$PLIMCHECK
 70
     0
  9
$PEXTMIN
 10
-0.0556788165195279
 20
-0.0960387923252242
 30
-0.0015258207003583
  9
$PEXTMAX
 10
10.48257473691361
 20
7.99851969418907
 30
0.0000000349246037
  9
$PLIMMIN
 10
-0.3306119115190196
 20
-0.2812499079328949
  9
$PLIMMAX
 10
10.66938784818509
 20
8.218749851771214
  9
$UNITMODE
 70
     0
  9
$VISRETAIN
 70
     0
  9
$PLINEGEN
 70
     1
  9
$PSLTSCALE
 70
     0
  9
$TREEDEPTH
 70
  3020
  9
$CMLSTYLE
  2
Standard
  9
$CMLJUST
 70
     0
  9
$CMLSCALE
 40
1.0
  9
$PROXYGRAPHICS
 70
     0
  9
$MEASUREMENT
 70
     0
  9
$CELWEIGHT
370
     0
  9
$ENDCAPS
280
     0
  9
$JOINSTYLE
280
     0
  9
$LWDISPLAY
290
     0
  9
$INSUNITS
 70
     0
  9
$HYPERLINKBASE
  1

  9
$STYLESHEET
  1

  9
$XEDIT
290
     1
  9
$CEPSNTYPE
380
     0
  9
$PSTYLEMODE
290
     1
  9
$FINGERPRINTGUID
  2

  9
$VERSIONGUID
  2
{99A16BB0-D4FA-4EDB-A9B0-B9BB82730C89}
  9
$EXTNAMES
290
     1
  9
$PSVPSCALE
 40
0.0
  9
$OLESTARTUP
290
     0
  9
$SORTENTS
280
   127
  9
$INDEXCTL
280
     0
  9
$HIDETEXT
280
     0
  9
$XCLIPFRAME
290
     0
  9
$HALOGAP
280
     0
  9
$OBSCOLOR
 70
   257
  9
$OBSLTYPE
280
     0
  9
$INTERSECTIONDISPLAY
280
     0
  9
$INTERSECTIONCOLOR
 70
   257
  9
$DIMASSOC
280
     1
  9
$PROJECTNAME
  1

  0
ENDSEC
  0
SECTION
  2
CLASSES
  0
CLASS
  1
IMAGE
  2
AcDbRasterImage
  3
ISM
 90
     2175
 91
        0
280
     0
281
     1
  0
CLASS
  1
DICTIONARYVAR
  2
AcDbDictionaryVar
  3
ObjectDBX Classes
 90
        0
 91
        5
280
     0
281
     0
  0
CLASS
  1
RASTERVARIABLES
  2
AcDbRasterVariables
  3
ISM
 90
        0
 91
        0
280
     0
281
     0
  0
CLASS
  1
IMAGEDEF
  2
AcDbRasterImageDef
  3
ISM
 90
        0
 91
        0
280
     0
281
     0
  0
CLASS
  1
IMAGEDEF_REACTOR
  2
AcDbRasterImageDefReactor
  3
ISM
 90
        1
 91
        0
280
     0
281
     0
  0
CLASS
  1
IDBUFFER
  2
AcDbIdBuffer
  3
ObjectDBX Classes
 90
        0
 91
        0
280
     0
281
     0
  0
CLASS
  1
SPATIAL_FILTER
  2
AcDbSpatialFilter
  3
ObjectDBX Classes
 90
        0
 91
        0
280
     0
281
     0
  0
CLASS
  1
SORTENTSTABLE
  2
AcDbSortentsTable
  3
ObjectDBX Classes
 90
        0
 91
        1
280
     0
281
     0
  0
CLASS
  1
LAYER_INDEX
  2
AcDbLayerIndex
  3
ObjectDBX Classes
 90
        0
 91
        0
280
     0
281
     0
  0
CLASS
  1
SPATIAL_INDEX
  2
AcDbSpatialIndex
  3
ObjectDBX Classes
 90
        0
 91
        0
280
     0
281
     0
  0
CLASS
  1
OBJECT_PTR
  2
CAseDLPNTableRecord
  3
ASE-LPNTableRecord
 90
        1
 91
        0
280
     0
281
     0
  0
CLASS
  1
PLOTSETTINGS
  2
AcDbPlotSettings
  3
ObjectDBX Classes
 90
        0
 91
        0
280
     0
281
     0
  0
CLASS
  1
ACDBDICTIONARYWDFLT
  2
AcDbDictionaryWithDefault
  3
ObjectDBX Classes
 90
        0
 91
        1
280
     0
281
     0
  0
CLASS
  1
WIPEOUT
  2
AcDbWipeout
  3
"WipeOut|Product Desc: Object Enabler for WipeOut entity                        |Company: Autodesk, Inc.                        |WEB Address: www.autodesk.com"
 90
     2175
 91
        0
280
     0
281
     1
  0
CLASS
  1
WIPEOUTVARIABLES
  2
AcDbWipeoutVariables
  3
"WipeOut|Product Desc:     WipeOut Dbx Application|Company:          Autodesk, Inc.|WEB Address:      www.autodesk.com"
 90
        0
 91
        1
280
     0
281
     0
  0
CLASS
  1
RTEXT
  2
RText
  3
RText|AutoCAD Express Tool|expresstools@autodesk.com
 90
     3071
 91
        0
280
     0
281
     1
  0
CLASS
  1
ARCALIGNEDTEXT
  2
AcDbArcAlignedText
  3
ATEXT|AutoCAD Express Tool|expresstools@autodesk.com
 90
        0
 91
        0
280
     0
281
     1
  0
CLASS
  1
MATERIAL
  2
AcDbMaterial
  3
ObjectDBX Classes
 90
     1153
 91
        3
280
     0
281
     0
  0
CLASS
  1
VISUALSTYLE
  2
AcDbVisualStyle
  3
ObjectDBX Classes
 90
     4095
 91
       16
280
     0
281
     0
  0
CLASS
  1
TABLESTYLE
  2
AcDbTableStyle
  3
ObjectDBX Classes
 90
     4095
 91
        1
280
     0
281
     0
  0
CLASS
  1
SCALE
  2
AcDbScale
  3
ObjectDBX Classes
 90
     1153
 91
       33
280
     0
281
     0
  0
CLASS
  1
MLEADERSTYLE
  2
AcDbMLeaderStyle
  3
ACDB_MLEADERSTYLE_CLASS
 90
     4095
 91
        1
280
     0
281
     0
  0
CLASS
  1
CELLSTYLEMAP
  2
AcDbCellStyleMap
  3
ObjectDBX Classes
 90
     1152
 91
        2
280
     0
281
     0
  0
ENDSEC
  0
SECTION
  2
TABLES
  0
TABLE
  2
VPORT
  5
7
330
0
100
AcDbSymbolTable
 70
     1
  0
VPORT
  5
15
330
7
100
AcDbSymbolTableRecord
100
AcDbViewportTableRecord
  2
*ACTIVE
 70
     0
 10
0.0
 20
0.0
 11
1.0
 21
1.0
 12
13.89621157632295
 22
4.579183999999999
 13
0.0
 23
0.0
 14
1.0
 24
1.0
 15
0.0
 25
0.0
 16
0.0
 26
0.0
 36
1.0
 17
0.0
 27
0.0
 37
0.0
 40
9.158369
 41
2.283809523809523
 42
50.0
 43
0.0
 44
0.0
 50
0.0
 51
0.0
 71
     0
 72
   100
 73
     1
 74
     1
 75
     0
 76
     0
 77
     0
 78
     0
281
     0
 65
     0
110
0.0
120
0.0
130
0.0
111
1.0
121
0.0
131
0.0
112
0.0
122
1.0
132
0.0
 79
     0
146
0.0
  0
ENDTAB
  0
TABLE
  2
LTYPE
  5
4
330
0
100
AcDbSymbolTable
 70
     5
  0
LTYPE
  5
11
330
4
100
AcDbSymbolTableRecord
100
AcDbLinetypeTableRecord
  2
ByBlock
 70
     0
  3

 72
    65
 73
     0
 40
0.0
  0
LTYPE
  5
12
330
4
100
AcDbSymbolTableRecord
100
AcDbLinetypeTableRecord
  2
ByLayer
 70
     0
  3

 72
    65
 73
     0
 40
0.0
  0
LTYPE
  5
13
330
4
100
AcDbSymbolTableRecord
100
AcDbLinetypeTableRecord
  2
Continuous
 70
     0
  3
Solid line
 72
    65
 73
     0
 40
0.0
  0
LTYPE
  5
24
330
4
100
AcDbSymbolTableRecord
100
AcDbLinetypeTableRecord
  2
solid
 70
     0
  3

 72
    65
 73
     0
 40
0.0
  0
LTYPE
  5
25
330
4
100
AcDbSymbolTableRecord
100
AcDbLinetypeTableRecord
  2
dashed
 70
     0
  3

 72
    65
 73
     0
 40
0.0
  0
LTYPE
  5
26
330
4
100
AcDbSymbolTableRecord
100
AcDbLinetypeTableRecord
  2
center
 70
     0
  3

 72
    65
 73
     0
 40
0.0
  0
ENDTAB
  0
TABLE
  2
LAYER
  5
2
330
0
100
AcDbSymbolTable
 70
     3
  0
LAYER
  5
14
102
{ACAD_XDICTIONARY
360
1B4
102
}
330
2
100
AcDbSymbolTableRecord
100
AcDbLayerTableRecord
  2
0
 70
     0
 62
     7
  6
Continuous
370
    -3
390
1D
  0
LAYER
  5
27
102
{ACAD_XDICTIONARY
360
1B6
102
}
330
2
100
AcDbSymbolTableRecord
100
AcDbLayerTableRecord
  2
1
 70
     0
 62
     1
  6
solid
370
    -3
390
1D
  0
LAYER
  5
BD
102
{ACAD_XDICTIONARY
360
1B8
102
}
330
2
100
AcDbSymbolTableRecord
100
AcDbLayerTableRecord
  2
0
 70
     0
 62
     1
  6
solid
370
    -3
390
1D
  0
ENDTAB
  0
TABLE
  2
STYLE
  5
3
330
0
100
AcDbSymbolTable
 70
     2
  0
STYLE
  5
17
330
3
100
AcDbSymbolTableRecord
100
AcDbTextStyleTableRecord
  2
Standard
 70
     0
 40
0.0
 41
1.0
 50
0.0
 71
     0
 42
0.0
  3
txt
  4

  0
ENDTAB
  0
TABLE
  2
VIEW
  5
5
330
0
100
AcDbSymbolTable
 70
     0
  0
ENDTAB
  0
TABLE
  2
UCS
  5
6
330
0
100
AcDbSymbolTable
 70
     0
  0
ENDTAB
  0
TABLE
  2
APPID
  5
8
330
0
100
AcDbSymbolTable
 70
     5
  0
APPID
  5
16
330
8
100
AcDbSymbolTableRecord
100
AcDbRegAppTableRecord
  2
ACAD
 70
     0
  0
APPID
  5
17F
330
8
100
AcDbSymbolTableRecord
100
AcDbRegAppTableRecord
  2
ACAD_PSEXT
 70
     0
  0
APPID
  5
184
330
8
100
AcDbSymbolTableRecord
100
AcDbRegAppTableRecord
  2
DCO15
 70
     0
  0
APPID
  5
1AD
330
8
100
AcDbSymbolTableRecord
100
AcDbRegAppTableRecord
  2
ACAD_MLEADERVER
 70
     0
  0
APPID
  5
1E1
330
8
100
AcDbSymbolTableRecord
100
AcDbRegAppTableRecord
  2
ACAD_EXEMPT_FROM_CAD_STANDARDS
 70
     0
  0
ENDTAB
  0
TABLE
  2
DIMSTYLE
  5
9
330
0
100
AcDbSymbolTable
 70
     3
100
AcDbDimStyleTable
 71
     1
340
18
  0
DIMSTYLE
105
18
330
9
100
AcDbSymbolTableRecord
100
AcDbDimStyleTableRecord
  2
Standard
 70
     0
289
     0
340
17
  0
ENDTAB
  0
TABLE
  2
BLOCK_RECORD
  5
1
330
0
100
AcDbSymbolTable
 70
     6
  0
BLOCK_RECORD
  5
A
102
{ACAD_XDICTIONARY
360
1C9
102
}
330
1
100
AcDbSymbolTableRecord
100
AcDbBlockTableRecord
  2
*MODEL_SPACE
340
20
  0
BLOCK_RECORD
  5
B
330
1
100
AcDbSymbolTableRecord
100
AcDbBlockTableRecord
  2
*PAPER_SPACE
340
21
  0
BLOCK_RECORD
  5
35
330
1
100
AcDbSymbolTableRecord
100
AcDbBlockTableRecord
  2
*D0
340
0
  0
BLOCK_RECORD
  5
40
330
1
100
AcDbSymbolTableRecord
100
AcDbBlockTableRecord
  2
*D1
340
0
  0
BLOCK_RECORD
  5
14B
330
1
100
AcDbSymbolTableRecord
100
AcDbBlockTableRecord
  2
*D2
340
0
  0
BLOCK_RECORD
  5
156
330
1
100
AcDbSymbolTableRecord
100
AcDbBlockTableRecord
  2
*D3
340
0
  0
ENDTAB
  0
ENDSEC
  0
SECTION
  2
BLOCKS
  0
BLOCK
  5
D
330
A
100
AcDbEntity
  8
0
100
AcDbBlockBegin
  2
*MODEL_SPACE
 70
     0
 10
0.0
 20
0.0
 30
0.0
  3
*MODEL_SPACE
  1

  0
ENDBLK
  5
E
330
A
100
AcDbEntity
  8
0
100
AcDbBlockEnd
  0
BLOCK
  5
F
330
B
100
AcDbEntity
 67
     1
  8
0
100
AcDbBlockBegin
  2
*PAPER_SPACE
 70
     0
 10
0.0
 20
0.0
 30
0.0
  3
*PAPER_SPACE
  1

  0
ENDBLK
  5
10
330
B
100
AcDbEntity
 67
     1
  8
0
100
AcDbBlockEnd
  0
BLOCK
  5
36
330
35
100
AcDbEntity
  8
1
  6
solid
 62
     7
100
AcDbBlockBegin
  2
*D0
 70
     0
 10
0.0
 20
0.0
 30
0.0
  3
*D0
  1

  0
LINE
  5
37
330
35
100
AcDbEntity
  8
1
  6
solid
 62
     7
100
AcDbLine
 10
0.2703572809696197
 20
0.3629485666751862
 30
0.0
 11
0.0244751434866725
 21
0.3629485666751864
 31
0.0
  0
LINE
  5
38
330
35
100
AcDbEntity
  8
1
  6
solid
 62
     7
100
AcDbLine
 10
2.195565462112425
 20
3.592759370803833
 30
0.0
 11
0.0244751434866748
 21
3.592759370803834
 31
0.0
  0
LINE
  5
39
330
35
100
AcDbEntity
  8
1
  6
solid
 62
     7
100
AcDbLine
 10
0.0869751434866725
 20
0.3629485666751864
 30
0.0
 11
0.0869751434866735
 21
1.817981372585663
 31
0.0
  0
LINE
  5
3A
330
35
100
AcDbEntity
  8
1
  6
solid
 62
     7
100
AcDbLine
 10
0.0869751434866748
 20
3.592759370803834
 30
0.0
 11
0.0869751434866738
 21
2.137726564893355
 31
0.0
  0
MTEXT
  5
3B
330
35
100
AcDbEntity
  8
1
  6
solid
 62
     7
100
AcDbMText
 10
0.0869751434866737
 20
1.977853968739509
 30
0.0
 40
0.125
 41
0.0
 71
     5
 72
     1
  1
{\H0.125000;3 1/4}
 73
     1
 44
1.0
  0
SOLID
  5
3C
330
35
100
AcDbEntity
  8
1
  6
solid
 62
     7
100
AcDbTrace
 10
0.0661626434866727
 20
0.4879485666751864
 30
0.0
 11
0.1077876434866727
 21
0.4879485666751864
 31
0.0
 12
0.0869751434866725
 22
0.3629485666751864
 32
0.0
 13
0.0869751434866725
 23
0.3629485666751864
 33
0.0
  0
SOLID
  5
3D
330
35
100
AcDbEntity
  8
1
  6
solid
 62
     7
100
AcDbTrace
 10
0.1077876434866747
 20
3.467759370803834
 30
0.0
 11
0.0661626434866747
 21
3.467759370803834
 31
0.0
 12
0.0869751434866748
 22
3.592759370803834
 32
0.0
 13
0.0869751434866748
 23
3.592759370803834
 33
0.0
  0
ENDBLK
  5
3E
330
35
100
AcDbEntity
  8
1
  6
solid
 62
     7
100
AcDbBlockEnd
  0
BLOCK
  5
41
330
40
100
AcDbEntity
  8
1
  6
solid
 62
     7
100
AcDbBlockBegin
  2
*D1
 70
     0
 10
0.0
 20
0.0
 30
0.0
  3
*D1
  1

  0
LINE
  5
42
330
40
100
AcDbEntity
  8
1
  6
solid
 62
     7
100
AcDbLine
 10
0.3953572809696197
 20
1.792550802230834
 30
0.0
 11
0.3953572809696197
 21
3.981407842285782
 31
0.0
  0
LINE
  5
43
330
40
100
AcDbEntity
  8
1
  6
solid
 62
     7
100
AcDbLine
 10
3.625167846679687
 20
3.717759370803833
 30
0.0
 11
3.625167846679687
 21
3.981407842285782
 31
0.0
  0
LINE
  5
44
330
40
100
AcDbEntity
  8
1
  6
solid
 62
     7
100
AcDbLine
 10
0.3953572809696197
 20
3.918907842285782
 30
0.0
 11
1.771718446177594
 21
3.918907842285782
 31
0.0
  0
LINE
  5
45
330
40
100
AcDbEntity
  8
1
  6
solid
 62
     7
100
AcDbLine
 10
3.625167846679687
 20
3.918907842285782
 30
0.0
 11
2.248806681471712
 21
3.918907842285782
 31
0.0
  0
MTEXT
  5
46
330
40
100
AcDbEntity
  8
1
  6
solid
 62
     7
100
AcDbMText
 10
2.010262563824653
 20
3.918907842285782
 30
0.0
 40
0.125
 41
0.0
 71
     5
 72
     1
  1
{\H0.125000;3 1/4}
 73
     1
 44
1.0
  0
SOLID
  5
47
330
40
100
AcDbEntity
  8
1
  6
solid
 62
     7
100
AcDbTrace
 10
0.5203572809696198
 20
3.939720342285782
 30
0.0
 11
0.5203572809696198
 21
3.898095342285782
 31
0.0
 12
0.3953572809696197
 22
3.918907842285782
 32
0.0
 13
0.3953572809696197
 23
3.918907842285782
 33
0.0
  0
SOLID
  5
48
330
40
100
AcDbEntity
  8
1
  6
solid
 62
     7
100
AcDbTrace
 10
3.500167846679687
 20
3.898095342285782
 30
0.0
 11
3.500167846679687
 21
3.939720342285782
 31
0.0
 12
3.625167846679687
 22
3.918907842285782
 32
0.0
 13
3.625167846679687
 23
3.918907842285782
 33
0.0
  0
ENDBLK
  5
49
330
40
100
AcDbEntity
  8
1
  6
solid
 62
     7
100
AcDbBlockEnd
  0
BLOCK
  5
14C
330
14B
100
AcDbEntity
  8
0
  6
solid
 62
     7
100
AcDbBlockBegin
  2
*D2
 70
     0
 10
0.0
 20
0.0
 30
0.0
  3
*D2
  1

  0
LINE
  5
14D
330
14B
100
AcDbEntity
  8
0
  6
solid
 62
     7
100
AcDbLine
 10
-5.474483489990234
 20
2.501189947128295
 30
0.0
 11
-6.565560161228372
 21
2.501189947128296
 31
0.0
  0
LINE
  5
14E
330
14B
100
AcDbEntity
  8
0
  6
solid
 62
     7
100
AcDbLine
 10
-6.271114826202392
 20
3.562099456787109
 30
0.0
 11
-6.565560161228372
 21
3.562099456787109
 31
0.0
  0
LINE
  5
14F
330
14B
100
AcDbEntity
  8
0
  6
solid
 62
     7
100
AcDbLine
 10
-6.503060161228372
 20
2.501189947128296
 30
0.0
 11
-6.503060161228372
 21
3.031644701957703
 31
0.0
  0
LINE
  5
150
330
14B
100
AcDbEntity
  8
0
  6
solid
 62
     7
100
AcDbLine
 10
-6.503060161228372
 20
3.562099456787109
 30
0.0
 11
-6.503060161228372
 21
3.031644701957703
 31
0.0
  0
MTEXT
  5
151
330
14B
100
AcDbEntity
  8
0
  6
solid
 62
     7
100
AcDbMText
 10
-6.967522661228372
 20
3.031644701957703
 30
0.0
 40
0.125
 41
0.0
 71
     5
 72
     1
  1
{\H0.125000;1 1/16}
 73
     1
 44
1.0
  0
SOLID
  5
152
330
14B
100
AcDbEntity
  8
0
  6
solid
 62
     7
100
AcDbTrace
 10
-6.523875161228372
 20
2.626189947128296
 30
0.0
 11
-6.482245161228372
 21
2.626189947128296
 31
0.0
 12
-6.503060161228372
 22
2.501189947128296
 32
0.0
 13
-6.503060161228372
 23
2.501189947128296
 33
0.0
  0
SOLID
  5
153
330
14B
100
AcDbEntity
  8
0
  6
solid
 62
     7
100
AcDbTrace
 10
-6.482245161228372
 20
3.437099456787109
 30
0.0
 11
-6.523875161228372
 21
3.437099456787109
 31
0.0
 12
-6.503060161228372
 22
3.562099456787109
 32
0.0
 13
-6.503060161228372
 23
3.562099456787109
 33
0.0
  0
ENDBLK
  5
154
330
14B
100
AcDbEntity
  8
0
  6
solid
 62
     7
100
AcDbBlockEnd
  0
BLOCK
  5
157
330
156
100
AcDbEntity
  8
0
  6
solid
 62
     7
100
AcDbBlockBegin
  2
*D3
 70
     0
 10
0.0
 20
0.0
 30
0.0
  3
*D3
  1

  0
LINE
  5
158
330
156
100
AcDbEntity
  8
0
  6
solid
 62
     7
100
AcDbLine
 10
-6.350176811218261
 20
3.376883268356323
 30
0.0
 11
-6.350176811218261
 21
1.868703269477894
 31
0.0
  0
LINE
  5
159
330
156
100
AcDbEntity
  8
0
  6
solid
 62
     7
100
AcDbLine
 10
-1.850176811218261
 20
3.376883745193481
 30
0.0
 11
-1.850176811218261
 21
1.868703269477894
 31
0.0
  0
LINE
  5
15A
330
156
100
AcDbEntity
  8
0
  6
solid
 62
     7
100
AcDbLine
 10
-6.350176811218261
 20
1.931203269477894
 30
0.0
 11
-4.100176811218261
 21
1.931203269477894
 31
0.0
  0
LINE
  5
15B
330
156
100
AcDbEntity
  8
0
  6
solid
 62
     7
100
AcDbLine
 10
-1.850176811218261
 20
1.931203269477894
 30
0.0
 11
-4.100176811218261
 21
1.931203269477894
 31
0.0
  0
MTEXT
  5
15C
330
156
100
AcDbEntity
  8
0
  6
solid
 62
     7
100
AcDbMText
 10
-4.100176811218261
 20
2.03478836563174
 30
0.0
 40
0.125
 41
0.0
 71
     5
 72
     1
  1
{\H0.125000;4 1/2}
 73
     1
 44
1.0
  0
SOLID
  5
15D
330
156
100
AcDbEntity
  8
0
  6
solid
 62
     7
100
AcDbTrace
 10
-6.225176811218261
 20
1.952018269477894
 30
0.0
 11
-6.225176811218261
 21
1.910388269477893
 31
0.0
 12
-6.350176811218261
 22
1.931203269477894
 32
0.0
 13
-6.350176811218261
 23
1.931203269477894
 33
0.0
  0
SOLID
  5
15E
330
156
100
AcDbEntity
  8
0
  6
solid
 62
     7
100
AcDbTrace
 10
-1.975176811218261
 20
1.910388269477893
 30
0.0
 11
-1.975176811218261
 21
1.952018269477894
 31
0.0
 12
-1.850176811218261
 22
1.931203269477894
 32
0.0
 13
-1.850176811218261
 23
1.931203269477894
 33
0.0
  0
ENDBLK
  5
15F
330
156
100
AcDbEntity
  8
0
  6
solid
 62
     7
100
AcDbBlockEnd
  0
ENDSEC
  0
SECTION
  2
ENTITIES
  0
LINE
  5
28
330
A
100
AcDbEntity
  8
1
  6
solid
 62
     7
100
AcDbLine
 10
0.3953572695679929
 20
0.3629485574279427
 30
0.0
 11
0.3953572914208684
 21
1.667550706801641
 31
0.0
  0
ARC
  5
29
330
A
100
AcDbEntity
  8
1
  6
solid
 62
     7
100
AcDbCircle
 10
0.414720112315653
 20
0.6371670546856314
 30
0.0
 40
0.2749011533016905
100
AcDbArc
 50
265.9609881544473
 51
366.8588877471283
  0
LINE
  5
2A
330
A
100
AcDbEntity
  8
1
  6
solid
 62
     7
100
AcDbLine
 10
0.6876538929448693
 20
0.6699968813227187
 30
0.0
 11
0.7740318257211749
 21
0.6909400305452073
 31
0.0
  0
ARC
  5
2B
330
A
100
AcDbEntity
  8
1
  6
solid
 62
     7
100
AcDbCircle
 10
1.651529946289594
 20
0.5820778030094225
 30
0.0
 40
0.8842250536632779
100
AcDbArc
 50
155.8278409352517
 51
172.9280364160775
  0
ARC
  5
2C
330
A
100
AcDbEntity
  8
1
  6
solid
 62
     7
100
AcDbCircle
 10
1.07971069432982
 20
0.8710950373489794
 30
0.0
 40
0.2459754205610323
100
AcDbArc
 50
89.35382794245503
 51
162.7223998313573
  0
ARC
  5
2D
330
A
100
AcDbEntity
  8
1
  6
solid
 62
     7
100
AcDbCircle
 10
2.905586534779839
 20
1.082372411740053
 30
0.0
 40
1.823431694283393
100
AcDbArc
 50
134.9965037816313
 51
178.910147772847
  0
LINE
  5
2E
330
A
100
AcDbEntity
  8
1
  6
solid
 62
     7
100
AcDbLine
 10
3.625167744043884
 20
3.592759258527638
 30
0.0
 11
2.320565594670184
 21
3.592759236674762
 31
0.0
  0
ARC
  5
2F
330
A
100
AcDbEntity
  8
1
  6
solid
 62
     7
100
AcDbCircle
 10
3.350949246786194
 20
3.573396415779979
 30
0.0
 40
0.2749011533016905
100
AcDbArc
 50
263.1411122528717
 51
364.0390118455526
  0
LINE
  5
30
330
A
100
AcDbEntity
  8
1
  6
solid
 62
     7
100
AcDbLine
 10
3.318119420149109
 20
3.300462635150762
 30
0.0
 11
3.297176270926621
 21
3.214084702374456
 31
0.0
  0
ARC
  5
31
330
A
100
AcDbEntity
  8
1
  6
solid
 62
     7
100
AcDbCircle
 10
3.406038498462406
 20
2.336586581806037
 30
0.0
 40
0.8842250536632779
100
AcDbArc
 50
97.07196358392248
 51
114.1721590647483
  0
ARC
  5
32
330
A
100
AcDbEntity
  8
1
  6
solid
 62
     7
100
AcDbCircle
 10
3.117021264122847
 20
2.908405833765812
 30
0.0
 40
0.2459754205610323
100
AcDbArc
 50
107.2776001686426
 51
180.646172057545
  0
ARC
  5
33
330
A
100
AcDbEntity
  8
1
  6
solid
 62
     7
100
AcDbCircle
 10
2.905743889731775
 20
1.082529993315791
 30
0.0
 40
1.823431694283393
100
AcDbArc
 50
91.08985222715299
 51
135.0034962183686
  0
LINE
  5
34
330
A
100
AcDbEntity
  8
1
  6
solid
 62
     7
100
AcDbLine
 10
2.32056548737693
 20
3.592759381810715
 30
0.0
 11
0.3953572913329624
 21
1.667550813237717
 31
0.0
  0
ARC
  5
4B
330
A
100
AcDbEntity
  8
1
  6
solid
 62
     7
100
AcDbCircle
 10
1.372223672075534
 20
0.1520392222413718
 30
0.0
 40
0.2749011533016905
100
AcDbArc
 50
265.9609881544473
 51
366.8588877471283
  0
LINE
  5
4C
330
A
100
AcDbEntity
  8
1
  6
solid
 62
     7
100
AcDbLine
 10
1.645157452704749
 20
0.184869048878459
 30
0.0
 11
1.731535385481056
 21
0.2058121981009475
 31
0.0
  0
ARC
  5
4D
330
A
100
AcDbEntity
  8
1
  6
solid
 62
     7
100
AcDbCircle
 10
2.609033506049475
 20
0.0969499705651629
 30
0.0
 40
0.8842250536632779
100
AcDbArc
 50
155.8278409352517
 51
172.9280364160775
  0
ARC
  5
4E
330
A
100
AcDbEntity
  8
1
  6
solid
 62
     7
100
AcDbCircle
 10
2.0372142540897
 20
0.3859672049047198
 30
0.0
 40
0.2459754205610323
100
AcDbArc
 50
89.35382794245503
 51
162.7223998313573
  0
ARC
  5
4F
330
A
100
AcDbEntity
  8
1
  6
solid
 62
     7
100
AcDbCircle
 10
3.863090094539721
 20
0.5972445792957945
 30
0.0
 40
1.823431694283393
100
AcDbArc
 50
134.9965037816313
 51
178.910147772847
  0
ARC
  5
50
330
A
100
AcDbEntity
  8
1
  6
solid
 62
     7
100
AcDbCircle
 10
4.308452806546076
 20
3.088268583335719
 30
0.0
 40
0.2749011533016905
100
AcDbArc
 50
263.1411122528717
 51
364.0390118455526
  0
LINE
  5
51
330
A
100
AcDbEntity
  8
1
  6
solid
 62
     7
100
AcDbLine
 10
4.275622979908989
 20
2.815334802706503
 30
0.0
 11
4.254679830686503
 21
2.728956869930196
 31
0.0
  0
ARC
  5
52
330
A
100
AcDbEntity
  8
1
  6
solid
 62
     7
100
AcDbCircle
 10
4.363542058222288
 20
1.851458749361778
 30
0.0
 40
0.8842250536632779
100
AcDbArc
 50
97.07196358392248
 51
114.1721590647483
  0
ARC
  5
53
330
A
100
AcDbEntity
  8
1
  6
solid
 62
     7
100
AcDbCircle
 10
4.07452482388273
 20
2.423278001321552
 30
0.0
 40
0.2459754205610323
100
AcDbArc
 50
107.2776001686426
 51
180.646172057545
  0
ARC
  5
54
330
A
100
AcDbEntity
  8
1
  6
solid
 62
     7
100
AcDbCircle
 10
3.863247449491657
 20
0.5974021608715315
 30
0.0
 40
1.823431694283393
100
AcDbArc
 50
91.08985222715299
 51
135.0034962183686
  0
LINE
  5
55
330
A
100
AcDbEntity
  8
1
  6
solid
 62
     7
100
AcDbLine
 10
3.625167846679687
 20
3.592759370803833
 30
0.0
 11
4.582671165466307
 21
3.107631444931029
 31
0.0
  0
LINE
  5
56
330
A
100
AcDbEntity
  8
1
  6
solid
 62
     7
100
AcDbLine
 10
3.318119525909422
 20
3.300462722778319
 30
0.0
 11
4.275622844696044
 21
2.815334796905517
 31
0.0
  0
LINE
  5
57
330
A
100
AcDbEntity
  8
1
  6
solid
 62
     7
100
AcDbLine
 10
3.297176361083983
 20
3.21408462524414
 30
0.0
 11
4.254679679870604
 21
2.728956937789916
 31
0.0
  0
LINE
  5
58
330
A
100
AcDbEntity
  8
1
  6
solid
 62
     7
100
AcDbLine
 10
2.87106156349182
 20
2.905631780624389
 30
0.0
 11
3.828565120697021
 21
2.420504093170166
 31
0.0
  0
LINE
  5
59
330
A
100
AcDbEntity
  8
1
  6
solid
 62
     7
100
AcDbLine
 10
1.08248472213745
 20
1.117054700851439
 30
0.0
 11
2.03998827934265
 21
0.6319268941879273
 31
0.0
  0
LINE
  5
5A
330
A
100
AcDbEntity
  8
1
  6
solid
 62
     7
100
AcDbLine
 10
0.7740318179130555
 20
0.6909399628639222
 30
0.0
 11
1.731535434722899
 21
0.2058122009038925
 31
0.0
  0
LINE
  5
5B
330
A
100
AcDbEntity
  8
1
  6
solid
 62
     7
100
AcDbLine
 10
0.6876538991928101
 20
0.6699968576431276
 30
0.0
 11
1.64515745639801
 21
0.1848690509796142
 31
0.0
  0
LINE
  5
5C
330
A
100
AcDbEntity
  8
1
  6
solid
 62
     7
100
AcDbLine
 10
0.3953572809696197
 20
0.3629485666751862
 30
0.0
 11
1.352860808372496
 21
-0.1221791654825211
 31
0.0
  0
LINE
  5
5D
330
A
100
AcDbEntity
  8
1
  6
solid
 62
     7
100
AcDbLine
 10
0.4219908365780495
 20
-0.4326189613051247
 30
0.0
 11
0.3972815342524681
 21
-0.4326189613051247
 31
0.0
  0
LINE
  5
5E
330
A
100
AcDbEntity
  8
1
  6
solid
 62
     7
100
AcDbLine
 10
0.3972815342524681
 20
-0.4326189613051247
 30
0.0
 11
0.3972815342524681
 21
-0.3437626822353571
 31
0.0
  0
SPLINE
  5
5F
330
A
100
AcDbEntity
  8
1
  6
solid
 62
     7
100
AcDbSpline
210
0.0
220
0.0
230
1.0
 70
     8
 71
     2
 72
     6
 73
     3
 74
     0
 42
0.0000000001
 43
0.0000000001
 40
0.0
 40
0.0
 40
0.0
 40
1.0
 40
1.0
 40
1.0
 10
0.3972815342524681
 20
-0.3437626822353571
 30
0.0
 10
0.3842894412292123
 20
-0.3579254729330316
 30
0.0
 10
0.3667582784385146
 20
-0.3643050078167525
 30
0.0
  0
LINE
  5
60
330
A
100
AcDbEntity
  8
1
  6
solid
 62
     7
100
AcDbLine
 10
0.3667582784385146
 20
-0.3643050078167525
 30
0.0
 11
0.3667582784385146
 21
-0.3395957054911711
 31
0.0
  0
SPLINE
  5
61
330
A
100
AcDbEntity
  8
1
  6
solid
 62
     7
100
AcDbSpline
210
0.0
220
0.0
230
1.0
 70
     8
 71
     2
 72
     7
 73
     4
 74
     0
 42
0.0000000001
 43
0.0000000001
 40
0.0
 40
0.0
 40
0.0
 40
1.0
 40
2.0
 40
2.0
 40
2.0
 10
0.3667582784385146
 20
-0.3395957054911711
 30
0.0
 10
0.3759406040199099
 20
-0.3365547752586129
 30
0.0
 10
0.3979661854152587
 20
-0.319202217119078
 30
0.0
 10
0.4021629296013053
 20
-0.3076189613051246
 30
0.0
  0
LINE
  5
62
330
A
100
AcDbEntity
  8
1
  6
solid
 62
     7
100
AcDbLine
 10
0.4021629296013053
 20
-0.3076189613051246
 30
0.0
 11
0.4219908365780495
 21
-0.3076189613051246
 31
0.0
  0
LINE
  5
63
330
A
100
AcDbEntity
  8
1
  6
solid
 62
     7
100
AcDbLine
 10
0.4219908365780495
 20
-0.4326189613051247
 30
0.0
 11
0.4219908365780495
 21
-0.3076189613051246
 31
0.0
  0
LINE
  5
64
330
A
100
AcDbEntity
  8
1
  6
solid
 62
     7
100
AcDbLine
 10
0.4448008365780495
 20
-0.399188728746985
 30
0.0
 11
0.4448008365780495
 21
-0.3773864031655897
 31
0.0
  0
LINE
  5
65
330
A
100
AcDbEntity
  8
1
  6
solid
 62
     7
100
AcDbLine
 10
0.4448008365780495
 20
-0.3773864031655897
 30
0.0
 11
0.4927659528571194
 21
-0.3773864031655897
 31
0.0
  0
LINE
  5
66
330
A
100
AcDbEntity
  8
1
  6
solid
 62
     7
100
AcDbLine
 10
0.4927659528571194
 20
-0.3773864031655897
 30
0.0
 11
0.4927659528571194
 21
-0.399188728746985
 31
0.0
  0
LINE
  5
67
330
A
100
AcDbEntity
  8
1
  6
solid
 62
     7
100
AcDbLine
 10
0.4448008365780495
 20
-0.399188728746985
 30
0.0
 11
0.4927659528571194
 21
-0.399188728746985
 31
0.0
  0
LINE
  5
68
330
A
100
AcDbEntity
  8
1
  6
solid
 62
     7
100
AcDbLine
 10
0.5708085109966543
 20
-0.4326189613051247
 30
0.0
 11
0.5460992086710727
 21
-0.4326189613051247
 31
0.0
  0
LINE
  5
69
330
A
100
AcDbEntity
  8
1
  6
solid
 62
     7
100
AcDbLine
 10
0.5460992086710727
 20
-0.4326189613051247
 30
0.0
 11
0.5460992086710727
 21
-0.3437626822353571
 31
0.0
  0
SPLINE
  5
6A
330
A
100
AcDbEntity
  8
1
  6
solid
 62
     7
100
AcDbSpline
210
0.0
220
0.0
230
1.0
 70
     8
 71
     2
 72
     6
 73
     3
 74
     0
 42
0.0000000001
 43
0.0000000001
 40
0.0
 40
0.0
 40
0.0
 40
1.0
 40
1.0
 40
1.0
 10
0.5460992086710727
 20
-0.3437626822353571
 30
0.0
 10
0.5331071156478169
 20
-0.3579254729330316
 30
0.0
 10
0.5155759528571192
 20
-0.3643050078167525
 30
0.0
  0
LINE
  5
6B
330
A
100
AcDbEntity
  8
1
  6
solid
 62
     7
100
AcDbLine
 10
0.5155759528571192
 20
-0.3643050078167525
 30
0.0
 11
0.5155759528571192
 21
-0.3395957054911711
 31
0.0
  0
SPLINE
  5
6C
330
A
100
AcDbEntity
  8
1
  6
solid
 62
     7
100
AcDbSpline
210
0.0
220
0.0
230
1.0
 70
     8
 71
     2
 72
     7
 73
     4
 74
     0
 42
0.0000000001
 43
0.0000000001
 40
0.0
 40
0.0
 40
0.0
 40
1.0
 40
2.0
 40
2.0
 40
2.0
 10
0.5155759528571192
 20
-0.3395957054911711
 30
0.0
 10
0.5247582784385145
 20
-0.3365547752586129
 30
0.0
 10
0.5467838598338634
 20
-0.319202217119078
 30
0.0
 10
0.5509806040199099
 20
-0.3076189613051246
 30
0.0
  0
LINE
  5
6D
330
A
100
AcDbEntity
  8
1
  6
solid
 62
     7
100
AcDbLine
 10
0.5509806040199099
 20
-0.3076189613051246
 30
0.0
 11
0.5708085109966543
 21
-0.3076189613051246
 31
0.0
  0
LINE
  5
6E
330
A
100
AcDbEntity
  8
1
  6
solid
 62
     7
100
AcDbLine
 10
0.5708085109966543
 20
-0.4326189613051247
 30
0.0
 11
0.5708085109966543
 21
-0.3076189613051246
 31
0.0
  0
LINE
  5
6F
330
A
100
AcDbEntity
  8
1
  6
solid
 62
     7
100
AcDbLine
 10
0.5927901389036309
 20
-0.4326189613051247
 30
0.0
 11
0.6218747900664216
 21
-0.3076189613051246
 31
0.0
  0
LINE
  5
70
330
A
100
AcDbEntity
  8
1
  6
solid
 62
     7
100
AcDbLine
 10
0.6218747900664216
 20
-0.3076189613051246
 30
0.0
 11
0.6415836272757238
 21
-0.3076189613051246
 31
0.0
  0
LINE
  5
71
330
A
100
AcDbEntity
  8
1
  6
solid
 62
     7
100
AcDbLine
 10
0.6415836272757238
 20
-0.3076189613051246
 30
0.0
 11
0.6125138598338636
 21
-0.4326189613051247
 31
0.0
  0
LINE
  5
72
330
A
100
AcDbEntity
  8
1
  6
solid
 62
     7
100
AcDbLine
 10
0.5927901389036309
 20
-0.4326189613051247
 30
0.0
 11
0.6125138598338636
 21
-0.4326189613051247
 31
0.0
  0
LINE
  5
73
330
A
100
AcDbEntity
  8
1
  6
solid
 62
     7
100
AcDbLine
 10
0.7196261854152587
 20
-0.4326189613051247
 30
0.0
 11
0.6949168830896772
 21
-0.4326189613051247
 31
0.0
  0
LINE
  5
74
330
A
100
AcDbEntity
  8
1
  6
solid
 62
     7
100
AcDbLine
 10
0.6949168830896772
 20
-0.4326189613051247
 30
0.0
 11
0.6949168830896772
 21
-0.3437626822353571
 31
0.0
  0
SPLINE
  5
75
330
A
100
AcDbEntity
  8
1
  6
solid
 62
     7
100
AcDbSpline
210
0.0
220
0.0
230
1.0
 70
     8
 71
     2
 72
     6
 73
     3
 74
     0
 42
0.0000000001
 43
0.0000000001
 40
0.0
 40
0.0
 40
0.0
 40
1.0
 40
1.0
 40
1.0
 10
0.6949168830896772
 20
-0.3437626822353571
 30
0.0
 10
0.6819247900664215
 20
-0.3579254729330316
 30
0.0
 10
0.6643936272757239
 20
-0.3643050078167525
 30
0.0
  0
LINE
  5
76
330
A
100
AcDbEntity
  8
1
  6
solid
 62
     7
100
AcDbLine
 10
0.6643936272757239
 20
-0.3643050078167525
 30
0.0
 11
0.6643936272757239
 21
-0.3395957054911711
 31
0.0
  0
SPLINE
  5
77
330
A
100
AcDbEntity
  8
1
  6
solid
 62
     7
100
AcDbSpline
210
0.0
220
0.0
230
1.0
 70
     8
 71
     2
 72
     7
 73
     4
 74
     0
 42
0.0000000001
 43
0.0000000001
 40
0.0
 40
0.0
 40
0.0
 40
1.0
 40
2.0
 40
2.0
 40
2.0
 10
0.6643936272757239
 20
-0.3395957054911711
 30
0.0
 10
0.6735759528571191
 20
-0.3365547752586129
 30
0.0
 10
0.695601534252468
 20
-0.319202217119078
 30
0.0
 10
0.6997982784385145
 20
-0.3076189613051246
 30
0.0
  0
LINE
  5
78
330
A
100
AcDbEntity
  8
1
  6
solid
 62
     7
100
AcDbLine
 10
0.6997982784385145
 20
-0.3076189613051246
 30
0.0
 11
0.7196261854152587
 21
-0.3076189613051246
 31
0.0
  0
LINE
  5
79
330
A
100
AcDbEntity
  8
1
  6
solid
 62
     7
100
AcDbLine
 10
0.7196261854152587
 20
-0.4326189613051247
 30
0.0
 11
0.7196261854152587
 21
-0.3076189613051246
 31
0.0
  0
LINE
  5
7A
330
A
100
AcDbEntity
  8
1
  6
solid
 62
     7
100
AcDbLine
 10
0.822378045880375
 20
-0.3417138450260548
 30
0.0
 11
0.7976687435547936
 21
-0.3439561706074501
 31
0.0
  0
SPLINE
  5
7B
330
A
100
AcDbEntity
  8
1
  6
solid
 62
     7
100
AcDbSpline
210
0.0
220
0.0
230
1.0
 70
     8
 71
     2
 72
     7
 73
     4
 74
     0
 42
0.0000000001
 43
0.0000000001
 40
0.0
 40
0.0
 40
0.0
 40
1.0
 40
2.0
 40
2.0
 40
2.0
 10
0.7976687435547936
 20
-0.3439561706074501
 30
0.0
 10
0.796617115647817
 20
-0.3365696589795432
 30
0.0
 10
0.7895282784385146
 20
-0.3294212868865199
 30
0.0
 10
0.7838631621594449
 20
-0.3294212868865199
 30
0.0
  0
SPLINE
  5
7C
330
A
100
AcDbEntity
  8
1
  6
solid
 62
     7
100
AcDbSpline
210
0.0
220
0.0
230
1.0
 70
     8
 71
     2
 72
     7
 73
     4
 74
     0
 42
0.0000000001
 43
0.0000000001
 40
0.0
 40
0.0
 40
0.0
 40
1.0
 40
2.0
 40
2.0
 40
2.0
 10
0.7838631621594449
 20
-0.3294212868865199
 30
0.0
 10
0.7765064179733983
 20
-0.3294212868865199
 30
0.0
 10
0.7662873482059565
 20
-0.3439264031655897
 30
0.0
 10
0.7649082784385146
 20
-0.3665124496772176
 30
0.0
  0
SPLINE
  5
7D
330
A
100
AcDbEntity
  8
1
  6
solid
 62
     7
100
AcDbSpline
210
0.0
220
0.0
230
1.0
 70
     8
 71
     2
 72
     6
 73
     3
 74
     0
 42
0.0000000001
 43
0.0000000001
 40
0.0
 40
0.0
 40
0.0
 40
1.0
 40
1.0
 40
1.0
 10
0.7649082784385146
 20
-0.3665124496772176
 30
0.0
 10
0.7744129296013053
 20
-0.3555840775841943
 30
0.0
 10
0.787851534252468
 20
-0.3555840775841943
 30
0.0
  0
SPLINE
  5
7E
330
A
100
AcDbEntity
  8
1
  6
solid
 62
     7
100
AcDbSpline
210
0.0
220
0.0
230
1.0
 70
     8
 71
     2
 72
     7
 73
     4
 74
     0
 42
0.0000000001
 43
0.0000000001
 40
0.0
 40
0.0
 40
0.0
 40
1.0
 40
2.0
 40
2.0
 40
2.0
 10
0.787851534252468
 20
-0.3555840775841943
 30
0.0
 10
0.8029222319268866
 20
-0.3555840775841943
 30
0.0
 10
0.8252850226245611
 20
-0.3772077985144269
 30
0.0
 10
0.8252850226245611
 20
-0.394381752002799
 30
0.0
  0
SPLINE
  5
7F
330
A
100
AcDbEntity
  8
1
  6
solid
 62
     7
100
AcDbSpline
210
0.0
220
0.0
230
1.0
 70
     8
 71
     2
 72
     7
 73
     4
 74
     0
 42
0.0000000001
 43
0.0000000001
 40
0.0
 40
0.0
 40
0.0
 40
1.0
 40
2.0
 40
2.0
 40
2.0
 10
0.8252850226245611
 20
-0.394381752002799
 30
0.0
 10
0.8252850226245611
 20
-0.4122403566539619
 30
0.0
 10
0.8026245575082818
 20
-0.4340724496772176
 30
0.0
 10
0.785138045880375
 20
-0.4340724496772176
 30
0.0
  0
SPLINE
  5
80
330
A
100
AcDbEntity
  8
1
  6
solid
 62
     7
100
AcDbSpline
210
0.0
220
0.0
230
1.0
 70
     8
 71
     2
 72
     7
 73
     4
 74
     0
 42
0.0000000001
 43
0.0000000001
 40
0.0
 40
0.0
 40
0.0
 40
1.0
 40
2.0
 40
2.0
 40
2.0
 10
0.785138045880375
 20
-0.4340724496772176
 30
0.0
 10
0.7663171156478168
 20
-0.4340724496772176
 30
0.0
 10
0.7424361854152587
 20
-0.4049580310725666
 30
0.0
 10
0.7424361854152587
 20
-0.3721775659562874
 30
0.0
  0
SPLINE
  5
81
330
A
100
AcDbEntity
  8
1
  6
solid
 62
     7
100
AcDbSpline
210
0.0
220
0.0
230
1.0
 70
     8
 71
     2
 72
     7
 73
     4
 74
     0
 42
0.0000000001
 43
0.0000000001
 40
0.0
 40
0.0
 40
0.0
 40
1.0
 40
2.0
 40
2.0
 40
2.0
 10
0.7424361854152587
 20
-0.3721775659562874
 30
0.0
 10
0.7424361854152587
 20
-0.3378445427004734
 30
0.0
 10
0.7673538598338633
 20
-0.3076189613051246
 30
0.0
 10
0.7869636272757238
 20
-0.3076189613051246
 30
0.0
  0
SPLINE
  5
82
330
A
100
AcDbEntity
  8
1
  6
solid
 62
     7
100
AcDbSpline
210
0.0
220
0.0
230
1.0
 70
     8
 71
     2
 72
     7
 73
     4
 74
     0
 42
0.0000000001
 43
0.0000000001
 40
0.0
 40
0.0
 40
0.0
 40
1.0
 40
2.0
 40
2.0
 40
2.0
 10
0.7869636272757238
 20
-0.3076189613051246
 30
0.0
 10
0.8011561854152587
 20
-0.3076189613051246
 30
0.0
 10
0.8197240923920027
 20
-0.324941752002799
 30
0.0
 10
0.822378045880375
 20
-0.3417138450260548
 30
0.0
  0
SPLINE
  5
83
330
A
100
AcDbEntity
  8
1
  6
solid
 62
     7
100
AcDbSpline
210
0.0
220
0.0
230
1.0
 70
     8
 71
     2
 72
     7
 73
     4
 74
     0
 42
0.0000000001
 43
0.0000000001
 40
0.0
 40
0.0
 40
0.0
 40
1.0
 40
2.0
 40
2.0
 40
2.0
 10
0.7671454877408401
 20
-0.3940840775841943
 30
0.0
 10
0.7671454877408401
 20
-0.4029240775841945
 30
0.0
 10
0.777751534252468
 20
-0.4122701240958224
 30
0.0
 10
0.7848106040199099
 20
-0.4122701240958224
 30
0.0
  0
SPLINE
  5
84
330
A
100
AcDbEntity
  8
1
  6
solid
 62
     7
100
AcDbSpline
210
0.0
220
0.0
230
1.0
 70
     8
 71
     2
 72
     7
 73
     4
 74
     0
 42
0.0000000001
 43
0.0000000001
 40
0.0
 40
0.0
 40
0.0
 40
1.0
 40
2.0
 40
2.0
 40
2.0
 10
0.7848106040199099
 20
-0.4122701240958224
 30
0.0
 10
0.7912050226245611
 20
-0.4122701240958224
 30
0.0
 10
0.8005757202989796
 20
-0.4045710543283805
 30
0.0
 10
0.8005757202989796
 20
-0.395641752002799
 30
0.0
  0
SPLINE
  5
85
330
A
100
AcDbEntity
  8
1
  6
solid
 62
     7
100
AcDbSpline
210
0.0
220
0.0
230
1.0
 70
     8
 71
     2
 72
     7
 73
     4
 74
     0
 42
0.0000000001
 43
0.0000000001
 40
0.0
 40
0.0
 40
0.0
 40
1.0
 40
2.0
 40
2.0
 40
2.0
 10
0.8005757202989796
 20
-0.395641752002799
 30
0.0
 10
0.8005757202989796
 20
-0.3860477985144269
 30
0.0
 10
0.7907585109966541
 20
-0.3773864031655897
 30
0.0
 10
0.7835208365780494
 20
-0.3773864031655897
 30
0.0
  0
SPLINE
  5
86
330
A
100
AcDbEntity
  8
1
  6
solid
 62
     7
100
AcDbSpline
210
0.0
220
0.0
230
1.0
 70
     8
 71
     2
 72
     7
 73
     4
 74
     0
 42
0.0000000001
 43
0.0000000001
 40
0.0
 40
0.0
 40
0.0
 40
1.0
 40
2.0
 40
2.0
 40
2.0
 10
0.7835208365780494
 20
-0.3773864031655897
 30
0.0
 10
0.7764617668106075
 20
-0.3773864031655897
 30
0.0
 10
0.7671454877408401
 20
-0.385794775258613
 30
0.0
 10
0.7671454877408401
 20
-0.3940840775841943
 30
0.0
  0
LINE
  5
87
330
A
100
AcDbEntity
  8
1
  6
solid
 62
     7
100
AcDbLine
 10
0.8728347900664214
 20
-0.4326189613051247
 30
0.0
 11
0.9159631621594447
 21
-0.366929193863264
 31
0.0
  0
LINE
  5
88
330
A
100
AcDbEntity
  8
1
  6
solid
 62
     7
100
AcDbLine
 10
0.9159631621594447
 20
-0.366929193863264
 30
0.0
 11
0.8771952551827006
 21
-0.3076189613051246
 31
0.0
  0
LINE
  5
89
330
A
100
AcDbEntity
  8
1
  6
solid
 62
     7
100
AcDbLine
 10
0.8771952551827006
 20
-0.3076189613051246
 30
0.0
 11
0.9062501389036308
 21
-0.3076189613051246
 31
0.0
  0
LINE
  5
8A
330
A
100
AcDbEntity
  8
1
  6
solid
 62
     7
100
AcDbLine
 10
0.9062501389036308
 20
-0.3076189613051246
 30
0.0
 11
0.9304980458803749
 21
-0.3447845427004734
 31
0.0
  0
LINE
  5
8B
330
A
100
AcDbEntity
  8
1
  6
solid
 62
     7
100
AcDbLine
 10
0.9304980458803749
 20
-0.3447845427004734
 30
0.0
 11
0.9542301389036309
 21
-0.3076189613051246
 31
0.0
  0
LINE
  5
8C
330
A
100
AcDbEntity
  8
1
  6
solid
 62
     7
100
AcDbLine
 10
0.9542301389036309
 20
-0.3076189613051246
 30
0.0
 11
0.9832999063454913
 21
-0.3076189613051246
 31
0.0
  0
LINE
  5
8D
330
A
100
AcDbEntity
  8
1
  6
solid
 62
     7
100
AcDbLine
 10
0.9832999063454913
 20
-0.3076189613051246
 30
0.0
 11
0.9450329296013052
 21
-0.366929193863264
 31
0.0
  0
LINE
  5
8E
330
A
100
AcDbEntity
  8
1
  6
solid
 62
     7
100
AcDbLine
 10
0.9450329296013052
 20
-0.366929193863264
 30
0.0
 11
0.9876603714617703
 21
-0.4326189613051247
 31
0.0
  0
LINE
  5
8F
330
A
100
AcDbEntity
  8
1
  6
solid
 62
     7
100
AcDbLine
 10
0.9876603714617703
 20
-0.4326189613051247
 30
0.0
 11
0.9585906040199098
 21
-0.4326189613051247
 31
0.0
  0
LINE
  5
90
330
A
100
AcDbEntity
  8
1
  6
solid
 62
     7
100
AcDbLine
 10
0.9585906040199098
 20
-0.4326189613051247
 30
0.0
 11
0.9304980458803749
 21
-0.3895598915376827
 31
0.0
  0
LINE
  5
91
330
A
100
AcDbEntity
  8
1
  6
solid
 62
     7
100
AcDbLine
 10
0.9304980458803749
 20
-0.3895598915376827
 30
0.0
 11
0.9018896737873516
 21
-0.4326189613051247
 31
0.0
  0
LINE
  5
92
330
A
100
AcDbEntity
  8
1
  6
solid
 62
     7
100
AcDbLine
 10
0.8728347900664214
 20
-0.4326189613051247
 30
0.0
 11
0.9018896737873516
 21
-0.4326189613051247
 31
0.0
  0
LINE
  5
93
330
A
100
AcDbEntity
  8
1
  6
solid
 62
     7
100
AcDbLine
 10
1.085129673787351
 20
-0.4326189613051247
 30
0.0
 11
1.085129673787351
 21
-0.4079096589795432
 31
0.0
  0
LINE
  5
94
330
A
100
AcDbEntity
  8
1
  6
solid
 62
     7
100
AcDbLine
 10
1.085129673787351
 20
-0.4079096589795432
 30
0.0
 11
1.035711069136187
 21
-0.4079096589795432
 31
0.0
  0
LINE
  5
95
330
A
100
AcDbEntity
  8
1
  6
solid
 62
     7
100
AcDbLine
 10
1.035711069136187
 20
-0.4079096589795432
 30
0.0
 11
1.035711069136187
 21
-0.3881212868865199
 31
0.0
  0
LINE
  5
96
330
A
100
AcDbEntity
  8
1
  6
solid
 62
     7
100
AcDbLine
 10
1.035711069136187
 20
-0.3881212868865199
 30
0.0
 11
1.08827479006642
 21
-0.3090724496772176
 31
0.0
  0
LINE
  5
97
330
A
100
AcDbEntity
  8
1
  6
solid
 62
     7
100
AcDbLine
 10
1.08827479006642
 20
-0.3090724496772176
 30
0.0
 11
1.109838976112933
 21
-0.3090724496772176
 31
0.0
  0
LINE
  5
98
330
A
100
AcDbEntity
  8
1
  6
solid
 62
     7
100
AcDbLine
 10
1.109838976112933
 20
-0.3090724496772176
 30
0.0
 11
1.109838976112933
 21
-0.3875608217702409
 31
0.0
  0
LINE
  5
99
330
A
100
AcDbEntity
  8
1
  6
solid
 62
     7
100
AcDbLine
 10
1.109838976112933
 20
-0.3875608217702409
 30
0.0
 11
1.125827348205955
 21
-0.3875608217702409
 31
0.0
  0
LINE
  5
9A
330
A
100
AcDbEntity
  8
1
  6
solid
 62
     7
100
AcDbLine
 10
1.125827348205955
 20
-0.3875608217702409
 30
0.0
 11
1.125827348205955
 21
-0.4079096589795432
 31
0.0
  0
LINE
  5
9B
330
A
100
AcDbEntity
  8
1
  6
solid
 62
     7
100
AcDbLine
 10
1.125827348205955
 20
-0.4079096589795432
 30
0.0
 11
1.109838976112933
 21
-0.4079096589795432
 31
0.0
  0
LINE
  5
9C
330
A
100
AcDbEntity
  8
1
  6
solid
 62
     7
100
AcDbLine
 10
1.109838976112933
 20
-0.4079096589795432
 30
0.0
 11
1.109838976112933
 21
-0.4326189613051247
 31
0.0
  0
LINE
  5
9D
330
A
100
AcDbEntity
  8
1
  6
solid
 62
     7
100
AcDbLine
 10
1.085129673787351
 20
-0.4326189613051247
 30
0.0
 11
1.109838976112933
 21
-0.4326189613051247
 31
0.0
  0
LINE
  5
9E
330
A
100
AcDbEntity
  8
1
  6
solid
 62
     7
100
AcDbLine
 10
1.085129673787351
 20
-0.3875608217702409
 30
0.0
 11
1.085129673787351
 21
-0.3477361706074502
 31
0.0
  0
LINE
  5
9F
330
A
100
AcDbEntity
  8
1
  6
solid
 62
     7
100
AcDbLine
 10
1.085129673787351
 20
-0.3477361706074502
 30
0.0
 11
1.05797479006642
 21
-0.3875608217702409
 31
0.0
  0
LINE
  5
A0
330
A
100
AcDbEntity
  8
1
  6
solid
 62
     7
100
AcDbLine
 10
1.085129673787351
 20
-0.3875608217702409
 30
0.0
 11
1.05797479006642
 21
-0.3875608217702409
 31
0.0
  0
LINE
  5
A1
330
A
100
AcDbEntity
  8
1
  6
solid
 62
     7
100
AcDbLine
 10
1.148637348205955
 20
-0.399188728746985
 30
0.0
 11
1.148637348205955
 21
-0.3773864031655897
 31
0.0
  0
LINE
  5
A2
330
A
100
AcDbEntity
  8
1
  6
solid
 62
     7
100
AcDbLine
 10
1.148637348205955
 20
-0.3773864031655897
 30
0.0
 11
1.196602464485025
 21
-0.3773864031655897
 31
0.0
  0
LINE
  5
A3
330
A
100
AcDbEntity
  8
1
  6
solid
 62
     7
100
AcDbLine
 10
1.196602464485025
 20
-0.3773864031655897
 30
0.0
 11
1.196602464485025
 21
-0.399188728746985
 31
0.0
  0
LINE
  5
A4
330
A
100
AcDbEntity
  8
1
  6
solid
 62
     7
100
AcDbLine
 10
1.148637348205955
 20
-0.399188728746985
 30
0.0
 11
1.196602464485025
 21
-0.399188728746985
 31
0.0
  0
LINE
  5
A5
330
A
100
AcDbEntity
  8
1
  6
solid
 62
     7
100
AcDbLine
 10
1.27464502262456
 20
-0.4326189613051247
 30
0.0
 11
1.249935720298978
 21
-0.4326189613051247
 31
0.0
  0
LINE
  5
A6
330
A
100
AcDbEntity
  8
1
  6
solid
 62
     7
100
AcDbLine
 10
1.249935720298978
 20
-0.4326189613051247
 30
0.0
 11
1.249935720298978
 21
-0.3437626822353571
 31
0.0
  0
SPLINE
  5
A7
330
A
100
AcDbEntity
  8
1
  6
solid
 62
     7
100
AcDbSpline
210
0.0
220
0.0
230
1.0
 70
     8
 71
     2
 72
     6
 73
     3
 74
     0
 42
0.0000000001
 43
0.0000000001
 40
0.0
 40
0.0
 40
0.0
 40
1.0
 40
1.0
 40
1.0
 10
1.249935720298978
 20
-0.3437626822353571
 30
0.0
 10
1.236943627275723
 20
-0.3579254729330316
 30
0.0
 10
1.219412464485025
 20
-0.3643050078167525
 30
0.0
  0
LINE
  5
A8
330
A
100
AcDbEntity
  8
1
  6
solid
 62
     7
100
AcDbLine
 10
1.219412464485025
 20
-0.3643050078167525
 30
0.0
 11
1.219412464485025
 21
-0.3395957054911711
 31
0.0
  0
SPLINE
  5
A9
330
A
100
AcDbEntity
  8
1
  6
solid
 62
     7
100
AcDbSpline
210
0.0
220
0.0
230
1.0
 70
     8
 71
     2
 72
     7
 73
     4
 74
     0
 42
0.0000000001
 43
0.0000000001
 40
0.0
 40
0.0
 40
0.0
 40
1.0
 40
2.0
 40
2.0
 40
2.0
 10
1.219412464485025
 20
-0.3395957054911711
 30
0.0
 10
1.22859479006642
 20
-0.3365547752586129
 30
0.0
 10
1.25062037146177
 20
-0.319202217119078
 30
0.0
 10
1.254817115647816
 20
-0.3076189613051246
 30
0.0
  0
LINE
  5
AA
330
A
100
AcDbEntity
  8
1
  6
solid
 62
     7
100
AcDbLine
 10
1.254817115647816
 20
-0.3076189613051246
 30
0.0
 11
1.27464502262456
 21
-0.3076189613051246
 31
0.0
  0
LINE
  5
AB
330
A
100
AcDbEntity
  8
1
  6
solid
 62
     7
100
AcDbLine
 10
1.27464502262456
 20
-0.4326189613051247
 30
0.0
 11
1.27464502262456
 21
-0.3076189613051246
 31
0.0
  0
LINE
  5
AC
330
A
100
AcDbEntity
  8
1
  6
solid
 62
     7
100
AcDbLine
 10
1.296626650531536
 20
-0.4326189613051247
 30
0.0
 11
1.325711301694328
 21
-0.3076189613051246
 31
0.0
  0
LINE
  5
AD
330
A
100
AcDbEntity
  8
1
  6
solid
 62
     7
100
AcDbLine
 10
1.325711301694328
 20
-0.3076189613051246
 30
0.0
 11
1.345420138903629
 21
-0.3076189613051246
 31
0.0
  0
LINE
  5
AE
330
A
100
AcDbEntity
  8
1
  6
solid
 62
     7
100
AcDbLine
 10
1.345420138903629
 20
-0.3076189613051246
 30
0.0
 11
1.316350371461769
 21
-0.4326189613051247
 31
0.0
  0
LINE
  5
AF
330
A
100
AcDbEntity
  8
1
  6
solid
 62
     7
100
AcDbLine
 10
1.296626650531536
 20
-0.4326189613051247
 30
0.0
 11
1.316350371461769
 21
-0.4326189613051247
 31
0.0
  0
LINE
  5
B0
330
A
100
AcDbEntity
  8
1
  6
solid
 62
     7
100
AcDbLine
 10
1.451078976112933
 20
-0.4079096589795432
 30
0.0
 11
1.451078976112933
 21
-0.4326189613051247
 31
0.0
  0
LINE
  5
B1
330
A
100
AcDbEntity
  8
1
  6
solid
 62
     7
100
AcDbLine
 10
1.451078976112933
 20
-0.4326189613051247
 30
0.0
 11
1.368230138903629
 21
-0.4326189613051247
 31
0.0
  0
SPLINE
  5
B2
330
A
100
AcDbEntity
  8
1
  6
solid
 62
     7
100
AcDbSpline
210
0.0
220
0.0
230
1.0
 70
     8
 71
     2
 72
     7
 73
     4
 74
     0
 42
0.0000000001
 43
0.0000000001
 40
0.0
 40
0.0
 40
0.0
 40
1.0
 40
2.0
 40
2.0
 40
2.0
 10
1.368230138903629
 20
-0.4326189613051247
 30
0.0
 10
1.369093394717584
 20
-0.4205296589795432
 30
0.0
 10
1.382779906345491
 20
-0.3985487287469851
 30
0.0
 10
1.402077115647816
 20
-0.3800850078167524
 30
0.0
  0
SPLINE
  5
B3
330
A
100
AcDbEntity
  8
1
  6
solid
 62
     7
100
AcDbSpline
210
0.0
220
0.0
230
1.0
 70
     8
 71
     2
 72
     6
 73
     3
 74
     0
 42
0.0000000001
 43
0.0000000001
 40
0.0
 40
0.0
 40
0.0
 40
1.0
 40
1.0
 40
1.0
 10
1.402077115647816
 20
-0.3800850078167524
 30
0.0
 10
1.417886883089676
 20
-0.3654161706074501
 30
0.0
 10
1.421225487740839
 20
-0.360475240374892
 30
0.0
  0
SPLINE
  5
B4
330
A
100
AcDbEntity
  8
1
  6
solid
 62
     7
100
AcDbSpline
210
0.0
220
0.0
230
1.0
 70
     8
 71
     2
 72
     6
 73
     3
 74
     0
 42
0.0000000001
 43
0.0000000001
 40
0.0
 40
0.0
 40
0.0
 40
1.0
 40
1.0
 40
1.0
 10
1.421225487740839
 20
-0.360475240374892
 30
0.0
 10
1.426369673787351
 20
-0.3532226822353571
 30
0.0
 10
1.426369673787351
 20
-0.3460743101423338
 30
0.0
  0
SPLINE
  5
B5
330
A
100
AcDbEntity
  8
1
  6
solid
 62
     7
100
AcDbSpline
210
0.0
220
0.0
230
1.0
 70
     8
 71
     2
 72
     7
 73
     4
 74
     0
 42
0.0000000001
 43
0.0000000001
 40
0.0
 40
0.0
 40
0.0
 40
1.0
 40
2.0
 40
2.0
 40
2.0
 10
1.426369673787351
 20
-0.3460743101423338
 30
0.0
 10
1.426369673787351
 20
-0.3379338450260548
 30
0.0
 10
1.41818455750828
 20
-0.3294212868865199
 30
0.0
 10
1.411110604019909
 20
-0.3294212868865199
 30
0.0
  0
SPLINE
  5
B6
330
A
100
AcDbEntity
  8
1
  6
solid
 62
     7
100
AcDbSpline
210
0.0
220
0.0
230
1.0
 70
     8
 71
     2
 72
     7
 73
     4
 74
     0
 42
0.0000000001
 43
0.0000000001
 40
0.0
 40
0.0
 40
0.0
 40
1.0
 40
2.0
 40
2.0
 40
2.0
 10
1.411110604019909
 20
-0.3294212868865199
 30
0.0
 10
1.404597115647816
 20
-0.3294212868865199
 30
0.0
 10
1.396263162159443
 20
-0.3386580310725664
 30
0.0
 10
1.395846417973398
 20
-0.3483166357237292
 30
0.0
  0
LINE
  5
B7
330
A
100
AcDbEntity
  8
1
  6
solid
 62
     7
100
AcDbLine
 10
1.395846417973398
 20
-0.3483166357237292
 30
0.0
 11
1.371137115647816
 21
-0.3462975659562874
 31
0.0
  0
SPLINE
  5
B8
330
A
100
AcDbEntity
  8
1
  6
solid
 62
     7
100
AcDbSpline
210
0.0
220
0.0
230
1.0
 70
     8
 71
     2
 72
     7
 73
     4
 74
     0
 42
0.0000000001
 43
0.0000000001
 40
0.0
 40
0.0
 40
0.0
 40
1.0
 40
2.0
 40
2.0
 40
2.0
 10
1.371137115647816
 20
-0.3462975659562874
 30
0.0
 10
1.373007348205955
 20
-0.3258445427004734
 30
0.0
 10
1.395062697043164
 20
-0.3076189613051246
 30
0.0
 10
1.411968743554792
 20
-0.3076189613051246
 30
0.0
  0
SPLINE
  5
B9
330
A
100
AcDbEntity
  8
1
  6
solid
 62
     7
100
AcDbSpline
210
0.0
220
0.0
230
1.0
 70
     8
 71
     2
 72
     7
 73
     4
 74
     0
 42
0.0000000001
 43
0.0000000001
 40
0.0
 40
0.0
 40
0.0
 40
1.0
 40
2.0
 40
2.0
 40
2.0
 10
1.411968743554792
 20
-0.3076189613051246
 30
0.0
 10
1.429916650531537
 20
-0.3076189613051246
 30
0.0
 10
1.451078976112933
 20
-0.3273277985144269
 30
0.0
 10
1.451078976112933
 20
-0.341788263630706
 30
0.0
  0
SPLINE
  5
BA
330
A
100
AcDbEntity
  8
1
  6
solid
 62
     7
100
AcDbSpline
210
0.0
220
0.0
230
1.0
 70
     8
 71
     2
 72
     7
 73
     4
 74
     0
 42
0.0000000001
 43
0.0000000001
 40
0.0
 40
0.0
 40
0.0
 40
1.0
 40
2.0
 40
2.0
 40
2.0
 10
1.451078976112933
 20
-0.341788263630706
 30
0.0
 10
1.451078976112933
 20
-0.3496659380493106
 30
0.0
 10
1.444704557508281
 20
-0.364895240374892
 30
0.0
 10
1.438488743554793
 20
-0.3727133799097757
 30
0.0
  0
SPLINE
  5
BB
330
A
100
AcDbEntity
  8
1
  6
solid
 62
     7
100
AcDbSpline
210
0.0
220
0.0
230
1.0
 70
     8
 71
     2
 72
     8
 73
     5
 74
     0
 42
0.0000000001
 43
0.0000000001
 40
0.0
 40
0.0
 40
0.0
 40
1.0
 40
2.0
 40
3.0
 40
3.0
 40
3.0
 10
1.438488743554793
 20
-0.3727133799097757
 30
0.0
 10
1.434202697043164
 20
-0.3782445427004734
 30
0.0
 10
1.41119990634549
 20
-0.3985040775841943
 30
0.0
 10
1.405326417973397
 20
-0.4048389613051246
 30
0.0
 10
1.403619906345491
 20
-0.4079096589795432
 30
0.0
  0
LINE
  5
BC
330
A
100
AcDbEntity
  8
1
  6
solid
 62
     7
100
AcDbLine
 10
1.451078976112933
 20
-0.4079096589795432
 30
0.0
 11
1.403619906345491
 21
-0.4079096589795432
 31
0.0
  0
LINE
  5
BE
330
A
100
AcDbEntity
  8
0
  6
solid
 62
     7
100
AcDbLine
 10
2.291094138743318
 20
3.263480279371559
 30
0.0
 11
2.291094138743318
 21
3.269267316408596
 31
0.0
  0
SPLINE
  5
BF
330
A
100
AcDbEntity
  8
0
  6
solid
 62
     7
100
AcDbSpline
210
0.0
220
0.0
230
1.0
 70
     8
 71
     2
 72
     6
 73
     3
 74
     0
 42
0.0000000001
 43
0.0000000001
 40
0.0
 40
0.0
 40
0.0
 40
1.0
 40
1.0
 40
1.0
 10
2.291094138743318
 20
3.269267316408596
 30
0.0
 10
2.303807101706281
 20
3.269267316408596
 30
0.0
 10
2.30943611405196
 20
3.275074106532052
 30
0.0
  0
SPLINE
  5
C0
330
A
100
AcDbEntity
  8
0
  6
solid
 62
     7
100
AcDbSpline
210
0.0
220
0.0
230
1.0
 70
     8
 71
     2
 72
     7
 73
     4
 74
     0
 42
0.0000000001
 43
0.0000000001
 40
0.0
 40
0.0
 40
0.0
 40
1.0
 40
2.0
 40
2.0
 40
2.0
 10
2.30943611405196
 20
3.275074106532052
 30
0.0
 10
2.31211574368159
 20
3.277852501593781
 30
0.0
 10
2.315025620224799
 20
3.288715464556744
 30
0.0
 10
2.315025620224799
 20
3.299387686778966
 30
0.0
  0
LINE
  5
C1
330
A
100
AcDbEntity
  8
0
  6
solid
 62
     7
100
AcDbLine
 10
2.315025620224799
 20
3.299387686778966
 30
0.0
 11
2.315025620224799
 21
3.383079044803658
 31
0.0
  0
SPLINE
  5
C2
330
A
100
AcDbEntity
  8
0
  6
solid
 62
     7
100
AcDbSpline
210
0.0
220
0.0
230
1.0
 70
     8
 71
     2
 72
     7
 73
     4
 74
     0
 42
0.0000000001
 43
0.0000000001
 40
0.0
 40
0.0
 40
0.0
 40
1.0
 40
2.0
 40
2.0
 40
2.0
 10
2.315025620224799
 20
3.383079044803658
 30
0.0
 10
2.315025620224799
 20
3.394653118877732
 30
0.0
 10
2.311997225163071
 20
3.405009291717238
 30
0.0
 10
2.308455249854429
 20
3.408452501593781
 30
0.0
  0
SPLINE
  5
C3
330
A
100
AcDbEntity
  8
0
  6
solid
 62
     7
100
AcDbSpline
210
0.0
220
0.0
230
1.0
 70
     8
 71
     2
 72
     7
 73
     4
 74
     0
 42
0.0000000001
 43
0.0000000001
 40
0.0
 40
0.0
 40
0.0
 40
1.0
 40
2.0
 40
2.0
 40
2.0
 10
2.308455249854429
 20
3.408452501593781
 30
0.0
 10
2.305953398002577
 20
3.410835834927114
 30
0.0
 10
2.298652163434676
 20
3.413140155914768
 30
0.0
 10
2.291094138743318
 20
3.413982748507361
 30
0.0
  0
LINE
  5
C4
330
A
100
AcDbEntity
  8
0
  6
solid
 62
     7
100
AcDbLine
 10
2.291094138743318
 20
3.413982748507361
 30
0.0
 11
2.291094138743318
 21
3.419730279371559
 31
0.0
  0
LINE
  5
C5
330
A
100
AcDbEntity
  8
0
  6
solid
 62
     7
100
AcDbLine
 10
2.291094138743318
 20
3.419730279371559
 30
0.0
 11
2.367425002940849
 21
3.419730279371559
 31
0.0
  0
LINE
  5
C6
330
A
100
AcDbEntity
  8
0
  6
solid
 62
     7
100
AcDbLine
 10
2.367425002940849
 20
3.419730279371559
 30
0.0
 11
2.367425002940849
 21
3.41408151393946
 31
0.0
  0
SPLINE
  5
C7
330
A
100
AcDbEntity
  8
0
  6
solid
 62
     7
100
AcDbSpline
210
0.0
220
0.0
230
1.0
 70
     8
 71
     2
 72
     7
 73
     4
 74
     0
 42
0.0000000001
 43
0.0000000001
 40
0.0
 40
0.0
 40
0.0
 40
1.0
 40
2.0
 40
2.0
 40
2.0
 10
2.367425002940849
 20
3.41408151393946
 30
0.0
 10
2.358254015286528
 20
3.413100649741929
 30
0.0
 10
2.352131175780355
 20
3.411013612704892
 30
0.0
 10
2.34878673133591
 20
3.408373489248102
 30
0.0
  0
SPLINE
  5
C8
330
A
100
AcDbEntity
  8
0
  6
solid
 62
     7
100
AcDbSpline
210
0.0
220
0.0
230
1.0
 70
     8
 71
     2
 72
     7
 73
     4
 74
     0
 42
0.0000000001
 43
0.0000000001
 40
0.0
 40
0.0
 40
0.0
 40
1.0
 40
2.0
 40
2.0
 40
2.0
 10
2.34878673133591
 20
3.408373489248102
 30
0.0
 10
2.346344138743318
 20
3.405305588013534
 30
0.0
 10
2.343960805409984
 20
3.39475188430983
 30
0.0
 10
2.343960805409984
 20
3.382295711470324
 30
0.0
  0
LINE
  5
C9
330
A
100
AcDbEntity
  8
0
  6
solid
 62
     7
100
AcDbLine
 10
2.343960805409984
 20
3.382295711470324
 30
0.0
 11
2.343960805409984
 21
3.317512378136991
 31
0.0
  0
SPLINE
  5
CA
330
A
100
AcDbEntity
  8
0
  6
solid
 62
     7
100
AcDbSpline
210
0.0
220
0.0
230
1.0
 70
     8
 71
     2
 72
     7
 73
     4
 74
     0
 42
0.0000000001
 43
0.0000000001
 40
0.0
 40
0.0
 40
0.0
 40
1.0
 40
2.0
 40
2.0
 40
2.0
 10
2.343960805409984
 20
3.317512378136991
 30
0.0
 10
2.343960805409984
 20
3.302060526285139
 30
0.0
 10
2.344968212817392
 20
3.287359291717238
 30
0.0
 10
2.346857718990232
 20
3.28350126702588
 30
0.0
  0
SPLINE
  5
CB
330
A
100
AcDbEntity
  8
0
  6
solid
 62
     7
100
AcDbSpline
210
0.0
220
0.0
230
1.0
 70
     8
 71
     2
 72
     7
 73
     4
 74
     0
 42
0.0000000001
 43
0.0000000001
 40
0.0
 40
0.0
 40
0.0
 40
1.0
 40
2.0
 40
2.0
 40
2.0
 10
2.346857718990232
 20
3.28350126702588
 30
0.0
 10
2.350735496768009
 20
3.275548180606127
 30
0.0
 10
2.364159570842083
 20
3.269267316408596
 30
0.0
 10
2.375753398002577
 20
3.269267316408596
 30
0.0
  0
SPLINE
  5
CC
330
A
100
AcDbEntity
  8
0
  6
solid
 62
     7
100
AcDbSpline
210
0.0
220
0.0
230
1.0
 70
     8
 71
     2
 72
     7
 73
     4
 74
     0
 42
0.0000000001
 43
0.0000000001
 40
0.0
 40
0.0
 40
0.0
 40
1.0
 40
2.0
 40
2.0
 40
2.0
 10
2.375753398002577
 20
3.269267316408596
 30
0.0
 10
2.388960188126034
 20
3.269267316408596
 30
0.0
 10
2.406380558496404
 20
3.275706205297485
 30
0.0
 10
2.412009570842083
 20
3.283007439865386
 30
0.0
  0
SPLINE
  5
CD
330
A
100
AcDbEntity
  8
0
  6
solid
 62
     7
100
AcDbSpline
210
0.0
220
0.0
230
1.0
 70
     8
 71
     2
 72
     7
 73
     4
 74
     0
 42
0.0000000001
 43
0.0000000001
 40
0.0
 40
0.0
 40
0.0
 40
1.0
 40
2.0
 40
2.0
 40
2.0
 10
2.412009570842083
 20
3.283007439865386
 30
0.0
 10
2.415808336274182
 20
3.287517316408596
 30
0.0
 10
2.420357718990231
 20
3.300348797890077
 30
0.0
 10
2.423287348619861
 20
3.312179662087608
 30
0.0
  0
LINE
  5
CE
330
A
100
AcDbEntity
  8
0
  6
solid
 62
     7
100
AcDbLine
 10
2.423287348619861
 20
3.312179662087608
 30
0.0
 11
2.43076636096554
 21
3.311764847272793
 31
0.0
  0
LINE
  5
CF
330
A
100
AcDbEntity
  8
0
  6
solid
 62
     7
100
AcDbLine
 10
2.43076636096554
 20
3.311764847272793
 30
0.0
 11
2.43076636096554
 21
3.263480279371559
 31
0.0
  0
LINE
  5
D0
330
A
100
AcDbEntity
  8
0
  6
solid
 62
     7
100
AcDbLine
 10
2.291094138743318
 20
3.263480279371559
 30
0.0
 11
2.43076636096554
 21
3.263480279371559
 31
0.0
  0
SPLINE
  5
D1
330
A
100
AcDbEntity
  8
0
  6
solid
 62
     7
100
AcDbSpline
210
0.0
220
0.0
230
1.0
 70
     8
 71
     2
 72
     7
 73
     4
 74
     0
 42
0.0000000001
 43
0.0000000001
 40
0.0
 40
0.0
 40
0.0
 40
1.0
 40
2.0
 40
2.0
 40
2.0
 10
2.442523027632207
 20
3.268523489248102
 30
0.0
 10
2.451061916521096
 20
3.269445094186373
 30
0.0
 10
2.457698336274182
 20
3.271867933692546
 30
0.0
 10
2.460865002940849
 20
3.275133365791312
 30
0.0
  0
SPLINE
  5
D2
330
A
100
AcDbEntity
  8
0
  6
solid
 62
     7
100
AcDbSpline
210
0.0
220
0.0
230
1.0
 70
     8
 71
     2
 72
     7
 73
     4
 74
     0
 42
0.0000000001
 43
0.0000000001
 40
0.0
 40
0.0
 40
0.0
 40
1.0
 40
2.0
 40
2.0
 40
2.0
 10
2.460865002940849
 20
3.275133365791312
 30
0.0
 10
2.463544632570478
 20
3.27793151393946
 30
0.0
 10
2.466454509113688
 20
3.288774723816003
 30
0.0
 10
2.466454509113688
 20
3.299446946038225
 30
0.0
  0
LINE
  5
D3
330
A
100
AcDbEntity
  8
0
  6
solid
 62
     7
100
AcDbLine
 10
2.466454509113688
 20
3.299446946038225
 30
0.0
 11
2.466454509113688
 21
3.383098797890077
 31
0.0
  0
SPLINE
  5
D4
330
A
100
AcDbEntity
  8
0
  6
solid
 62
     7
100
AcDbSpline
210
0.0
220
0.0
230
1.0
 70
     8
 71
     2
 72
     7
 73
     4
 74
     0
 42
0.0000000001
 43
0.0000000001
 40
0.0
 40
0.0
 40
0.0
 40
1.0
 40
2.0
 40
2.0
 40
2.0
 10
2.466454509113688
 20
3.383098797890077
 30
0.0
 10
2.466454509113688
 20
3.395028427519707
 30
0.0
 10
2.463307595533442
 20
3.405345094186373
 30
0.0
 10
2.459429817755664
 20
3.408847563322176
 30
0.0
  0
SPLINE
  5
D5
330
A
100
AcDbEntity
  8
0
  6
solid
 62
     7
100
AcDbSpline
210
0.0
220
0.0
230
1.0
 70
     8
 71
     2
 72
     6
 73
     3
 74
     0
 42
0.0000000001
 43
0.0000000001
 40
0.0
 40
0.0
 40
0.0
 40
1.0
 40
1.0
 40
1.0
 10
2.459429817755664
 20
3.408847563322176
 30
0.0
 10
2.45419586713838
 20
3.412922871964151
 30
0.0
 10
2.442523027632207
 20
3.414002501593781
 30
0.0
  0
LINE
  5
D6
330
A
100
AcDbEntity
  8
0
  6
solid
 62
     7
100
AcDbLine
 10
2.442523027632207
 20
3.414002501593781
 30
0.0
 11
2.442523027632207
 21
3.419730279371559
 31
0.0
  0
LINE
  5
D7
330
A
100
AcDbEntity
  8
0
  6
solid
 62
     7
100
AcDbLine
 10
2.442523027632207
 20
3.419730279371559
 30
0.0
 11
2.505528583187762
 21
3.419730279371559
 31
0.0
  0
SPLINE
  5
D8
330
A
100
AcDbEntity
  8
0
  6
solid
 62
     7
100
AcDbSpline
210
0.0
220
0.0
230
1.0
 70
     8
 71
     2
 72
     6
 73
     3
 74
     0
 42
0.0000000001
 43
0.0000000001
 40
0.0
 40
0.0
 40
0.0
 40
1.0
 40
1.0
 40
1.0
 10
2.505528583187762
 20
3.419730279371559
 30
0.0
 10
2.525490311582824
 20
3.419045711470324
 30
0.0
 10
2.531158830101343
 20
3.418749415174028
 30
0.0
  0
SPLINE
  5
D9
330
A
100
AcDbEntity
  8
0
  6
solid
 62
     7
100
AcDbSpline
210
0.0
220
0.0
230
1.0
 70
     8
 71
     2
 72
     6
 73
     3
 74
     0
 42
0.0000000001
 43
0.0000000001
 40
0.0
 40
0.0
 40
0.0
 40
1.0
 40
1.0
 40
1.0
 10
2.531158830101343
 20
3.418749415174028
 30
0.0
 10
2.556097718990232
 20
3.416840155914769
 30
0.0
 10
2.57288599059517
 20
3.405088304062917
 30
0.0
  0
SPLINE
  5
DA
330
A
100
AcDbEntity
  8
0
  6
solid
 62
     7
100
AcDbSpline
210
0.0
220
0.0
230
1.0
 70
     8
 71
     2
 72
     7
 73
     4
 74
     0
 42
0.0000000001
 43
0.0000000001
 40
0.0
 40
0.0
 40
0.0
 40
1.0
 40
2.0
 40
2.0
 40
2.0
 10
2.57288599059517
 20
3.405088304062917
 30
0.0
 10
2.589167472076651
 20
3.393217933692546
 30
0.0
 10
2.607272410348256
 20
3.356685217643164
 30
0.0
 10
2.607272410348256
 20
3.335584600359213
 30
0.0
  0
SPLINE
  5
DB
330
A
100
AcDbEntity
  8
0
  6
solid
 62
     7
100
AcDbSpline
210
0.0
220
0.0
230
1.0
 70
     8
 71
     2
 72
     7
 73
     4
 74
     0
 42
0.0000000001
 43
0.0000000001
 40
0.0
 40
0.0
 40
0.0
 40
1.0
 40
2.0
 40
2.0
 40
2.0
 10
2.607272410348256
 20
3.335584600359213
 30
0.0
 10
2.607272410348256
 20
3.320172254680201
 30
0.0
 10
2.596784756027268
 20
3.29269200776662
 30
0.0
 10
2.587139694298874
 20
3.282790155914768
 30
0.0
  0
SPLINE
  5
DC
330
A
100
AcDbEntity
  8
0
  6
solid
 62
     7
100
AcDbSpline
210
0.0
220
0.0
230
1.0
 70
     8
 71
     2
 72
     6
 73
     3
 74
     0
 42
0.0000000001
 43
0.0000000001
 40
0.0
 40
0.0
 40
0.0
 40
1.0
 40
1.0
 40
1.0
 10
2.587139694298874
 20
3.282790155914768
 30
0.0
 10
2.575032286891466
 20
3.269682131223411
 30
0.0
 10
2.554465002940849
 20
3.265843859618472
 30
0.0
  0
SPLINE
  5
DD
330
A
100
AcDbEntity
  8
0
  6
solid
 62
     7
100
AcDbSpline
210
0.0
220
0.0
230
1.0
 70
     8
 71
     2
 72
     6
 73
     3
 74
     0
 42
0.0000000001
 43
0.0000000001
 40
0.0
 40
0.0
 40
0.0
 40
1.0
 40
1.0
 40
1.0
 10
2.554465002940849
 20
3.265843859618472
 30
0.0
 10
2.540744632570478
 20
3.263480279371559
 30
0.0
 10
2.526471175780355
 20
3.263480279371559
 30
0.0
  0
LINE
  5
DE
330
A
100
AcDbEntity
  8
0
  6
solid
 62
     7
100
AcDbLine
 10
2.526471175780355
 20
3.263480279371559
 30
0.0
 11
2.442523027632207
 21
3.263480279371559
 31
0.0
  0
LINE
  5
DF
330
A
100
AcDbEntity
  8
0
  6
solid
 62
     7
100
AcDbLine
 10
2.442523027632207
 20
3.268523489248102
 30
0.0
 11
2.442523027632207
 21
3.263480279371559
 31
0.0
  0
LINE
  5
E0
330
A
100
AcDbEntity
  8
0
  6
solid
 62
     7
100
AcDbLine
 10
2.495389694298873
 20
3.412014229988843
 30
0.0
 11
2.495389694298873
 21
3.302376575667855
 31
0.0
  0
SPLINE
  5
E1
330
A
100
AcDbEntity
  8
0
  6
solid
 62
     7
100
AcDbSpline
210
0.0
220
0.0
230
1.0
 70
     8
 71
     2
 72
     7
 73
     4
 74
     0
 42
0.0000000001
 43
0.0000000001
 40
0.0
 40
0.0
 40
0.0
 40
1.0
 40
2.0
 40
2.0
 40
2.0
 10
2.495389694298873
 20
3.302376575667855
 30
0.0
 10
2.495389694298873
 20
3.291079044803657
 30
0.0
 10
2.497654509113688
 20
3.279821020112299
 30
0.0
 10
2.499978583187763
 20
3.277180896655509
 30
0.0
  0
SPLINE
  5
E2
330
A
100
AcDbEntity
  8
0
  6
solid
 62
     7
100
AcDbSpline
210
0.0
220
0.0
230
1.0
 70
     8
 71
     2
 72
     6
 73
     3
 74
     0
 42
0.0000000001
 43
0.0000000001
 40
0.0
 40
0.0
 40
0.0
 40
1.0
 40
1.0
 40
1.0
 10
2.499978583187763
 20
3.277180896655509
 30
0.0
 10
2.507003274545787
 20
3.269267316408596
 30
0.0
 10
2.520822410348256
 20
3.269267316408596
 30
0.0
  0
SPLINE
  5
E3
330
A
100
AcDbEntity
  8
0
  6
solid
 62
     7
100
AcDbSpline
210
0.0
220
0.0
230
1.0
 70
     8
 71
     2
 72
     7
 73
     4
 74
     0
 42
0.0000000001
 43
0.0000000001
 40
0.0
 40
0.0
 40
0.0
 40
1.0
 40
2.0
 40
2.0
 40
2.0
 10
2.520822410348256
 20
3.269267316408596
 30
0.0
 10
2.534325496768009
 20
3.269267316408596
 30
0.0
 10
2.553457595533441
 20
3.277635217643164
 30
0.0
 10
2.561015620224799
 20
3.287379044803657
 30
0.0
  0
SPLINE
  5
E4
330
A
100
AcDbEntity
  8
0
  6
solid
 62
     7
100
AcDbSpline
210
0.0
220
0.0
230
1.0
 70
     8
 71
     2
 72
     7
 73
     4
 74
     0
 42
0.0000000001
 43
0.0000000001
 40
0.0
 40
0.0
 40
0.0
 40
1.0
 40
2.0
 40
2.0
 40
2.0
 10
2.561015620224799
 20
3.287379044803657
 30
0.0
 10
2.567908830101342
 20
3.297004353445633
 30
0.0
 10
2.576408212817392
 20
3.321982748507361
 30
0.0
 10
2.576408212817392
 20
3.33578213122341
 30
0.0
  0
SPLINE
  5
E5
330
A
100
AcDbEntity
  8
0
  6
solid
 62
     7
100
AcDbSpline
210
0.0
220
0.0
230
1.0
 70
     8
 71
     2
 72
     7
 73
     4
 74
     0
 42
0.0000000001
 43
0.0000000001
 40
0.0
 40
0.0
 40
0.0
 40
1.0
 40
2.0
 40
2.0
 40
2.0
 10
2.576408212817392
 20
3.33578213122341
 30
0.0
 10
2.576408212817392
 20
3.351293242334522
 30
0.0
 10
2.566842163434676
 20
3.379675341099954
 30
0.0
 10
2.557730435039614
 20
3.389853736161682
 30
0.0
  0
SPLINE
  5
E6
330
A
100
AcDbEntity
  8
0
  6
solid
 62
     7
100
AcDbSpline
210
0.0
220
0.0
230
1.0
 70
     8
 71
     2
 72
     6
 73
     3
 74
     0
 42
0.0000000001
 43
0.0000000001
 40
0.0
 40
0.0
 40
0.0
 40
1.0
 40
1.0
 40
1.0
 10
2.557730435039614
 20
3.389853736161682
 30
0.0
 10
2.545741546150726
 20
3.404653736161682
 30
0.0
 10
2.52871623750875
 20
3.409025341099954
 30
0.0
  0
SPLINE
  5
E7
330
A
100
AcDbEntity
  8
0
  6
solid
 62
     7
100
AcDbSpline
210
0.0
220
0.0
230
1.0
 70
     8
 71
     2
 72
     6
 73
     3
 74
     0
 42
0.0000000001
 43
0.0000000001
 40
0.0
 40
0.0
 40
0.0
 40
1.0
 40
1.0
 40
1.0
 10
2.52871623750875
 20
3.409025341099954
 30
0.0
 10
2.519268706644552
 20
3.412014229988843
 30
0.0
 10
2.505173027632207
 20
3.412014229988843
 30
0.0
  0
LINE
  5
E8
330
A
100
AcDbEntity
  8
0
  6
solid
 62
     7
100
AcDbLine
 10
2.495389694298873
 20
3.412014229988843
 30
0.0
 11
2.505173027632207
 21
3.412014229988843
 31
0.0
  0
SPLINE
  5
E9
330
A
100
AcDbEntity
  8
0
  6
solid
 62
     7
100
AcDbSpline
210
0.0
220
0.0
230
1.0
 70
     8
 71
     2
 72
     6
 73
     3
 74
     0
 42
0.0000000001
 43
0.0000000001
 40
0.0
 40
0.0
 40
0.0
 40
1.0
 40
1.0
 40
1.0
 10
2.686228459730972
 20
3.345525958383904
 30
0.0
 10
2.722050064669244
 20
3.337513612704892
 30
0.0
 10
2.722050064669244
 20
3.308459909001188
 30
0.0
  0
SPLINE
  5
EA
330
A
100
AcDbEntity
  8
0
  6
solid
 62
     7
100
AcDbSpline
210
0.0
220
0.0
230
1.0
 70
     8
 71
     2
 72
     6
 73
     3
 74
     0
 42
0.0000000001
 43
0.0000000001
 40
0.0
 40
0.0
 40
0.0
 40
1.0
 40
1.0
 40
1.0
 10
2.722050064669244
 20
3.308459909001188
 30
0.0
 10
2.722050064669244
 20
3.298755588013534
 30
0.0
 10
2.716934632570478
 20
3.28905126702588
 30
0.0
  0
SPLINE
  5
EB
330
A
100
AcDbEntity
  8
0
  6
solid
 62
     7
100
AcDbSpline
210
0.0
220
0.0
230
1.0
 70
     8
 71
     2
 72
     7
 73
     4
 74
     0
 42
0.0000000001
 43
0.0000000001
 40
0.0
 40
0.0
 40
0.0
 40
1.0
 40
2.0
 40
2.0
 40
2.0
 10
2.716934632570478
 20
3.28905126702588
 30
0.0
 10
2.710910558496404
 20
3.276160526285139
 30
0.0
 10
2.682567965903812
 20
3.261551267025879
 30
0.0
 10
2.66449574368159
 20
3.261551267025879
 30
0.0
  0
SPLINE
  5
EC
330
A
100
AcDbEntity
  8
0
  6
solid
 62
     7
100
AcDbSpline
210
0.0
220
0.0
230
1.0
 70
     8
 71
     2
 72
     7
 73
     4
 74
     0
 42
0.0000000001
 43
0.0000000001
 40
0.0
 40
0.0
 40
0.0
 40
1.0
 40
2.0
 40
2.0
 40
2.0
 10
2.66449574368159
 20
3.261551267025879
 30
0.0
 10
2.653553768372947
 20
3.261551267025879
 30
0.0
 10
2.635422286891466
 20
3.267476575667855
 30
0.0
 10
2.62959574368159
 20
3.272282748507361
 30
0.0
  0
SPLINE
  5
ED
330
A
100
AcDbEntity
  8
0
  6
solid
 62
     7
100
AcDbSpline
210
0.0
220
0.0
230
1.0
 70
     8
 71
     2
 72
     7
 73
     4
 74
     0
 42
0.0000000001
 43
0.0000000001
 40
0.0
 40
0.0
 40
0.0
 40
1.0
 40
2.0
 40
2.0
 40
2.0
 10
2.62959574368159
 20
3.272282748507361
 30
0.0
 10
2.624559323928503
 20
3.277042625050571
 30
0.0
 10
2.619812410348256
 20
3.288596946038225
 30
0.0
 10
2.619812410348256
 20
3.294522254680201
 30
0.0
  0
SPLINE
  5
EE
330
A
100
AcDbEntity
  8
0
  6
solid
 62
     7
100
AcDbSpline
210
0.0
220
0.0
230
1.0
 70
     8
 71
     2
 72
     7
 73
     4
 74
     0
 42
0.0000000001
 43
0.0000000001
 40
0.0
 40
0.0
 40
0.0
 40
1.0
 40
2.0
 40
2.0
 40
2.0
 10
2.619812410348256
 20
3.294522254680201
 30
0.0
 10
2.619812410348256
 20
3.30464139048267
 30
0.0
 10
2.633829077014923
 20
3.31942163739625
 30
0.0
 10
2.647490188126034
 20
3.31942163739625
 30
0.0
  0
LINE
  5
EF
330
A
100
AcDbEntity
  8
0
  6
solid
 62
     7
100
AcDbLine
 10
2.647490188126034
 20
3.31942163739625
 30
0.0
 11
2.648747595533441
 21
3.314622254680201
 31
0.0
  0
SPLINE
  5
F0
330
A
100
AcDbEntity
  8
0
  6
solid
 62
     7
100
AcDbSpline
210
0.0
220
0.0
230
1.0
 70
     8
 71
     2
 72
     7
 73
     4
 74
     0
 42
0.0000000001
 43
0.0000000001
 40
0.0
 40
0.0
 40
0.0
 40
1.0
 40
2.0
 40
2.0
 40
2.0
 10
2.648747595533441
 20
3.314622254680201
 30
0.0
 10
2.643118583187762
 20
3.310270402828349
 30
0.0
 10
2.639102533805047
 20
3.302060526285139
 30
0.0
 10
2.639102533805047
 20
3.295154353445633
 30
0.0
  0
SPLINE
  5
F1
330
A
100
AcDbEntity
  8
0
  6
solid
 62
     7
100
AcDbSpline
210
0.0
220
0.0
230
1.0
 70
     8
 71
     2
 72
     6
 73
     3
 74
     0
 42
0.0000000001
 43
0.0000000001
 40
0.0
 40
0.0
 40
0.0
 40
1.0
 40
1.0
 40
1.0
 10
2.639102533805047
 20
3.295154353445633
 30
0.0
 10
2.639102533805047
 20
3.285469785544398
 30
0.0
 10
2.643553151088997
 20
3.279030896655509
 30
0.0
  0
SPLINE
  5
F2
330
A
100
AcDbEntity
  8
0
  6
solid
 62
     7
100
AcDbSpline
210
0.0
220
0.0
230
1.0
 70
     8
 71
     2
 72
     7
 73
     4
 74
     0
 42
0.0000000001
 43
0.0000000001
 40
0.0
 40
0.0
 40
0.0
 40
1.0
 40
2.0
 40
2.0
 40
2.0
 10
2.643553151088997
 20
3.279030896655509
 30
0.0
 10
2.647648212817392
 20
3.272302501593781
 30
0.0
 10
2.65890623750875
 20
3.267338304062917
 30
0.0
 10
2.665088336274182
 20
3.267338304062917
 30
0.0
  0
SPLINE
  5
F3
330
A
100
AcDbEntity
  8
0
  6
solid
 62
     7
100
AcDbSpline
210
0.0
220
0.0
230
1.0
 70
     8
 71
     2
 72
     6
 73
     3
 74
     0
 42
0.0000000001
 43
0.0000000001
 40
0.0
 40
0.0
 40
0.0
 40
1.0
 40
1.0
 40
1.0
 10
2.665088336274182
 20
3.267338304062917
 30
0.0
 10
2.679611793064306
 20
3.267338304062917
 30
0.0
 10
2.687782163434676
 20
3.277812995420942
 30
0.0
  0
SPLINE
  5
F4
330
A
100
AcDbEntity
  8
0
  6
solid
 62
     7
100
AcDbSpline
210
0.0
220
0.0
230
1.0
 70
     8
 71
     2
 72
     7
 73
     4
 74
     0
 42
0.0000000001
 43
0.0000000001
 40
0.0
 40
0.0
 40
0.0
 40
1.0
 40
2.0
 40
2.0
 40
2.0
 10
2.687782163434676
 20
3.277812995420942
 30
0.0
 10
2.691837718990232
 20
3.283323489248102
 30
0.0
 10
2.696972904175417
 20
3.298459291717238
 30
0.0
 10
2.696972904175417
 20
3.306116081840694
 30
0.0
  0
SPLINE
  5
F5
330
A
100
AcDbEntity
  8
0
  6
solid
 62
     7
100
AcDbSpline
210
0.0
220
0.0
230
1.0
 70
     8
 71
     2
 72
     7
 73
     4
 74
     0
 42
0.0000000001
 43
0.0000000001
 40
0.0
 40
0.0
 40
0.0
 40
1.0
 40
2.0
 40
2.0
 40
2.0
 10
2.696972904175417
 20
3.306116081840694
 30
0.0
 10
2.696972904175417
 20
3.314325958383904
 30
0.0
 10
2.690461793064306
 20
3.33023213122341
 30
0.0
 10
2.686070435039614
 20
3.335189538630818
 30
0.0
  0
SPLINE
  5
F6
330
A
100
AcDbEntity
  8
0
  6
solid
 62
     7
100
AcDbSpline
210
0.0
220
0.0
230
1.0
 70
     8
 71
     2
 72
     6
 73
     3
 74
     0
 42
0.0000000001
 43
0.0000000001
 40
0.0
 40
0.0
 40
0.0
 40
1.0
 40
1.0
 40
1.0
 10
2.686070435039614
 20
3.335189538630818
 30
0.0
 10
2.680500681953195
 20
3.340640773198719
 30
0.0
 10
2.674437101706281
 20
3.340640773198719
 30
0.0
  0
SPLINE
  5
F7
330
A
100
AcDbEntity
  8
0
  6
solid
 62
     7
100
AcDbSpline
210
0.0
220
0.0
230
1.0
 70
     8
 71
     2
 72
     7
 73
     4
 74
     0
 42
0.0000000001
 43
0.0000000001
 40
0.0
 40
0.0
 40
0.0
 40
1.0
 40
2.0
 40
2.0
 40
2.0
 10
2.674437101706281
 20
3.340640773198719
 30
0.0
 10
2.673884015286528
 20
3.340640773198719
 30
0.0
 10
2.671112410348256
 20
3.339403118877732
 30
0.0
 10
2.668294509113688
 20
3.337158057149336
 30
0.0
  0
SPLINE
  5
F8
330
A
100
AcDbEntity
  8
0
  6
solid
 62
     7
100
AcDbSpline
210
0.0
220
0.0
230
1.0
 70
     8
 71
     2
 72
     6
 73
     3
 74
     0
 42
0.0000000001
 43
0.0000000001
 40
0.0
 40
0.0
 40
0.0
 40
1.0
 40
1.0
 40
1.0
 10
2.668294509113688
 20
3.337158057149336
 30
0.0
 10
2.662250681953195
 20
3.332924723816003
 30
0.0
 10
2.655700064669244
 20
3.332924723816003
 30
0.0
  0
SPLINE
  5
F9
330
A
100
AcDbEntity
  8
0
  6
solid
 62
     7
100
AcDbSpline
210
0.0
220
0.0
230
1.0
 70
     8
 71
     2
 72
     7
 73
     4
 74
     0
 42
0.0000000001
 43
0.0000000001
 40
0.0
 40
0.0
 40
0.0
 40
1.0
 40
2.0
 40
2.0
 40
2.0
 10
2.655700064669244
 20
3.332924723816003
 30
0.0
 10
2.651782780718627
 20
3.332924723816003
 30
0.0
 10
2.646818583187763
 20
3.337237069495015
 30
0.0
 10
2.646818583187763
 20
3.340956822581435
 30
0.0
  0
SPLINE
  5
FA
330
A
100
AcDbEntity
  8
0
  6
solid
 62
     7
100
AcDbSpline
210
0.0
220
0.0
230
1.0
 70
     8
 71
     2
 72
     7
 73
     4
 74
     0
 42
0.0000000001
 43
0.0000000001
 40
0.0
 40
0.0
 40
0.0
 40
1.0
 40
2.0
 40
2.0
 40
2.0
 10
2.646818583187763
 20
3.340956822581435
 30
0.0
 10
2.646818583187763
 20
3.344992625050571
 30
0.0
 10
2.653217965903812
 20
3.350285834927114
 30
0.0
 10
2.658392657261837
 20
3.350285834927114
 30
0.0
  0
SPLINE
  5
FB
330
A
100
AcDbEntity
  8
0
  6
solid
 62
     7
100
AcDbSpline
210
0.0
220
0.0
230
1.0
 70
     8
 71
     2
 72
     6
 73
     3
 74
     0
 42
0.0000000001
 43
0.0000000001
 40
0.0
 40
0.0
 40
0.0
 40
1.0
 40
1.0
 40
1.0
 10
2.658392657261837
 20
3.350285834927114
 30
0.0
 10
2.660716731335911
 20
3.34960126702588
 30
0.0
 10
2.662784015286528
 20
3.349324723816003
 30
0.0
  0
LINE
  5
FC
330
A
100
AcDbEntity
  8
0
  6
solid
 62
     7
100
AcDbLine
 10
2.662784015286528
 20
3.349324723816003
 30
0.0
 11
2.666898830101343
 21
3.348653118877732
 31
0.0
  0
SPLINE
  5
FD
330
A
100
AcDbEntity
  8
0
  6
solid
 62
     7
100
AcDbSpline
210
0.0
220
0.0
230
1.0
 70
     8
 71
     2
 72
     6
 73
     3
 74
     0
 42
0.0000000001
 43
0.0000000001
 40
0.0
 40
0.0
 40
0.0
 40
1.0
 40
1.0
 40
1.0
 10
2.666898830101343
 20
3.348653118877732
 30
0.0
 10
2.668748830101343
 20
3.348356822581435
 30
0.0
 10
2.670460558496404
 20
3.348356822581435
 30
0.0
  0
SPLINE
  5
FE
330
A
100
AcDbEntity
  8
0
  6
solid
 62
     7
100
AcDbSpline
210
0.0
220
0.0
230
1.0
 70
     8
 71
     2
 72
     6
 73
     3
 74
     0
 42
0.0000000001
 43
0.0000000001
 40
0.0
 40
0.0
 40
0.0
 40
1.0
 40
1.0
 40
1.0
 10
2.670460558496404
 20
3.348356822581435
 30
0.0
 10
2.676919200471713
 20
3.348356822581435
 30
0.0
 10
2.683805620224799
 20
3.354775958383904
 30
0.0
  0
SPLINE
  5
FF
330
A
100
AcDbEntity
  8
0
  6
solid
 62
     7
100
AcDbSpline
210
0.0
220
0.0
230
1.0
 70
     8
 71
     2
 72
     6
 73
     3
 74
     0
 42
0.0000000001
 43
0.0000000001
 40
0.0
 40
0.0
 40
0.0
 40
1.0
 40
1.0
 40
1.0
 10
2.683805620224799
 20
3.354775958383904
 30
0.0
 10
2.693114879484059
 20
3.364421020112299
 30
0.0
 10
2.693114879484059
 20
3.380346946038225
 30
0.0
  0
SPLINE
  5
100
330
A
100
AcDbEntity
  8
0
  6
solid
 62
     7
100
AcDbSpline
210
0.0
220
0.0
230
1.0
 70
     8
 71
     2
 72
     7
 73
     4
 74
     0
 42
0.0000000001
 43
0.0000000001
 40
0.0
 40
0.0
 40
0.0
 40
1.0
 40
2.0
 40
2.0
 40
2.0
 10
2.693114879484059
 20
3.380346946038225
 30
0.0
 10
2.693114879484059
 20
3.38816176085304
 30
0.0
 10
2.688019200471713
 20
3.403060526285139
 30
0.0
 10
2.683864879484059
 20
3.40855126702588
 30
0.0
  0
SPLINE
  5
101
330
A
100
AcDbEntity
  8
0
  6
solid
 62
     7
100
AcDbSpline
210
0.0
220
0.0
230
1.0
 70
     8
 71
     2
 72
     6
 73
     3
 74
     0
 42
0.0000000001
 43
0.0000000001
 40
0.0
 40
0.0
 40
0.0
 40
1.0
 40
1.0
 40
1.0
 10
2.683864879484059
 20
3.40855126702588
 30
0.0
 10
2.676484632570478
 20
3.417801267025879
 30
0.0
 10
2.66634574368159
 20
3.417801267025879
 30
0.0
  0
SPLINE
  5
102
330
A
100
AcDbEntity
  8
0
  6
solid
 62
     7
100
AcDbSpline
210
0.0
220
0.0
230
1.0
 70
     8
 71
     2
 72
     7
 73
     4
 74
     0
 42
0.0000000001
 43
0.0000000001
 40
0.0
 40
0.0
 40
0.0
 40
1.0
 40
2.0
 40
2.0
 40
2.0
 10
2.66634574368159
 20
3.417801267025879
 30
0.0
 10
2.65888648442233
 20
3.417801267025879
 30
0.0
 10
2.648747595533441
 20
3.407254353445633
 30
0.0
 10
2.648747595533441
 20
3.398728427519707
 30
0.0
  0
SPLINE
  5
103
330
A
100
AcDbEntity
  8
0
  6
solid
 62
     7
100
AcDbSpline
210
0.0
220
0.0
230
1.0
 70
     8
 71
     2
 72
     7
 73
     4
 74
     0
 42
0.0000000001
 43
0.0000000001
 40
0.0
 40
0.0
 40
0.0
 40
1.0
 40
2.0
 40
2.0
 40
2.0
 10
2.648747595533441
 20
3.398728427519707
 30
0.0
 10
2.648747595533441
 20
3.391624723816003
 30
0.0
 10
2.653593274545787
 20
3.383414847272793
 30
0.0
 10
2.659340805409985
 20
3.381683365791312
 30
0.0
  0
LINE
  5
104
330
A
100
AcDbEntity
  8
0
  6
solid
 62
     7
100
AcDbLine
 10
2.659340805409985
 20
3.381683365791312
 30
0.0
 11
2.660321669607516
 21
3.377785834927114
 31
0.0
  0
SPLINE
  5
105
330
A
100
AcDbEntity
  8
0
  6
solid
 62
     7
100
AcDbSpline
210
0.0
220
0.0
230
1.0
 70
     8
 71
     2
 72
     6
 73
     3
 74
     0
 42
0.0000000001
 43
0.0000000001
 40
0.0
 40
0.0
 40
0.0
 40
1.0
 40
1.0
 40
1.0
 10
2.660321669607516
 20
3.377785834927114
 30
0.0
 10
2.653217965903812
 20
3.375362995420942
 30
0.0
 10
2.648767348619861
 20
3.375362995420942
 30
0.0
  0
SPLINE
  5
106
330
A
100
AcDbEntity
  8
0
  6
solid
 62
     7
100
AcDbSpline
210
0.0
220
0.0
230
1.0
 70
     8
 71
     2
 72
     7
 73
     4
 74
     0
 42
0.0000000001
 43
0.0000000001
 40
0.0
 40
0.0
 40
0.0
 40
1.0
 40
2.0
 40
2.0
 40
2.0
 10
2.648767348619861
 20
3.375362995420942
 30
0.0
 10
2.639813644916157
 20
3.375362995420942
 30
0.0
 10
2.629457472076651
 20
3.385640155914769
 30
0.0
 10
2.629457472076651
 20
3.393830279371559
 30
0.0
  0
SPLINE
  5
107
330
A
100
AcDbEntity
  8
0
  6
solid
 62
     7
100
AcDbSpline
210
0.0
220
0.0
230
1.0
 70
     8
 71
     2
 72
     7
 73
     4
 74
     0
 42
0.0000000001
 43
0.0000000001
 40
0.0
 40
0.0
 40
0.0
 40
1.0
 40
2.0
 40
2.0
 40
2.0
 10
2.629457472076651
 20
3.393830279371559
 30
0.0
 10
2.629457472076651
 20
3.406483983075262
 30
0.0
 10
2.651743274545787
 20
3.423588304062917
 30
0.0
 10
2.66815623750875
 20
3.423588304062917
 30
0.0
  0
SPLINE
  5
108
330
A
100
AcDbEntity
  8
0
  6
solid
 62
     7
100
AcDbSpline
210
0.0
220
0.0
230
1.0
 70
     8
 71
     2
 72
     7
 73
     4
 74
     0
 42
0.0000000001
 43
0.0000000001
 40
0.0
 40
0.0
 40
0.0
 40
1.0
 40
2.0
 40
2.0
 40
2.0
 10
2.66815623750875
 20
3.423588304062917
 30
0.0
 10
2.678097595533441
 20
3.423588304062917
 30
0.0
 10
2.697051916521096
 20
3.416622871964151
 30
0.0
 10
2.702898212817392
 20
3.41117163739625
 30
0.0
  0
SPLINE
  5
109
330
A
100
AcDbEntity
  8
0
  6
solid
 62
     7
100
AcDbSpline
210
0.0
220
0.0
230
1.0
 70
     8
 71
     2
 72
     7
 73
     4
 74
     0
 42
0.0000000001
 43
0.0000000001
 40
0.0
 40
0.0
 40
0.0
 40
1.0
 40
2.0
 40
2.0
 40
2.0
 10
2.702898212817392
 20
3.41117163739625
 30
0.0
 10
2.70939636096554
 20
3.405127810235756
 30
0.0
 10
2.716263027632207
 20
3.390893859618472
 30
0.0
 10
2.716263027632207
 20
3.383079044803658
 30
0.0
  0
SPLINE
  5
10A
330
A
100
AcDbEntity
  8
0
  6
solid
 62
     7
100
AcDbSpline
210
0.0
220
0.0
230
1.0
 70
     8
 71
     2
 72
     6
 73
     3
 74
     0
 42
0.0000000001
 43
0.0000000001
 40
0.0
 40
0.0
 40
0.0
 40
1.0
 40
1.0
 40
1.0
 10
2.716263027632207
 20
3.383079044803658
 30
0.0
 10
2.716263027632207
 20
3.365875958383904
 30
0.0
 10
2.701739570842084
 20
3.35330126702588
 30
0.0
  0
SPLINE
  5
10B
330
A
100
AcDbEntity
  8
0
  6
solid
 62
     7
100
AcDbSpline
210
0.0
220
0.0
230
1.0
 70
     8
 71
     2
 72
     6
 73
     3
 74
     0
 42
0.0000000001
 43
0.0000000001
 40
0.0
 40
0.0
 40
0.0
 40
1.0
 40
1.0
 40
1.0
 10
2.701739570842084
 20
3.35330126702588
 30
0.0
 10
2.695952533805046
 20
3.348712378136991
 30
0.0
 10
2.686228459730972
 20
3.345525958383904
 30
0.0
  0
SPLINE
  5
10C
330
A
100
AcDbEntity
  8
0
  6
solid
 62
     7
100
AcDbSpline
210
0.0
220
0.0
230
1.0
 70
     8
 71
     2
 72
     7
 73
     4
 74
     0
 42
0.0000000001
 43
0.0000000001
 40
0.0
 40
0.0
 40
0.0
 40
1.0
 40
2.0
 40
2.0
 40
2.0
 10
2.76163574368159
 20
3.354440155914768
 30
0.0
 10
2.764137595533441
 20
3.360088921346867
 30
0.0
 10
2.779016607879121
 20
3.365717933692546
 30
0.0
 10
2.787028953558133
 20
3.365717933692546
 30
0.0
  0
SPLINE
  5
10D
330
A
100
AcDbEntity
  8
0
  6
solid
 62
     7
100
AcDbSpline
210
0.0
220
0.0
230
1.0
 70
     8
 71
     2
 72
     6
 73
     3
 74
     0
 42
0.0000000001
 43
0.0000000001
 40
0.0
 40
0.0
 40
0.0
 40
1.0
 40
1.0
 40
1.0
 10
2.787028953558133
 20
3.365717933692546
 30
0.0
 10
2.796851793064306
 20
3.365717933692546
 30
0.0
 10
2.806161052323565
 20
3.361037069495016
 30
0.0
  0
SPLINE
  5
10E
330
A
100
AcDbEntity
  8
0
  6
solid
 62
     7
100
AcDbSpline
210
0.0
220
0.0
230
1.0
 70
     8
 71
     2
 72
     7
 73
     4
 74
     0
 42
0.0000000001
 43
0.0000000001
 40
0.0
 40
0.0
 40
0.0
 40
1.0
 40
2.0
 40
2.0
 40
2.0
 10
2.806161052323565
 20
3.361037069495016
 30
0.0
 10
2.820572780718627
 20
3.354677192951806
 30
0.0
 10
2.836827718990232
 20
3.329876575667855
 30
0.0
 10
2.836827718990232
 20
3.314622254680201
 30
0.0
  0
SPLINE
  5
10F
330
A
100
AcDbEntity
  8
0
  6
solid
 62
     7
100
AcDbSpline
210
0.0
220
0.0
230
1.0
 70
     8
 71
     2
 72
     7
 73
     4
 74
     0
 42
0.0000000001
 43
0.0000000001
 40
0.0
 40
0.0
 40
0.0
 40
1.0
 40
2.0
 40
2.0
 40
2.0
 10
2.836827718990232
 20
3.314622254680201
 30
0.0
 10
2.836827718990232
 20
3.304147563322176
 30
0.0
 10
2.828209817755664
 20
3.283600032457978
 30
0.0
 10
2.820138212817392
 20
3.275488921346867
 30
0.0
  0
SPLINE
  5
110
330
A
100
AcDbEntity
  8
0
  6
solid
 62
     7
100
AcDbSpline
210
0.0
220
0.0
230
1.0
 70
     8
 71
     2
 72
     6
 73
     3
 74
     0
 42
0.0000000001
 43
0.0000000001
 40
0.0
 40
0.0
 40
0.0
 40
1.0
 40
1.0
 40
1.0
 10
2.820138212817392
 20
3.275488921346867
 30
0.0
 10
2.806220311582824
 20
3.261551267025879
 30
0.0
 10
2.784902410348256
 20
3.261551267025879
 30
0.0
  0
SPLINE
  5
111
330
A
100
AcDbEntity
  8
0
  6
solid
 62
     7
100
AcDbSpline
210
0.0
220
0.0
230
1.0
 70
     8
 71
     2
 72
     6
 73
     3
 74
     0
 42
0.0000000001
 43
0.0000000001
 40
0.0
 40
0.0
 40
0.0
 40
1.0
 40
1.0
 40
1.0
 10
2.784902410348256
 20
3.261551267025879
 30
0.0
 10
2.76057586713838
 20
3.261551267025879
 30
0.0
 10
2.746736978249491
 20
3.281137686778966
 30
0.0
  0
SPLINE
  5
112
330
A
100
AcDbEntity
  8
0
  6
solid
 62
     7
100
AcDbSpline
210
0.0
220
0.0
230
1.0
 70
     8
 71
     2
 72
     6
 73
     3
 74
     0
 42
0.0000000001
 43
0.0000000001
 40
0.0
 40
0.0
 40
0.0
 40
1.0
 40
1.0
 40
1.0
 10
2.746736978249491
 20
3.281137686778966
 30
0.0
 10
2.734590064669244
 20
3.298716081840694
 30
0.0
 10
2.734590064669244
 20
3.327157439865386
 30
0.0
  0
SPLINE
  5
113
330
A
100
AcDbEntity
  8
0
  6
solid
 62
     7
100
AcDbSpline
210
0.0
220
0.0
230
1.0
 70
     8
 71
     2
 72
     7
 73
     4
 74
     0
 42
0.0000000001
 43
0.0000000001
 40
0.0
 40
0.0
 40
0.0
 40
1.0
 40
2.0
 40
2.0
 40
2.0
 10
2.734590064669244
 20
3.327157439865386
 30
0.0
 10
2.734590064669244
 20
3.349324723816003
 30
0.0
 10
2.749080805409985
 20
3.389596946038225
 30
0.0
 10
2.762801175780355
 20
3.404416699124645
 30
0.0
  0
SPLINE
  5
114
330
A
100
AcDbEntity
  8
0
  6
solid
 62
     7
100
AcDbSpline
210
0.0
220
0.0
230
1.0
 70
     8
 71
     2
 72
     7
 73
     4
 74
     0
 42
0.0000000001
 43
0.0000000001
 40
0.0
 40
0.0
 40
0.0
 40
1.0
 40
2.0
 40
2.0
 40
2.0
 10
2.762801175780355
 20
3.404416699124645
 30
0.0
 10
2.772268459730972
 20
3.41410126702588
 30
0.0
 10
2.792657965903812
 20
3.423588304062917
 30
0.0
 10
2.804093768372948
 20
3.423588304062917
 30
0.0
  0
SPLINE
  5
115
330
A
100
AcDbEntity
  8
0
  6
solid
 62
     7
100
AcDbSpline
210
0.0
220
0.0
230
1.0
 70
     8
 71
     2
 72
     7
 73
     4
 74
     0
 42
0.0000000001
 43
0.0000000001
 40
0.0
 40
0.0
 40
0.0
 40
1.0
 40
2.0
 40
2.0
 40
2.0
 10
2.804093768372948
 20
3.423588304062917
 30
0.0
 10
2.816833274545787
 20
3.423588304062917
 30
0.0
 10
2.835372780718627
 20
3.412685834927114
 30
0.0
 10
2.835372780718627
 20
3.405127810235756
 30
0.0
  0
SPLINE
  5
116
330
A
100
AcDbEntity
  8
0
  6
solid
 62
     7
100
AcDbSpline
210
0.0
220
0.0
230
1.0
 70
     8
 71
     2
 72
     7
 73
     4
 74
     0
 42
0.0000000001
 43
0.0000000001
 40
0.0
 40
0.0
 40
0.0
 40
1.0
 40
2.0
 40
2.0
 40
2.0
 10
2.835372780718627
 20
3.405127810235756
 30
0.0
 10
2.835372780718627
 20
3.401269785544398
 30
0.0
 10
2.829407965903812
 20
3.394969168260447
 30
0.0
 10
2.823719694298874
 20
3.394969168260447
 30
0.0
  0
SPLINE
  5
117
330
A
100
AcDbEntity
  8
0
  6
solid
 62
     7
100
AcDbSpline
210
0.0
220
0.0
230
1.0
 70
     8
 71
     2
 72
     6
 73
     3
 74
     0
 42
0.0000000001
 43
0.0000000001
 40
0.0
 40
0.0
 40
0.0
 40
1.0
 40
1.0
 40
1.0
 10
2.823719694298874
 20
3.394969168260447
 30
0.0
 10
2.820474015286528
 20
3.394969168260447
 30
0.0
 10
2.818268459730973
 20
3.395798797890077
 30
0.0
  0
SPLINE
  5
118
330
A
100
AcDbEntity
  8
0
  6
solid
 62
     7
100
AcDbSpline
210
0.0
220
0.0
230
1.0
 70
     8
 71
     2
 72
     7
 73
     4
 74
     0
 42
0.0000000001
 43
0.0000000001
 40
0.0
 40
0.0
 40
0.0
 40
1.0
 40
2.0
 40
2.0
 40
2.0
 10
2.818268459730973
 20
3.395798797890077
 30
0.0
 10
2.815983891829738
 20
3.39741176085304
 30
0.0
 10
2.812718459730973
 20
3.402507439865386
 30
0.0
 10
2.810730188126034
 20
3.408175958383904
 30
0.0
  0
SPLINE
  5
119
330
A
100
AcDbEntity
  8
0
  6
solid
 62
     7
100
AcDbSpline
210
0.0
220
0.0
230
1.0
 70
     8
 71
     2
 72
     7
 73
     4
 74
     0
 42
0.0000000001
 43
0.0000000001
 40
0.0
 40
0.0
 40
0.0
 40
1.0
 40
2.0
 40
2.0
 40
2.0
 10
2.810730188126034
 20
3.408175958383904
 30
0.0
 10
2.808761669607516
 20
3.413061143569089
 30
0.0
 10
2.803290681953195
 20
3.417801267025879
 30
0.0
 10
2.798958583187763
 20
3.417801267025879
 30
0.0
  0
SPLINE
  5
11A
330
A
100
AcDbEntity
  8
0
  6
solid
 62
     7
100
AcDbSpline
210
0.0
220
0.0
230
1.0
 70
     8
 71
     2
 72
     6
 73
     3
 74
     0
 42
0.0000000001
 43
0.0000000001
 40
0.0
 40
0.0
 40
0.0
 40
1.0
 40
1.0
 40
1.0
 10
2.798958583187763
 20
3.417801267025879
 30
0.0
 10
2.787068459730972
 20
3.417801267025879
 30
0.0
 10
2.775711669607516
 20
3.399064229988843
 30
0.0
  0
SPLINE
  5
11B
330
A
100
AcDbEntity
  8
0
  6
solid
 62
     7
100
AcDbSpline
210
0.0
220
0.0
230
1.0
 70
     8
 71
     2
 72
     6
 73
     3
 74
     0
 42
0.0000000001
 43
0.0000000001
 40
0.0
 40
0.0
 40
0.0
 40
1.0
 40
1.0
 40
1.0
 10
2.775711669607516
 20
3.399064229988843
 30
0.0
 10
2.764196854792701
 20
3.380050649741929
 30
0.0
 10
2.76163574368159
 20
3.354440155914768
 30
0.0
  0
SPLINE
  5
11C
330
A
100
AcDbEntity
  8
0
  6
solid
 62
     7
100
AcDbSpline
210
0.0
220
0.0
230
1.0
 70
     8
 71
     2
 72
     6
 73
     3
 74
     0
 42
0.0000000001
 43
0.0000000001
 40
0.0
 40
0.0
 40
0.0
 40
1.0
 40
1.0
 40
1.0
 10
2.759667225163071
 20
3.312673489248102
 30
0.0
 10
2.759667225163071
 20
3.291335834927114
 30
0.0
 10
2.766362904175417
 20
3.279465464556744
 30
0.0
  0
SPLINE
  5
11D
330
A
100
AcDbEntity
  8
0
  6
solid
 62
     7
100
AcDbSpline
210
0.0
220
0.0
230
1.0
 70
     8
 71
     2
 72
     6
 73
     3
 74
     0
 42
0.0000000001
 43
0.0000000001
 40
0.0
 40
0.0
 40
0.0
 40
1.0
 40
1.0
 40
1.0
 10
2.766362904175417
 20
3.279465464556744
 30
0.0
 10
2.773901175780355
 20
3.267338304062917
 30
0.0
 10
2.783427718990232
 20
3.267338304062917
 30
0.0
  0
SPLINE
  5
11E
330
A
100
AcDbEntity
  8
0
  6
solid
 62
     7
100
AcDbSpline
210
0.0
220
0.0
230
1.0
 70
     8
 71
     2
 72
     7
 73
     4
 74
     0
 42
0.0000000001
 43
0.0000000001
 40
0.0
 40
0.0
 40
0.0
 40
1.0
 40
2.0
 40
2.0
 40
2.0
 10
2.783427718990232
 20
3.267338304062917
 30
0.0
 10
2.789056731335911
 20
3.267338304062917
 30
0.0
 10
2.798958583187763
 20
3.273717933692546
 30
0.0
 10
2.802757348619861
 20
3.279919785544398
 30
0.0
  0
SPLINE
  5
11F
330
A
100
AcDbEntity
  8
0
  6
solid
 62
     7
100
AcDbSpline
210
0.0
220
0.0
230
1.0
 70
     8
 71
     2
 72
     7
 73
     4
 74
     0
 42
0.0000000001
 43
0.0000000001
 40
0.0
 40
0.0
 40
0.0
 40
1.0
 40
2.0
 40
2.0
 40
2.0
 10
2.802757348619861
 20
3.279919785544398
 30
0.0
 10
2.80661537331122
 20
3.286885217643164
 30
0.0
 10
2.811750558496405
 20
3.30645188430983
 30
0.0
 10
2.811750558496405
 20
3.316017933692546
 30
0.0
  0
SPLINE
  5
120
330
A
100
AcDbEntity
  8
0
  6
solid
 62
     7
100
AcDbSpline
210
0.0
220
0.0
230
1.0
 70
     8
 71
     2
 72
     7
 73
     4
 74
     0
 42
0.0000000001
 43
0.0000000001
 40
0.0
 40
0.0
 40
0.0
 40
1.0
 40
2.0
 40
2.0
 40
2.0
 10
2.811750558496405
 20
3.316017933692546
 30
0.0
 10
2.811750558496405
 20
3.32578151393946
 30
0.0
 10
2.80657586713838
 20
3.343794476902423
 30
0.0
 10
2.802520311582824
 20
3.350285834927114
 30
0.0
  0
SPLINE
  5
121
330
A
100
AcDbEntity
  8
0
  6
solid
 62
     7
100
AcDbSpline
210
0.0
220
0.0
230
1.0
 70
     8
 71
     2
 72
     6
 73
     3
 74
     0
 42
0.0000000001
 43
0.0000000001
 40
0.0
 40
0.0
 40
0.0
 40
1.0
 40
1.0
 40
1.0
 10
2.802520311582824
 20
3.350285834927114
 30
0.0
 10
2.795337595533442
 20
3.359930896655509
 30
0.0
 10
2.784744385656898
 20
3.359930896655509
 30
0.0
  0
SPLINE
  5
122
330
A
100
AcDbEntity
  8
0
  6
solid
 62
     7
100
AcDbSpline
210
0.0
220
0.0
230
1.0
 70
     8
 71
     2
 72
     6
 73
     3
 74
     0
 42
0.0000000001
 43
0.0000000001
 40
0.0
 40
0.0
 40
0.0
 40
1.0
 40
1.0
 40
1.0
 10
2.784744385656898
 20
3.359930896655509
 30
0.0
 10
2.77612648442233
 20
3.359930896655509
 30
0.0
 10
2.769687595533441
 20
3.351194476902423
 30
0.0
  0
SPLINE
  5
123
330
A
100
AcDbEntity
  8
0
  6
solid
 62
     7
100
AcDbSpline
210
0.0
220
0.0
230
1.0
 70
     8
 71
     2
 72
     7
 73
     4
 74
     0
 42
0.0000000001
 43
0.0000000001
 40
0.0
 40
0.0
 40
0.0
 40
1.0
 40
2.0
 40
2.0
 40
2.0
 10
2.769687595533441
 20
3.351194476902423
 30
0.0
 10
2.764730188126034
 20
3.345506205297485
 30
0.0
 10
2.759667225163071
 20
3.325583983075262
 30
0.0
 10
2.759667225163071
 20
3.312673489248102
 30
0.0
  0
LINE
  5
124
330
A
100
AcDbEntity
  8
0
  6
solid
 62
     7
100
AcDbLine
 10
2.905309077014923
 20
3.30013151393946
 30
0.0
 11
2.849367718990232
 21
3.30013151393946
 31
0.0
  0
LINE
  5
125
330
A
100
AcDbEntity
  8
0
  6
solid
 62
     7
100
AcDbLine
 10
2.849367718990232
 20
3.30013151393946
 30
0.0
 11
2.849367718990232
 21
3.304720402828349
 31
0.0
  0
LINE
  5
126
330
A
100
AcDbEntity
  8
0
  6
solid
 62
     7
100
AcDbLine
 10
2.849367718990232
 20
3.304720402828349
 30
0.0
 11
2.919898583187763
 21
3.423588304062917
 31
0.0
  0
LINE
  5
127
330
A
100
AcDbEntity
  8
0
  6
solid
 62
     7
100
AcDbLine
 10
2.919898583187763
 20
3.423588304062917
 30
0.0
 11
2.93038623750875
 21
3.423588304062917
 31
0.0
  0
LINE
  5
128
330
A
100
AcDbEntity
  8
0
  6
solid
 62
     7
100
AcDbLine
 10
2.93038623750875
 20
3.423588304062917
 30
0.0
 11
2.93038623750875
 21
3.307847563322176
 31
0.0
  0
SPLINE
  5
129
330
A
100
AcDbEntity
  8
0
  6
solid
 62
     7
100
AcDbSpline
210
0.0
220
0.0
230
1.0
 70
     8
 71
     2
 72
     7
 73
     4
 74
     0
 42
0.0000000001
 43
0.0000000001
 40
0.0
 40
0.0
 40
0.0
 40
1.0
 40
2.0
 40
2.0
 40
2.0
 10
2.93038623750875
 20
3.307847563322176
 30
0.0
 10
2.93304611405196
 20
3.307847563322176
 30
0.0
 10
2.938418336274183
 20
3.308854970729584
 30
0.0
 10
2.940367101706281
 20
3.311784600359213
 30
0.0
  0
SPLINE
  5
12A
330
A
100
AcDbEntity
  8
0
  6
solid
 62
     7
100
AcDbSpline
210
0.0
220
0.0
230
1.0
 70
     8
 71
     2
 72
     7
 73
     4
 74
     0
 42
0.0000000001
 43
0.0000000001
 40
0.0
 40
0.0
 40
0.0
 40
1.0
 40
2.0
 40
2.0
 40
2.0
 10
2.940367101706281
 20
3.311784600359213
 30
0.0
 10
2.941980064669244
 20
3.313654353445633
 30
0.0
 10
2.942967718990232
 20
3.318164229988842
 30
0.0
 10
2.94314549676801
 20
3.322279044803658
 30
0.0
  0
LINE
  5
12B
330
A
100
AcDbEntity
  8
0
  6
solid
 62
     7
100
AcDbLine
 10
2.94314549676801
 20
3.322279044803658
 30
0.0
 11
2.943948583187763
 21
3.327137686778966
 31
0.0
  0
LINE
  5
12C
330
A
100
AcDbEntity
  8
0
  6
solid
 62
     7
100
AcDbLine
 10
2.943948583187763
 20
3.327137686778966
 30
0.0
 11
2.953534385656898
 21
3.327137686778966
 31
0.0
  0
LINE
  5
12D
330
A
100
AcDbEntity
  8
0
  6
solid
 62
     7
100
AcDbLine
 10
2.953534385656898
 20
3.327137686778966
 30
0.0
 11
2.953534385656898
 21
3.28084139048267
 31
0.0
  0
LINE
  5
12E
330
A
100
AcDbEntity
  8
0
  6
solid
 62
     7
100
AcDbLine
 10
2.953534385656898
 20
3.28084139048267
 30
0.0
 11
2.943968336274183
 21
3.28084139048267
 31
0.0
  0
SPLINE
  5
12F
330
A
100
AcDbEntity
  8
0
  6
solid
 62
     7
100
AcDbSpline
210
0.0
220
0.0
230
1.0
 70
     8
 71
     2
 72
     7
 73
     4
 74
     0
 42
0.0000000001
 43
0.0000000001
 40
0.0
 40
0.0
 40
0.0
 40
1.0
 40
2.0
 40
2.0
 40
2.0
 10
2.943968336274183
 20
3.28084139048267
 30
0.0
 10
2.942967718990232
 20
3.289071020112299
 30
0.0
 10
2.94127574368159
 20
3.294897563322176
 30
0.0
 10
2.940228830101343
 20
3.296668550976497
 30
0.0
  0
SPLINE
  5
130
330
A
100
AcDbEntity
  8
0
  6
solid
 62
     7
100
AcDbSpline
210
0.0
220
0.0
230
1.0
 70
     8
 71
     2
 72
     7
 73
     4
 74
     0
 42
0.0000000001
 43
0.0000000001
 40
0.0
 40
0.0
 40
0.0
 40
1.0
 40
2.0
 40
2.0
 40
2.0
 10
2.940228830101343
 20
3.296668550976497
 30
0.0
 10
2.938418336274183
 20
3.298558057149337
 30
0.0
 10
2.933322657261837
 20
3.30013151393946
 30
0.0
 10
2.928733768372948
 20
3.30013151393946
 30
0.0
  0
LINE
  5
131
330
A
100
AcDbEntity
  8
0
  6
solid
 62
     7
100
AcDbLine
 10
2.928733768372948
 20
3.30013151393946
 30
0.0
 11
2.93038623750875
 21
3.30013151393946
 31
0.0
  0
LINE
  5
132
330
A
100
AcDbEntity
  8
0
  6
solid
 62
     7
100
AcDbLine
 10
2.93038623750875
 20
3.30013151393946
 30
0.0
 11
2.93038623750875
 21
3.28980188430983
 31
0.0
  0
SPLINE
  5
133
330
A
100
AcDbEntity
  8
0
  6
solid
 62
     7
100
AcDbSpline
210
0.0
220
0.0
230
1.0
 70
     8
 71
     2
 72
     7
 73
     4
 74
     0
 42
0.0000000001
 43
0.0000000001
 40
0.0
 40
0.0
 40
0.0
 40
1.0
 40
2.0
 40
2.0
 40
2.0
 10
2.93038623750875
 20
3.28980188430983
 30
0.0
 10
2.93038623750875
 20
3.283679044803657
 30
0.0
 10
2.932335002940849
 20
3.275725958383904
 30
0.0
 10
2.933204138743318
 20
3.273954970729583
 30
0.0
  0
SPLINE
  5
134
330
A
100
AcDbEntity
  8
0
  6
solid
 62
     7
100
AcDbSpline
210
0.0
220
0.0
230
1.0
 70
     8
 71
     2
 72
     7
 73
     4
 74
     0
 42
0.0000000001
 43
0.0000000001
 40
0.0
 40
0.0
 40
0.0
 40
1.0
 40
2.0
 40
2.0
 40
2.0
 10
2.933204138743318
 20
3.273954970729583
 30
0.0
 10
2.935330681953195
 20
3.271354353445633
 30
0.0
 10
2.938971422693935
 20
3.269682131223411
 30
0.0
 10
2.947003521459368
 20
3.268286452211065
 30
0.0
  0
LINE
  5
135
330
A
100
AcDbEntity
  8
0
  6
solid
 62
     7
100
AcDbLine
 10
2.947003521459368
 20
3.268286452211065
 30
0.0
 11
2.947003521459368
 21
3.263480279371559
 31
0.0
  0
LINE
  5
136
330
A
100
AcDbEntity
  8
0
  6
solid
 62
     7
100
AcDbLine
 10
2.947003521459368
 20
3.263480279371559
 30
0.0
 11
2.886493027632207
 21
3.263480279371559
 31
0.0
  0
LINE
  5
137
330
A
100
AcDbEntity
  8
0
  6
solid
 62
     7
100
AcDbLine
 10
2.886493027632207
 20
3.263480279371559
 30
0.0
 11
2.886493027632207
 21
3.268483983075262
 31
0.0
  0
SPLINE
  5
138
330
A
100
AcDbEntity
  8
0
  6
solid
 62
     7
100
AcDbSpline
210
0.0
220
0.0
230
1.0
 70
     8
 71
     2
 72
     6
 73
     3
 74
     0
 42
0.0000000001
 43
0.0000000001
 40
0.0
 40
0.0
 40
0.0
 40
1.0
 40
1.0
 40
1.0
 10
2.886493027632207
 20
3.268483983075262
 30
0.0
 10
2.898383151088997
 20
3.269879662087608
 30
0.0
 10
2.901609077014923
 20
3.273224106532052
 30
0.0
  0
SPLINE
  5
139
330
A
100
AcDbEntity
  8
0
  6
solid
 62
     7
100
AcDbSpline
210
0.0
220
0.0
230
1.0
 70
     8
 71
     2
 72
     7
 73
     4
 74
     0
 42
0.0000000001
 43
0.0000000001
 40
0.0
 40
0.0
 40
0.0
 40
1.0
 40
2.0
 40
2.0
 40
2.0
 10
2.901609077014923
 20
3.273224106532052
 30
0.0
 10
2.903518336274182
 20
3.27527163739625
 30
0.0
 10
2.905309077014923
 20
3.283204970729583
 30
0.0
 10
2.905309077014923
 20
3.290901267025879
 30
0.0
  0
LINE
  5
13A
330
A
100
AcDbEntity
  8
0
  6
solid
 62
     7
100
AcDbLine
 10
2.905309077014923
 20
3.30013151393946
 30
0.0
 11
2.905309077014923
 21
3.290901267025879
 31
0.0
  0
LINE
  5
13B
330
A
100
AcDbEntity
  8
0
  6
solid
 62
     7
100
AcDbLine
 10
2.905309077014923
 20
3.307847563322176
 30
0.0
 11
2.905309077014923
 21
3.387885217643164
 31
0.0
  0
LINE
  5
13C
330
A
100
AcDbEntity
  8
0
  6
solid
 62
     7
100
AcDbLine
 10
2.905309077014923
 20
3.387885217643164
 30
0.0
 11
2.860941793064306
 21
3.307847563322176
 31
0.0
  0
LINE
  5
13D
330
A
100
AcDbEntity
  8
0
  6
solid
 62
     7
100
AcDbLine
 10
2.905309077014923
 20
3.307847563322176
 30
0.0
 11
2.860941793064306
 21
3.307847563322176
 31
0.0
  0
ARC
  5
13E
330
A
100
AcDbEntity
  8
1
  6
solid
 62
     7
100
AcDbCircle
 10
-2.023948954742432
 20
3.28887227547608
 30
0.0
 40
0.2749011533016905
100
AcDbArc
 50
50.79285225254794
 51
141.8588877471283
  0
LINE
  5
13F
330
A
100
AcDbEntity
  8
1
  6
solid
 62
     7
100
AcDbLine
 10
-2.240156474880496
 20
3.458651409533618
 30
0.0
 11
-2.31604393972612
 21
3.504920788709996
 31
0.0
  0
ARC
  5
140
330
A
100
AcDbEntity
  8
1
  6
solid
 62
     7
100
AcDbCircle
 10
-2.859551591952873
 20
4.202382879548003
 30
0.0
 40
0.8842250536632779
100
AcDbArc
 50
290.8278409352517
 51
307.9280364160774
  0
ARC
  5
141
330
A
100
AcDbEntity
  8
1
  6
solid
 62
     7
100
AcDbCircle
 10
-2.659580367560381
 20
3.593679562592945
 30
0.0
 40
0.2459754205610323
100
AcDbArc
 50
224.353827942455
 51
297.7223998313572
  0
ARC
  5
142
330
A
100
AcDbEntity
  8
1
  6
solid
 62
     7
100
AcDbCircle
 10
-4.100065220090492
 20
4.735373086836625
 30
0.0
 40
1.823431694283393
100
AcDbArc
 50
269.9965037816312
 51
313.910147772847
  0
ARC
  5
143
330
A
100
AcDbEntity
  8
1
  6
solid
 62
     7
100
AcDbCircle
 10
-6.176404179192918
 20
3.288872115228857
 30
0.0
 40
0.2749011533016905
100
AcDbArc
 50
38.14111225287165
 51
129.2072658368503
  0
LINE
  5
144
330
A
100
AcDbEntity
  8
1
  6
solid
 62
     7
100
AcDbLine
 10
-5.960196659054854
 20
3.458651249286394
 30
0.0
 11
-5.884309194209229
 21
3.504920628462774
 31
0.0
  0
ARC
  5
145
330
A
100
AcDbEntity
  8
1
  6
solid
 62
     7
100
AcDbCircle
 10
-5.340801541982474
 20
4.202382719300779
 30
0.0
 40
0.8842250536632779
100
AcDbArc
 50
232.0719635839224
 51
249.1721590647482
  0
ARC
  5
146
330
A
100
AcDbEntity
  8
1
  6
solid
 62
     7
100
AcDbCircle
 10
-5.540772766374969
 20
3.59367940234572
 30
0.0
 40
0.2459754205610323
100
AcDbArc
 50
242.2776001686425
 51
315.6461720575449
  0
ARC
  5
147
330
A
100
AcDbEntity
  8
1
  6
solid
 62
     7
100
AcDbCircle
 10
-4.100287913844853
 20
4.735372926589398
 30
0.0
 40
1.823431694283393
100
AcDbArc
 50
226.0898522271529
 51
270.0034962183685
  0
LINE
  5
148
330
A
100
AcDbEntity
  8
0
  6
solid
 62
     7
100
AcDbLine
 10
-2.85087061446254
 20
2.501189947128295
 30
0.0
 11
-5.349483476900049
 21
2.501189947128295
 31
0.0
  0
LINE
  5
149
330
A
100
AcDbEntity
  8
1
  6
solid
 62
     7
100
AcDbLine
 10
-6.350176777341886
 20
3.501883214045695
 30
0.0
 11
-5.349483476900049
 21
2.501189947128295
 31
0.0
  0
LINE
  5
14A
330
A
100
AcDbEntity
  8
1
  6
solid
 62
     7
100
AcDbLine
 10
-1.850176795620105
 20
3.501883732446273
 30
0.0
 11
-2.85087061446254
 21
2.501189947128295
 31
0.0
  0
LINE
  5
1C2
330
A
100
AcDbEntity
  8
0
  6
solid
 62
     7
370
     0
100
AcDbLine
 10
-6.350176811218261
 20
2.391374823410107
 30
0.0
 11
-6.350176811218261
 21
1.868703269477894
 31
0.0
  0
LINE
  5
1C3
330
A
100
AcDbEntity
  8
0
  6
solid
 62
     7
370
     0
100
AcDbLine
 10
-1.850176811218261
 20
3.376883745193481
 30
0.0
 11
-1.850176811218261
 21
1.868703269477894
 31
0.0
  0
LINE
  5
1C4
330
A
100
AcDbEntity
  8
0
  6
solid
 62
     7
370
     0
100
AcDbLine
 10
-6.350176811218261
 20
1.931203269477894
 30
0.0
 11
-4.100176811218261
 21
1.931203269477894
 31
0.0
  0
LINE
  5
1C5
330
A
100
AcDbEntity
  8
0
  6
solid
 62
     7
370
     0
100
AcDbLine
 10
-1.850176811218261
 20
1.931203269477894
 30
0.0
 11
-4.100176811218261
 21
1.931203269477894
 31
0.0
  0
MTEXT
  5
1C6
330
A
100
AcDbEntity
  8
0
  6
solid
 62
     7
370
     0
100
AcDbMText
 10
-4.100176811218261
 20
2.03478836563174
 30
0.0
 40
0.125
 41
0.0
 71
     5
 72
     1
  1
{\H0.125000;4 1/2}
 73
     1
 44
1.0
  0
SOLID
  5
1C7
330
A
100
AcDbEntity
  8
0
  6
solid
 62
     7
370
     0
100
AcDbTrace
 10
-6.225176811218261
 20
1.952018269477894
 30
0.0
 11
-6.225176811218261
 21
1.910388269477893
 31
0.0
 12
-6.350176811218261
 22
1.931203269477894
 32
0.0
 13
-6.350176811218261
 23
1.931203269477894
 33
0.0
  0
SOLID
  5
1C8
330
A
100
AcDbEntity
  8
0
  6
solid
 62
     7
370
     0
100
AcDbTrace
 10
-1.975176811218261
 20
1.910388269477893
 30
0.0
 11
-1.975176811218261
 21
1.952018269477894
 31
0.0
 12
-1.850176811218261
 22
1.931203269477894
 32
0.0
 13
-1.850176811218261
 23
1.931203269477894
 33
0.0
  0
LINE
  5
1CB
330
A
100
AcDbEntity
  8
0
  6
solid
 62
     7
370
     0
100
AcDbLine
 10
-6.350176811218261
 20
2.501189947128296
 30
0.0
 11
-6.565560161228372
 21
2.501189947128296
 31
0.0
  0
LINE
  5
1CC
330
A
100
AcDbEntity
  8
0
  6
solid
 62
     7
370
     0
100
AcDbLine
 10
-6.271114826202392
 20
3.562099456787109
 30
0.0
 11
-6.565560161228372
 21
3.562099456787109
 31
0.0
  0
LINE
  5
1CD
330
A
100
AcDbEntity
  8
0
  6
solid
 62
     7
370
     0
100
AcDbLine
 10
-6.503060161228372
 20
2.501189947128296
 30
0.0
 11
-6.503060161228372
 21
3.031644701957703
 31
0.0
  0
LINE
  5
1CE
330
A
100
AcDbEntity
  8
0
  6
solid
 62
     7
370
     0
100
AcDbLine
 10
-6.503060161228372
 20
3.562099456787109
 30
0.0
 11
-6.503060161228372
 21
3.031644701957703
 31
0.0
  0
MTEXT
  5
1CF
330
A
100
AcDbEntity
  8
0
  6
solid
 62
     7
370
     0
100
AcDbMText
 10
-6.967522661228372
 20
3.031644701957703
 30
0.0
 40
0.125
 41
0.0
 71
     5
 72
     1
  1
{\H0.125000;1 1/16}
 73
     1
 44
1.0
  0
SOLID
  5
1D0
330
A
100
AcDbEntity
  8
0
  6
solid
 62
     7
370
     0
100
AcDbTrace
 10
-6.523875161228372
 20
2.626189947128296
 30
0.0
 11
-6.482245161228372
 21
2.626189947128296
 31
0.0
 12
-6.503060161228372
 22
2.501189947128296
 32
0.0
 13
-6.503060161228372
 23
2.501189947128296
 33
0.0
  0
SOLID
  5
1D1
330
A
100
AcDbEntity
  8
0
  6
solid
 62
     7
370
     0
100
AcDbTrace
 10
-6.482245161228372
 20
3.437099456787109
 30
0.0
 11
-6.523875161228372
 21
3.437099456787109
 31
0.0
 12
-6.503060161228372
 22
3.562099456787109
 32
0.0
 13
-6.503060161228372
 23
3.562099456787109
 33
0.0
  0
LINE
  5
1D2
330
A
100
AcDbEntity
  8
1
  6
solid
 62
     7
370
     0
100
AcDbLine
 10
0.3953572809696197
 20
3.694434010351848
 30
0.0
 11
0.3953572809696197
 21
3.981407842285782
 31
0.0
  0
LINE
  5
1D3
330
A
100
AcDbEntity
  8
1
  6
solid
 62
     7
370
     0
100
AcDbLine
 10
3.625167846679687
 20
3.717759370803833
 30
0.0
 11
3.625167846679687
 21
3.981407842285782
 31
0.0
  0
LINE
  5
1D4
330
A
100
AcDbEntity
  8
1
  6
solid
 62
     7
370
     0
100
AcDbLine
 10
0.3953572809696197
 20
3.918907842285782
 30
0.0
 11
1.598621984598217
 21
3.918907842285782
 31
0.0
  0
LINE
  5
1D5
330
A
100
AcDbEntity
  8
1
  6
solid
 62
     7
370
     0
100
AcDbLine
 10
3.625167846679687
 20
3.918907842285782
 30
0.0
 11
2.431569614130886
 21
3.918907842285782
 31
0.0
  0
MTEXT
  5
1D6
330
A
100
AcDbEntity
  8
1
  6
solid
 62
     7
370
     0
100
AcDbMText
 10
2.010262563824653
 20
3.918907842285782
 30
0.0
 40
0.125
 41
0.0
 71
     5
 72
     1
  1
{\H0.125000;3 1/4}
 73
     1
 44
1.0
  0
SOLID
  5
1D7
330
A
100
AcDbEntity
  8
1
  6
solid
 62
     7
370
     0
100
AcDbTrace
 10
0.5203572809696198
 20
3.939720342285782
 30
0.0
 11
0.5203572809696198
 21
3.898095342285782
 31
0.0
 12
0.3953572809696197
 22
3.918907842285782
 32
0.0
 13
0.3953572809696197
 23
3.918907842285782
 33
0.0
  0
SOLID
  5
1D8
330
A
100
AcDbEntity
  8
1
  6
solid
 62
     7
370
     0
100
AcDbTrace
 10
3.500167846679687
 20
3.898095342285782
 30
0.0
 11
3.500167846679687
 21
3.939720342285782
 31
0.0
 12
3.625167846679687
 22
3.918907842285782
 32
0.0
 13
3.625167846679687
 23
3.918907842285782
 33
0.0
  0
LINE
  5
1D9
330
A
100
AcDbEntity
  8
1
  6
solid
 62
     7
370
     0
100
AcDbLine
 10
0.2703572809696197
 20
0.3629485666751862
 30
0.0
 11
0.0244751434866725
 21
0.3629485666751864
 31
0.0
  0
LINE
  5
1DA
330
A
100
AcDbEntity
  8
1
  6
solid
 62
     7
370
     0
100
AcDbLine
 10
0.2997883918431299
 20
3.592759370803833
 30
0.0
 11
0.0244751434866748
 21
3.592759370803834
 31
0.0
  0
LINE
  5
1DB
330
A
100
AcDbEntity
  8
1
  6
solid
 62
     7
370
     0
100
AcDbLine
 10
0.0869751434866725
 20
0.3629485666751864
 30
0.0
 11
0.0869751434866735
 21
1.817981372585663
 31
0.0
  0
LINE
  5
1DC
330
A
100
AcDbEntity
  8
1
  6
solid
 62
     7
370
     0
100
AcDbLine
 10
0.0869751434866748
 20
3.592759370803834
 30
0.0
 11
0.0869751434866738
 21
2.137726564893355
 31
0.0
  0
MTEXT
  5
1DD
330
A
100
AcDbEntity
  8
1
  6
solid
 62
     7
370
     0
100
AcDbMText
 10
0.0869751434866737
 20
1.977853968739509
 30
0.0
 40
0.125
 41
0.0
 71
     5
 72
     1
  1
{\H0.125000;3 1/4}
 73
     1
 44
1.0
  0
SOLID
  5
1DE
330
A
100
AcDbEntity
  8
1
  6
solid
 62
     7
370
     0
100
AcDbTrace
 10
0.0661626434866727
 20
0.4879485666751864
 30
0.0
 11
0.1077876434866727
 21
0.4879485666751864
 31
0.0
 12
0.0869751434866725
 22
0.3629485666751864
 32
0.0
 13
0.0869751434866725
 23
0.3629485666751864
 33
0.0
  0
SOLID
  5
1DF
330
A
100
AcDbEntity
  8
1
  6
solid
 62
     7
370
     0
100
AcDbTrace
 10
0.1077876434866747
 20
3.467759370803834
 30
0.0
 11
0.0661626434866747
 21
3.467759370803834
 31
0.0
 12
0.0869751434866748
 22
3.592759370803834
 32
0.0
 13
0.0869751434866748
 23
3.592759370803834
 33
0.0
  0
VIEWPORT
  5
17E
330
B
100
AcDbEntity
 67
     1
  8
0
  6
Continuous
370
     0
100
AcDbViewport
 10
5.21344796019704
 20
3.951240450931923
 30
0.0
 40
15.47853952863286
 41
8.189788586355639
 68
     1
 69
     1
 12
5.21344796019704
 22
3.951240450931923
 13
0.0
 23
0.0
 14
0.5
 24
0.5
 15
0.5
 25
0.5
 16
0.0
 26
0.0
 36
1.0
 17
0.0
 27
0.0
 37
0.0
 42
50.0
 43
0.0
 44
0.0
 45
8.189788586355639
 50
0.0
 51
0.0
 72
   100
 90
   819232
  1

281
     0
 71
     1
 74
     0
110
0.0
120
0.0
130
0.0
111
1.0
121
0.0
131
0.0
112
0.0
122
1.0
132
0.0
 79
     0
146
0.0
170
     0
  0
VIEWPORT
  5
181
330
B
100
AcDbEntity
 67
     1
  8
0
  6
Continuous
370
     0
100
AcDbViewport
 10
5.213512060728998
 20
3.951116626858965
 30
0.0
 40
10.53682858478263
 41
8.09369979302366
 68
     2
 69
     2
 12
-1.2739356644025
 22
1.748105498256257
 13
0.0
 23
0.0
 14
0.5
 24
0.5
 15
0.5
 25
0.5
 16
0.0
 26
0.0
 36
1.0
 17
0.0
 27
0.0
 37
0.0
 42
50.0
 43
0.0
 44
0.0
 45
11.73293842466658
 50
0.0
 51
0.0
 72
   100
 90
   819232
  1

281
     0
 71
     1
 74
     0
110
0.0
120
0.0
130
0.0
111
1.0
121
0.0
131
0.0
112
0.0
122
1.0
132
0.0
 79
     0
146
0.0
170
     0
  0
ENDSEC
  0
SECTION
  2
OBJECTS
  0
DICTIONARY
  5
19
330
0
100
AcDbDictionary
281
     1
  3
ACAD_COLOR
350
177
  3
ACAD_GROUP
350
1A
  3
ACAD_LAYOUT
350
1E
  3
ACAD_MATERIAL
350
162
  3
ACAD_MLEADERSTYLE
350
1AB
  3
ACAD_MLINESTYLE
350
1B
  3
ACAD_PLOTSETTINGS
350
22
  3
ACAD_PLOTSTYLENAME
350
1F
  3
ACAD_SCALELIST
350
189
  3
ACAD_TABLESTYLE
350
178
  3
ACAD_VISUALSTYLE
350
166
  3
ACAD_WIPEOUT_VARS
350
23
  3
ACDB_RECOMPOSE_DATA
350
1FD
  3
AcDbVariableDictionary
350
186
  3
ASE_INDEX_DICTIONARY
350
183
  0
DICTIONARY
  5
1B4
330
14
100
AcDbDictionary
280
     1
281
     1
  3
ADSK_XREC_LAYER_RECONCILED
360
1B5
  0
DICTIONARY
  5
1B6
330
27
100
AcDbDictionary
280
     1
281
     1
  3
ADSK_XREC_LAYER_RECONCILED
360
1B7
  0
DICTIONARY
  5
1B8
330
BD
100
AcDbDictionary
280
     1
281
     1
  3
ADSK_XREC_LAYER_RECONCILED
360
1B9
  0
DICTIONARY
  5
1C9
330
A
100
AcDbDictionary
280
     1
281
     1
  3
ACAD_SORTENTS
360
1CA
  0
DICTIONARY
  5
177
102
{ACAD_REACTORS
330
19
102
}
330
19
100
AcDbDictionary
281
     1
  0
DICTIONARY
  5
1A
102
{ACAD_REACTORS
330
19
102
}
330
19
100
AcDbDictionary
281
     1
  0
DICTIONARY
  5
1E
102
{ACAD_REACTORS
330
19
102
}
330
19
100
AcDbDictionary
281
     1
  3
Layout1
350
21
  3
Model
350
20
  0
DICTIONARY
  5
162
102
{ACAD_REACTORS
330
19
102
}
330
19
100
AcDbDictionary
281
     1
  3
ByBlock
350
164
  3
ByLayer
350
163
  3
Global
350
165
  0
DICTIONARY
  5
1AB
102
{ACAD_REACTORS
330
19
102
}
330
19
100
AcDbDictionary
281
     1
  3
Standard
350
1AC
  0
DICTIONARY
  5
1B
102
{ACAD_REACTORS
330
19
102
}
330
19
100
AcDbDictionary
281
     1
  3
Standard
350
1C
  0
DICTIONARY
  5
22
102
{ACAD_REACTORS
330
19
102
}
330
19
100
AcDbDictionary
281
     1
  0
ACDBDICTIONARYWDFLT
  5
1F
102
{ACAD_REACTORS
330
19
102
}
330
19
100
AcDbDictionary
281
     1
  3
Normal
350
1D
100
AcDbDictionaryWithDefault
340
1D
  0
DICTIONARY
  5
189
102
{ACAD_REACTORS
330
19
102
}
330
19
100
AcDbDictionary
281
     1
  3
A0
350
18A
  3
A1
350
18B
  3
A2
350
18C
  3
A3
350
18D
  3
A4
350
18E
  3
A5
350
18F
  3
A6
350
190
  3
A7
350
191
  3
A8
350
192
  3
A9
350
193
  3
B0
350
194
  3
B1
350
195
  3
B2
350
196
  3
B3
350
197
  3
B4
350
198
  3
B5
350
199
  3
B6
350
19A
  3
B7
350
19B
  3
B8
350
19C
  3
B9
350
19D
  3
C0
350
19E
  3
C1
350
19F
  3
C2
350
1A0
  3
C3
350
1A1
  3
C4
350
1A2
  3
C5
350
1A3
  3
C6
350
1A4
  3
C7
350
1A5
  3
C8
350
1A6
  3
C9
350
1A7
  3
D0
350
1A8
  3
D1
350
1A9
  3
D2
350
1AA
  0
DICTIONARY
  5
178
102
{ACAD_REACTORS
330
19
102
}
330
19
100
AcDbDictionary
281
     1
  3
Standard
350
179
  0
DICTIONARY
  5
166
102
{ACAD_REACTORS
330
19
102
}
330
19
100
AcDbDictionary
281
     1
  3
2dWireframe
350
16C
  3
3D Hidden
350
16E
  3
3dWireframe
350
16D
  3
Basic
350
16B
  3
Brighten
350
172
  3
ColorChange
350
176
  3
Conceptual
350
16F
  3
Dim
350
171
  3
Facepattern
350
175
  3
Flat
350
167
  3
FlatWithEdges
350
168
  3
Gouraud
350
169
  3
GouraudWithEdges
350
16A
  3
Linepattern
350
174
  3
Realistic
350
170
  3
Thicken
350
173
  0
WIPEOUTVARIABLES
  5
23
330
19
100
AcDbWipeoutVariables
 70
     1
  0
XRECORD
  5
1FD
102
{ACAD_REACTORS
330
19
102
}
330
19
100
AcDbXrecord
280
     1
 90
        1
330
179
  0
DICTIONARY
  5
186
102
{ACAD_REACTORS
330
19
102
}
330
19
100
AcDbDictionary
281
     1
  3
CANNOSCALE
350
1FA
  3
CMLEADERSTYLE
350
1F9
  3
CTABLESTYLE
350
187
  0
DICTIONARY
  5
183
102
{ACAD_REACTORS
330
19
102
}
330
19
100
AcDbDictionary
281
     1
  3
ASEBlockHierarchyIndexRecord
350
185
1001
DCO15
1040
1645036484.288
  0
XRECORD
  5
1B5
102
{ACAD_REACTORS
330
1B4
102
}
330
1B4
100
AcDbXrecord
280
     1
290
     1
  0
XRECORD
  5
1B7
102
{ACAD_REACTORS
330
1B6
102
}
330
1B6
100
AcDbXrecord
280
     1
290
     1
  0
XRECORD
  5
1B9
102
{ACAD_REACTORS
330
1B8
102
}
330
1B8
100
AcDbXrecord
280
     1
290
     1
  0
SORTENTSTABLE
  5
1CA
102
{ACAD_REACTORS
330
1C9
102
}
330
1C9
100
AcDbSortentsTable
330
A
331
117
  5
125
331
F5
  5
103
331
DB
  5
E9
331
B9
  5
C8
331
139
  5
147
331
CA
  5
D8
331
A8
  5
B6
331
86
  5
94
331
6C
  5
7A
331
14A
  5
1D1
331
128
  5
136
331
106
  5
114
331
EC
  5
FA
331
97
  5
A5
331
5B
  5
69
331
1DB
  5
4D
331
28
  5
28
331
1C8
  5
1DF
331
137
  5
145
331
115
  5
123
331
F3
  5
101
331
D9
  5
E7
331
C8
  5
D6
331
A6
  5
B4
331
84
  5
92
331
6A
  5
78
331
148
  5
1CF
331
126
  5
134
331
104
  5
112
331
EA
  5
F8
331
B7
  5
C6
331
95
  5
A3
331
59
  5
67
331
1D9
  5
4B
331
135
  5
143
331
113
  5
121
331
F1
  5
FF
331
C6
  5
D4
331
A4
  5
B2
331
82
  5
90
331
68
  5
76
331
146
  5
1CD
331
124
  5
132
331
102
  5
110
331
E8
  5
F6
331
1D7
  5
57
331
1C6
  5
1DD
331
B5
  5
C4
331
93
  5
A1
331
D7
  5
E5
331
57
  5
65
331
133
  5
141
331
111
  5
11F
331
C4
  5
D2
331
A2
  5
B0
331
80
  5
8E
331
66
  5
74
331
122
  5
130
331
100
  5
10E
331
E6
  5
F4
331
1D5
  5
55
331
144
  5
1CB
331
1C4
  5
1DB
331
B3
  5
C2
331
91
  5
9F
331
77
  5
85
331
55
  5
63
331
D5
  5
E3
331
33
  5
33
331
131
  5
13F
331
C2
  5
D0
331
A0
  5
AE
331
7E
  5
8C
331
64
  5
72
331
120
  5
12E
331
FE
  5
10C
331
E4
  5
F2
331
1D3
  5
53
331
142
  5
1C7
331
1C2
  5
1D9
331
B1
  5
C0
331
8F
  5
9D
331
75
  5
83
331
53
  5
61
331
10F
  5
11D
331
D3
  5
E1
331
31
  5
31
331
1D1
  5
1D8
331
C0
  5
CE
331
9E
  5
AC
331
7C
  5
8A
331
62
  5
70
331
11E
  5
12C
331
FC
  5
10A
331
E2
  5
F0
331
140
  5
1C5
331
12F
  5
13D
331
10D
  5
11B
331
D1
  5
DF
331
AF
  5
BE
331
8D
  5
9B
331
73
  5
81
331
51
  5
5F
331
2F
  5
2F
331
1CF
  5
1D6
331
BE
  5
CC
331
9C
  5
AA
331
7A
  5
88
331
60
  5
6E
331
11C
  5
12A
331
FA
  5
108
331
E0
  5
EE
331
13E
  5
1C3
331
12D
  5
13B
331
10B
  5
119
331
CF
  5
DD
331
AD
  5
BB
331
8B
  5
99
331
71
  5
7F
331
4F
  5
5D
331
2D
  5
2D
331
1CD
  5
1D4
331
BC
  5
CB
331
9A
  5
A8
331
78
  5
86
331
11A
  5
128
331
F8
  5
106
331
DE
  5
EC
331
13C
  5
14A
331
CD
  5
DB
331
AB
  5
B9
331
89
  5
97
331
6F
  5
7D
331
4D
  5
5B
331
12B
  5
139
331
109
  5
117
331
EF
  5
FD
331
5E
  5
6C
331
1DE
  5
50
331
2B
  5
2B
331
1CB
  5
1D2
331
BA
  5
C9
331
98
  5
A6
331
118
  5
126
331
F6
  5
104
331
DC
  5
EA
331
13A
  5
148
331
CB
  5
D9
331
A9
  5
B7
331
87
  5
95
331
6D
  5
7B
331
4B
  5
59
331
129
  5
137
331
107
  5
115
331
ED
  5
FB
331
5C
  5
6A
331
1DC
  5
4E
331
29
  5
29
331
138
  5
146
331
116
  5
124
331
F4
  5
102
331
DA
  5
E8
331
B8
  5
C7
331
C9
  5
D7
331
A7
  5
B5
331
85
  5
93
331
6B
  5
79
331
149
  5
1D0
331
127
  5
135
331
105
  5
113
331
EB
  5
F9
331
96
  5
A4
331
5A
  5
68
331
1DA
  5
4C
331
136
  5
144
331
114
  5
122
331
F2
  5
100
331
D8
  5
E6
331
C7
  5
D5
331
A5
  5
B3
331
83
  5
91
331
69
  5
77
331
147
  5
1CE
331
125
  5
133
331
103
  5
111
331
E9
  5
F7
331
1D8
  5
58
331
1C7
  5
1DE
331
B6
  5
C5
331
94
  5
A2
331
58
  5
66
331
134
  5
142
331
112
  5
120
331
F0
  5
FE
331
C5
  5
D3
331
A3
  5
B1
331
81
  5
8F
331
67
  5
75
331
123
  5
131
331
101
  5
10F
331
E7
  5
F5
331
1D6
  5
56
331
145
  5
1CC
331
1C5
  5
1DC
331
B4
  5
C3
331
92
  5
A0
331
56
  5
64
331
D6
  5
E4
331
34
  5
34
331
132
  5
140
331
110
  5
11E
331
C3
  5
D1
331
A1
  5
AF
331
7F
  5
8D
331
65
  5
73
331
121
  5
12F
331
FF
  5
10D
331
E5
  5
F3
331
1D4
  5
54
331
143
  5
1C8
331
1C3
  5
1DA
331
B2
  5
C1
331
90
  5
9E
331
76
  5
84
331
54
  5
62
331
D4
  5
E2
331
32
  5
32
331
130
  5
13E
331
C1
  5
CF
331
9F
  5
AD
331
7D
  5
8B
331
63
  5
71
331
11F
  5
12D
331
FD
  5
10B
331
E3
  5
F1
331
1D2
  5
52
331
141
  5
1C6
331
10E
  5
11C
331
D2
  5
E0
331
B0
  5
BF
331
8E
  5
9C
331
74
  5
82
331
52
  5
60
331
30
  5
30
331
1D0
  5
1D7
331
BF
  5
CD
331
9D
  5
AB
331
7B
  5
89
331
61
  5
6F
331
11D
  5
12B
331
FB
  5
109
331
E1
  5
EF
331
13F
  5
1C4
331
12E
  5
13C
331
10C
  5
11A
331
D0
  5
DE
331
AE
  5
BC
331
8C
  5
9A
331
72
  5
80
331
50
  5
5E
331
2E
  5
2E
331
1CE
  5
1D5
331
9B
  5
A9
331
79
  5
87
331
11B
  5
129
331
F9
  5
107
331
DF
  5
ED
331
13D
  5
1C2
331
CE
  5
DC
331
AC
  5
BA
331
8A
  5
98
331
70
  5
7E
331
4E
  5
5C
331
12C
  5
13A
331
10A
  5
118
331
5F
  5
6D
331
1DF
  5
51
331
2C
  5
2C
331
1CC
  5
1D3
331
BB
  5
CA
331
99
  5
A7
331
119
  5
127
331
F7
  5
105
331
DD
  5
EB
331
13B
  5
149
331
CC
  5
DA
331
AA
  5
B8
331
88
  5
96
331
6E
  5
7C
331
4C
  5
5A
331
12A
  5
138
331
108
  5
116
331
EE
  5
FC
331
5D
  5
6B
331
1DD
  5
4F
331
2A
  5
2A
  0
LAYOUT
  5
21
102
{ACAD_REACTORS
330
1E
102
}
330
1E
100
AcDbPlotSettings
  1

  2
Foxit PDF Printer
  4
Letter
  6

 40
3.174999952316284
 41
3.174999952316284
 42
3.17498779296875
 43
3.175003051757812
 44
279.3999938964844
 45
215.8999938964844
 46
31.47715384821894
 47
24.12875752349356
 48
0.0
 49
0.0
140
0.0
141
0.0
142
1.0
143
1.0
 70
     4
 72
     0
 73
     0
 74
     1
  7

 75
     0
147
1.0
 76
     0
 77
     2
 78
   300
148
-26.25461124795212
149
-20.16000981431432
100
AcDbLayout
  1
Layout1
 70
     0
 71
     1
 10
-0.3306119115190196
 20
-0.2812499079328949
 11
10.66938784818509
 21
8.218749851771214
 12
0.0
 22
0.0
 32
0.0
 14
-0.0556788165195279
 24
-0.0960387923252242
 34
-0.0015258207003583
 15
10.48257473691361
 25
7.99851969418907
 35
0.0000000349246037
146
0.0
 13
0.0
 23
0.0
 33
0.0
 16
1.0
 26
0.0
 36
0.0
 17
0.0
 27
1.0
 37
0.0
 76
     0
330
B
331
17E
1001
ACAD_PSEXT
1000
Foxit PDF Printer
1000
Foxit PDF Printer Driver
1000
FOXIT_PDF
1000

1070
     0
  0
LAYOUT
  5
20
102
{ACAD_REACTORS
330
1E
102
}
330
1E
100
AcDbPlotSettings
  1

  2

  4

  6

 40
0.0
 41
0.0
 42
0.0
 43
0.0
 44
0.0
 45
0.0
 46
0.0
 47
0.0
 48
0.0
 49
0.0
140
0.0
141
0.0
142
1.0
143
1.0
 70
  1024
 72
     0
 73
     0
 74
     0
  7

 75
     0
147
1.0
 76
     0
 77
     2
 78
   300
148
0.0
149
0.0
100
AcDbLayout
  1
Model
 70
     0
 71
     0
 10
0.0
 20
0.0
 11
0.0
 21
0.0
 12
0.0
 22
0.0
 32
0.0
 14
0.0
 24
0.0
 34
0.0
 15
0.0
 25
0.0
 35
0.0
146
0.0
 13
0.0
 23
0.0
 33
0.0
 16
0.0
 26
0.0
 36
0.0
 17
0.0
 27
0.0
 37
0.0
 76
     0
330
A
  0
MATERIAL
  5
164
102
{ACAD_XDICTIONARY
360
200
102
}
102
{ACAD_REACTORS
330
162
102
}
330
162
100
AcDbMaterial
  1
ByBlock
 73
     1
 78
     1
172
     1
176
     1
270
     1
274
     1
  0
MATERIAL
  5
163
102
{ACAD_XDICTIONARY
360
1FE
102
}
102
{ACAD_REACTORS
330
162
102
}
330
162
100
AcDbMaterial
  1
ByLayer
 73
     1
 78
     1
172
     1
176
     1
270
     1
274
     1
  0
MATERIAL
  5
165
102
{ACAD_XDICTIONARY
360
202
102
}
102
{ACAD_REACTORS
330
162
102
}
330
162
100
AcDbMaterial
  1
Global
 73
     1
 78
     1
172
     1
176
     1
270
     1
274
     1
  0
MLEADERSTYLE
  5
1AC
102
{ACAD_REACTORS
330
1AB
102
}
330
1AB
100
AcDbMLeaderStyle
170
     2
171
     1
172
     0
 90
        2
 40
0.0
 41
0.0
173
     1
 91
-1056964608
340
11
 92
       -2
290
     1
 42
0.09
291
     1
 43
0.36
  3
Standard
 44
0.18
300

342
17
174
     1
178
     6
175
     1
176
     0
 93
-1056964608
 45
0.18
292
     0
297
     0
 46
0.18
 94
-1056964608
 47
1.0
 49
1.0
140
1.0
293
     1
141
0.0
294
     1
177
     0
142
1.0
295
     0
296
     0
143
0.125
1001
ACAD_MLEADERVER
1070
     2
  0
MLINESTYLE
  5
1C
102
{ACAD_REACTORS
330
1B
102
}
330
1B
100
AcDbMlineStyle
  2
STANDARD
 70
     0
  3

 62
     0
 51
90.0
 52
90.0
 71
     2
 49
0.5
 62
   256
  6
BYLAYER
 49
-0.5
 62
   256
  6
BYLAYER
  0
ACDBPLACEHOLDER
  5
1D
102
{ACAD_REACTORS
330
1F
102
}
330
1F
  0
SCALE
  5
18A
102
{ACAD_REACTORS
330
189
102
}
330
189
100
AcDbScale
 70
     0
300
1:1
140
1.0
141
1.0
290
     1
  0
SCALE
  5
18B
102
{ACAD_REACTORS
330
189
102
}
330
189
100
AcDbScale
 70
     0
300
1:2
140
1.0
141
2.0
290
     0
  0
SCALE
  5
18C
102
{ACAD_REACTORS
330
189
102
}
330
189
100
AcDbScale
 70
     0
300
1:4
140
1.0
141
4.0
290
     0
  0
SCALE
  5
18D
102
{ACAD_REACTORS
330
189
102
}
330
189
100
AcDbScale
 70
     0
300
1:5
140
1.0
141
5.0
290
     0
  0
SCALE
  5
18E
102
{ACAD_REACTORS
330
189
102
}
330
189
100
AcDbScale
 70
     0
300
1:8
140
1.0
141
8.0
290
     0
  0
SCALE
  5
18F
102
{ACAD_REACTORS
330
189
102
}
330
189
100
AcDbScale
 70
     0
300
1:10
140
1.0
141
10.0
290
     0
  0
SCALE
  5
190
102
{ACAD_REACTORS
330
189
102
}
330
189
100
AcDbScale
 70
     0
300
1:16
140
1.0
141
16.0
290
     0
  0
SCALE
  5
191
102
{ACAD_REACTORS
330
189
102
}
330
189
100
AcDbScale
 70
     0
300
1:20
140
1.0
141
20.0
290
     0
  0
SCALE
  5
192
102
{ACAD_REACTORS
330
189
102
}
330
189
100
AcDbScale
 70
     0
300
1:30
140
1.0
141
30.0
290
     0
  0
SCALE
  5
193
102
{ACAD_REACTORS
330
189
102
}
330
189
100
AcDbScale
 70
     0
300
1:40
140
1.0
141
40.0
290
     0
  0
SCALE
  5
194
102
{ACAD_REACTORS
330
189
102
}
330
189
100
AcDbScale
 70
     0
300
1:50
140
1.0
141
50.0
290
     0
  0
SCALE
  5
195
102
{ACAD_REACTORS
330
189
102
}
330
189
100
AcDbScale
 70
     0
300
1:100
140
1.0
141
100.0
290
     0
  0
SCALE
  5
196
102
{ACAD_REACTORS
330
189
102
}
330
189
100
AcDbScale
 70
     0
300
2:1
140
2.0
141
1.0
290
     0
  0
SCALE
  5
197
102
{ACAD_REACTORS
330
189
102
}
330
189
100
AcDbScale
 70
     0
300
4:1
140
4.0
141
1.0
290
     0
  0
SCALE
  5
198
102
{ACAD_REACTORS
330
189
102
}
330
189
100
AcDbScale
 70
     0
300
8:1
140
8.0
141
1.0
290
     0
  0
SCALE
  5
199
102
{ACAD_REACTORS
330
189
102
}
330
189
100
AcDbScale
 70
     0
300
10:1
140
10.0
141
1.0
290
     0
  0
SCALE
  5
19A
102
{ACAD_REACTORS
330
189
102
}
330
189
100
AcDbScale
 70
     0
300
100:1
140
100.0
141
1.0
290
     0
  0
SCALE
  5
19B
102
{ACAD_REACTORS
330
189
102
}
330
189
100
AcDbScale
 70
     0
300
1/128" = 1'-0"
140
0.0078125
141
12.0
290
     0
  0
SCALE
  5
19C
102
{ACAD_REACTORS
330
189
102
}
330
189
100
AcDbScale
 70
     0
300
1/64" = 1'-0"
140
0.015625
141
12.0
290
     0
  0
SCALE
  5
19D
102
{ACAD_REACTORS
330
189
102
}
330
189
100
AcDbScale
 70
     0
300
1/32" = 1'-0"
140
0.03125
141
12.0
290
     0
  0
SCALE
  5
19E
102
{ACAD_REACTORS
330
189
102
}
330
189
100
AcDbScale
 70
     0
300
1/16" = 1'-0"
140
0.0625
141
12.0
290
     0
  0
SCALE
  5
19F
102
{ACAD_REACTORS
330
189
102
}
330
189
100
AcDbScale
 70
     0
300
3/32" = 1'-0"
140
0.09375
141
12.0
290
     0
  0
SCALE
  5
1A0
102
{ACAD_REACTORS
330
189
102
}
330
189
100
AcDbScale
 70
     0
300
1/8" = 1'-0"
140
0.125
141
12.0
290
     0
  0
SCALE
  5
1A1
102
{ACAD_REACTORS
330
189
102
}
330
189
100
AcDbScale
 70
     0
300
3/16" = 1'-0"
140
0.1875
141
12.0
290
     0
  0
SCALE
  5
1A2
102
{ACAD_REACTORS
330
189
102
}
330
189
100
AcDbScale
 70
     0
300
1/4" = 1'-0"
140
0.25
141
12.0
290
     0
  0
SCALE
  5
1A3
102
{ACAD_REACTORS
330
189
102
}
330
189
100
AcDbScale
 70
     0
300
3/8" = 1'-0"
140
0.375
141
12.0
290
     0
  0
SCALE
  5
1A4
102
{ACAD_REACTORS
330
189
102
}
330
189
100
AcDbScale
 70
     0
300
1/2" = 1'-0"
140
0.5
141
12.0
290
     0
  0
SCALE
  5
1A5
102
{ACAD_REACTORS
330
189
102
}
330
189
100
AcDbScale
 70
     0
300
3/4" = 1'-0"
140
0.75
141
12.0
290
     0
  0
SCALE
  5
1A6
102
{ACAD_REACTORS
330
189
102
}
330
189
100
AcDbScale
 70
     0
300
1" = 1'-0"
140
1.0
141
12.0
290
     0
  0
SCALE
  5
1A7
102
{ACAD_REACTORS
330
189
102
}
330
189
100
AcDbScale
 70
     0
300
1-1/2" = 1'-0"
140
1.5
141
12.0
290
     0
  0
SCALE
  5
1A8
102
{ACAD_REACTORS
330
189
102
}
330
189
100
AcDbScale
 70
     0
300
3" = 1'-0"
140
3.0
141
12.0
290
     0
  0
SCALE
  5
1A9
102
{ACAD_REACTORS
330
189
102
}
330
189
100
AcDbScale
 70
     0
300
6" = 1'-0"
140
6.0
141
12.0
290
     0
  0
SCALE
  5
1AA
102
{ACAD_REACTORS
330
189
102
}
330
189
100
AcDbScale
 70
     0
300
1'-0" = 1'-0"
140
12.0
141
12.0
290
     0
  0
TABLESTYLE
  5
179
102
{ACAD_XDICTIONARY
360
1FB
102
}
102
{ACAD_REACTORS
330
178
102
}
330
178
100
AcDbTableStyle
  3
Standard
 70
     0
 71
     0
 40
0.06
 41
0.06
280
     0
281
     0
  7
Standard
140
0.18
170
     2
 62
     0
 63
     7
283
     0
274
    -2
284
     1
 64
     0
275
    -2
285
     1
 65
     0
276
    -2
286
     1
 66
     0
277
    -2
287
     1
 67
     0
278
    -2
288
     1
 68
     0
279
    -2
289
     1
 69
     0
  7
Standard
140
0.25
170
     5
 62
     0
 63
     7
283
     0
274
    -2
284
     1
 64
     0
275
    -2
285
     1
 65
     0
276
    -2
286
     1
 66
     0
277
    -2
287
     1
 67
     0
278
    -2
288
     1
 68
     0
279
    -2
289
     1
 69
     0
  7
Standard
140
0.18
170
     5
 62
     0
 63
     7
283
     0
274
    -2
284
     1
 64
     0
275
    -2
285
     1
 65
     0
276
    -2
286
     1
 66
     0
277
    -2
287
     1
 67
     0
278
    -2
288
     1
 68
     0
279
    -2
289
     1
 69
     0
  0
VISUALSTYLE
  5
16C
102
{ACAD_REACTORS
330
166
102
}
330
166
100
AcDbVisualStyle
  2
2dWireframe
 70
     4
 71
     0
 72
     2
 73
     0
 90
        0
 40
-0.6
 41
-30.0
 62
     5
 63
     7
421
 16777215
 74
     1
 91
        4
 64
     7
 65
   257
 75
     1
175
     1
 42
1.0
 92
        0
 66
   257
 43
1.0
 76
     1
 77
     6
 78
     2
 67
     7
 79
     5
170
     0
171
     0
290
     0
174
     0
 93
        1
 44
0.0
173
     0
291
     0
 45
0.0
1001
ACAD
1000
AcDbSavedByObjectVersion
1070
     0
  0
VISUALSTYLE
  5
16E
102
{ACAD_REACTORS
330
166
102
}
330
166
100
AcDbVisualStyle
  2
3D Hidden
 70
     6
 71
     1
 72
     2
 73
     2
 90
        0
 40
-0.6
 41
-30.0
 62
     5
 63
     7
421
 16777215
 74
     2
 91
        2
 64
     7
 65
   257
 75
     2
175
     1
 42
40.0
 92
        0
 66
   257
 43
1.0
 76
     1
 77
     6
 78
     2
 67
     7
 79
     3
170
     0
171
     0
290
     0
174
     0
 93
        1
 44
0.0
173
     0
291
     0
 45
0.0
1001
ACAD
1000
AcDbSavedByObjectVersion
1070
     0
  0
VISUALSTYLE
  5
16D
102
{ACAD_REACTORS
330
166
102
}
330
166
100
AcDbVisualStyle
  2
3dWireframe
 70
     5
 71
     0
 72
     2
 73
     0
 90
        0
 40
-0.6
 41
-30.0
 62
     5
 63
     7
421
 16777215
 74
     1
 91
        4
 64
     7
 65
   257
 75
     1
175
     1
 42
1.0
 92
        0
 66
   257
 43
1.0
 76
     1
 77
     6
 78
     2
 67
     7
 79
     5
170
     0
171
     0
290
     0
174
     0
 93
        1
 44
0.0
173
     0
291
     0
 45
0.0
1001
ACAD
1000
AcDbSavedByObjectVersion
1070
     0
  0
VISUALSTYLE
  5
16B
102
{ACAD_REACTORS
330
166
102
}
330
166
100
AcDbVisualStyle
  2
Basic
 70
     7
 71
     1
 72
     0
 73
     1
 90
        0
 40
-0.6
 41
-30.0
 62
     5
 63
     7
421
 16777215
 74
     0
 91
        4
 64
     7
 65
   257
 75
     1
175
     1
 42
1.0
 92
        8
 66
     7
 43
1.0
 76
     1
 77
     6
 78
     2
 67
     7
 79
     5
170
     0
171
     0
290
     0
174
     0
 93
        1
 44
0.0
173
     0
291
     1
 45
0.0
1001
ACAD
1000
AcDbSavedByObjectVersion
1070
     0
  0
VISUALSTYLE
  5
172
102
{ACAD_REACTORS
330
166
102
}
330
166
100
AcDbVisualStyle
  2
Brighten
 70
    12
 71
     2
 72
     2
 73
     0
 90
        0
 40
-0.6
 41
-30.0
 62
     5
 63
     7
421
 16777215
 74
     1
 91
        4
 64
     7
 65
   257
 75
     1
175
     1
 42
1.0
 92
        8
 66
     7
 43
1.0
 76
     1
 77
     6
 78
     2
 67
     7
 79
     5
170
     0
171
     0
290
     0
174
     0
 93
        1
 44
50.0
173
     0
291
     1
 45
0.0
1001
ACAD
1000
AcDbSavedByObjectVersion
1070
     0
  0
VISUALSTYLE
  5
176
102
{ACAD_REACTORS
330
166
102
}
330
166
100
AcDbVisualStyle
  2
ColorChange
 70
    16
 71
     2
 72
     2
 73
     3
 90
        0
 40
-0.6
 41
-30.0
 62
     5
 63
     8
421
  8421504
 74
     1
 91
        4
 64
     7
 65
   257
 75
     1
175
     1
 42
1.0
 92
        8
 66
     8
424
  8421504
 43
1.0
 76
     1
 77
     6
 78
     2
 67
     7
 79
     5
170
     0
171
     0
290
     0
174
     0
 93
        1
 44
0.0
173
     0
291
     1
 45
0.0
1001
ACAD
1000
AcDbSavedByObjectVersion
1070
     0
  0
VISUALSTYLE
  5
16F
102
{ACAD_REACTORS
330
166
102
}
330
166
100
AcDbVisualStyle
  2
Conceptual
 70
     9
 71
     3
 72
     2
 73
     0
 90
        0
 40
-0.6
 41
-30.0
 62
     5
 63
     7
421
 16777215
 74
     2
 91
        2
 64
     7
 65
   257
 75
     1
175
     1
 42
40.0
 92
        8
 66
     7
 43
1.0
 76
     1
 77
     6
 78
     2
 67
     7
 79
     3
170
     0
171
     0
290
     0
174
     0
 93
        1
 44
0.0
173
     0
291
     0
 45
0.0
1001
ACAD
1000
AcDbSavedByObjectVersion
1070
     0
  0
VISUALSTYLE
  5
171
102
{ACAD_REACTORS
330
166
102
}
330
166
100
AcDbVisualStyle
  2
Dim
 70
    11
 71
     2
 72
     2
 73
     0
 90
        0
 40
-0.6
 41
-30.0
 62
     5
 63
     7
421
 16777215
 74
     1
 91
        4
 64
     7
 65
   257
 75
     1
175
     1
 42
1.0
 92
        8
 66
     7
 43
1.0
 76
     1
 77
     6
 78
     2
 67
     7
 79
     5
170
     0
171
     0
290
     0
174
     0
 93
        1
 44
-50.0
173
     0
291
     1
 45
0.0
1001
ACAD
1000
AcDbSavedByObjectVersion
1070
     0
  0
VISUALSTYLE
  5
175
102
{ACAD_REACTORS
330
166
102
}
330
166
100
AcDbVisualStyle
  2
Facepattern
 70
    15
 71
     2
 72
     2
 73
     0
 90
        0
 40
-0.6
 41
-30.0
 62
     5
 63
     7
421
 16777215
 74
     1
 91
        4
 64
     7
 65
   257
 75
     1
175
     1
 42
1.0
 92
        8
 66
     7
 43
1.0
 76
     1
 77
     6
 78
     2
 67
     7
 79
     5
170
     0
171
     0
290
     0
174
     0
 93
        1
 44
0.0
173
     0
291
     1
 45
0.0
1001
ACAD
1000
AcDbSavedByObjectVersion
1070
     0
  0
VISUALSTYLE
  5
167
102
{ACAD_REACTORS
330
166
102
}
330
166
100
AcDbVisualStyle
  2
Flat
 70
     0
 71
     2
 72
     1
 73
     1
 90
        2
 40
-0.6
 41
30.0
 62
     5
 63
     7
421
 16777215
 74
     0
 91
        4
 64
     7
 65
   257
 75
     1
175
     1
 42
1.0
 92
        8
 66
     7
 43
1.0
 76
     1
 77
     6
 78
     2
 67
     7
 79
     5
170
     0
171
     0
290
     0
174
     0
 93
       13
 44
0.0
173
     0
291
     1
 45
0.0
1001
ACAD
1000
AcDbSavedByObjectVersion
1070
     0
  0
VISUALSTYLE
  5
168
102
{ACAD_REACTORS
330
166
102
}
330
166
100
AcDbVisualStyle
  2
FlatWithEdges
 70
     1
 71
     2
 72
     1
 73
     1
 90
        2
 40
-0.6
 41
30.0
 62
     5
 63
     7
421
 16777215
 74
     1
 91
        4
 64
     7
 65
   257
 75
     1
175
     1
 42
1.0
 92
        0
 66
   257
 43
1.0
 76
     1
 77
     6
 78
     2
 67
     7
 79
     5
170
     0
171
     0
290
     0
174
     0
 93
       13
 44
0.0
173
     0
291
     1
 45
0.0
1001
ACAD
1000
AcDbSavedByObjectVersion
1070
     0
  0
VISUALSTYLE
  5
169
102
{ACAD_REACTORS
330
166
102
}
330
166
100
AcDbVisualStyle
  2
Gouraud
 70
     2
 71
     2
 72
     2
 73
     1
 90
        2
 40
-0.6
 41
30.0
 62
     5
 63
     7
421
 16777215
 74
     0
 91
        4
 64
     7
 65
   257
 75
     1
175
     1
 42
1.0
 92
        0
 66
     7
 43
1.0
 76
     1
 77
     6
 78
     2
 67
     7
 79
     5
170
     0
171
     0
290
     0
174
     0
 93
       13
 44
0.0
173
     0
291
     1
 45
0.0
1001
ACAD
1000
AcDbSavedByObjectVersion
1070
     0
  0
VISUALSTYLE
  5
16A
102
{ACAD_REACTORS
330
166
102
}
330
166
100
AcDbVisualStyle
  2
GouraudWithEdges
 70
     3
 71
     2
 72
     2
 73
     1
 90
        2
 40
-0.6
 41
30.0
 62
     5
 63
     7
421
 16777215
 74
     1
 91
        4
 64
     7
 65
   257
 75
     1
175
     1
 42
1.0
 92
        0
 66
   257
 43
1.0
 76
     1
 77
     6
 78
     2
 67
     7
 79
     5
170
     0
171
     0
290
     0
174
     0
 93
       13
 44
0.0
173
     0
291
     1
 45
0.0
1001
ACAD
1000
AcDbSavedByObjectVersion
1070
     0
  0
VISUALSTYLE
  5
174
102
{ACAD_REACTORS
330
166
102
}
330
166
100
AcDbVisualStyle
  2
Linepattern
 70
    14
 71
     2
 72
     2
 73
     0
 90
        0
 40
-0.6
 41
-30.0
 62
     5
 63
     7
421
 16777215
 74
     1
 91
        4
 64
     7
 65
   257
 75
     7
175
     7
 42
1.0
 92
        8
 66
     7
 43
1.0
 76
     1
 77
     6
 78
     2
 67
     7
 79
     5
170
     0
171
     0
290
     0
174
     0
 93
        1
 44
0.0
173
     0
291
     1
 45
0.0
1001
ACAD
1000
AcDbSavedByObjectVersion
1070
     0
  0
VISUALSTYLE
  5
170
102
{ACAD_REACTORS
330
166
102
}
330
166
100
AcDbVisualStyle
  2
Realistic
 70
     8
 71
     2
 72
     2
 73
     0
 90
        0
 40
-0.6
 41
-30.0
 62
     5
 63
     7
421
 16777215
 74
     1
 91
        0
 64
     7
 65
   257
 75
     1
175
     1
 42
1.0
 92
        8
 66
     8
424
  7895160
 43
1.0
 76
     1
 77
     6
 78
     2
 67
     7
 79
     5
170
     0
171
     0
290
     0
174
     0
 93
       13
 44
0.0
173
     0
291
     0
 45
0.0
1001
ACAD
1000
AcDbSavedByObjectVersion
1070
     0
  0
VISUALSTYLE
  5
173
102
{ACAD_REACTORS
330
166
102
}
330
166
100
AcDbVisualStyle
  2
Thicken
 70
    13
 71
     2
 72
     2
 73
     0
 90
        0
 40
-0.6
 41
-30.0
 62
     5
 63
     7
421
 16777215
 74
     1
 91
        4
 64
     7
 65
   257
 75
     1
175
     1
 42
1.0
 92
       12
 66
     7
 43
1.0
 76
     1
 77
     6
 78
     2
 67
     7
 79
     5
170
     0
171
     0
290
     0
174
     0
 93
        1
 44
0.0
173
     0
291
     1
 45
0.0
1001
ACAD
1000
AcDbSavedByObjectVersion
1070
     0
  0
DICTIONARYVAR
  5
1FA
102
{ACAD_REACTORS
330
186
102
}
330
186
100
DictionaryVariables
280
     0
  1
1:1
  0
DICTIONARYVAR
  5
1F9
102
{ACAD_REACTORS
330
186
102
}
330
186
100
DictionaryVariables
280
     0
  1
STANDARD
  0
DICTIONARYVAR
  5
187
102
{ACAD_REACTORS
330
186
102
}
330
186
100
DictionaryVariables
280
     0
  1
STANDARD
  0
XRECORD
  5
185
102
{ACAD_REACTORS
330
183
102
}
330
183
100
AcDbXrecord
280
     1
  0
DICTIONARY
  5
200
330
164
100
AcDbDictionary
280
     1
281
     1
  3
ACAD_XREC_ROUNDTRIP
360
201
  0
DICTIONARY
  5
1FE
330
163
100
AcDbDictionary
280
     1
281
     1
  3
ACAD_XREC_ROUNDTRIP
360
1FF
  0
DICTIONARY
  5
202
330
165
100
AcDbDictionary
280
     1
281
     1
  3
ACAD_XREC_ROUNDTRIP
360
203
  0
DICTIONARY
  5
1FB
330
179
100
AcDbDictionary
280
     1
281
     1
  3
ACAD_ROUNDTRIP_2008_TABLESTYLE_CELLSTYLEMAP
360
1FC
  3
ACAD_XREC_ROUNDTRIP
360
204
  0
XRECORD
  5
201
102
{ACAD_REACTORS
330
200
102
}
330
200
100
AcDbXrecord
280
     1
102
MATERIAL
148
0.0
149
0.0
149
0.0
 93
        0
 94
       63
282
     0
 72
     1
 77
     1
171
     1
175
     1
179
     1
273
     0
  0
XRECORD
  5
1FF
102
{ACAD_REACTORS
330
1FE
102
}
330
1FE
100
AcDbXrecord
280
     1
102
MATERIAL
148
0.0
149
0.0
149
0.0
 93
        0
 94
       63
282
     0
 72
     1
 77
     1
171
     1
175
     1
179
     1
273
     0
  0
XRECORD
  5
203
102
{ACAD_REACTORS
330
202
102
}
330
202
100
AcDbXrecord
280
     1
102
MATERIAL
148
0.0
149
0.0
149
0.0
 93
        0
 94
       63
282
     0
 72
     1
 77
     1
171
     1
175
     1
179
     1
273
     0
  0
CELLSTYLEMAP
  5
1FC
102
{ACAD_REACTORS
330
1FB
102
}
330
1FB
100
AcDbCellStyleMap
 90
        3
300
CELLSTYLE
  1
TABLEFORMAT_BEGIN
 90
        5
170
     1
 91
        0
 92
    32768
 62
   257
 93
        1
300
CONTENTFORMAT
  1
CONTENTFORMAT_BEGIN
 90
        0
 91
        0
 92
      512
 93
        0
300

 40
0.0
140
1.0
 94
        5
 62
     0
340
17
144
0.25
309
CONTENTFORMAT_END
171
     0
 94
        6
 95
        1
302
GRIDFORMAT
  1
GRIDFORMAT_BEGIN
 90
        0
 91
        1
 62
     0
 92
       -2
340
0
 93
        0
 40
0.045
309
GRIDFORMAT_END
 95
        2
302
GRIDFORMAT
  1
GRIDFORMAT_BEGIN
 90
        0
 91
        1
 62
     0
 92
       -2
340
0
 93
        0
 40
0.045
309
GRIDFORMAT_END
 95
        4
302
GRIDFORMAT
  1
GRIDFORMAT_BEGIN
 90
        0
 91
        1
 62
     0
 92
       -2
340
0
 93
        0
 40
0.045
309
GRIDFORMAT_END
 95
        8
302
GRIDFORMAT
  1
GRIDFORMAT_BEGIN
 90
        0
 91
        1
 62
     0
 92
       -2
340
0
 93
        0
 40
0.045
309
GRIDFORMAT_END
 95
       16
302
GRIDFORMAT
  1
GRIDFORMAT_BEGIN
 90
        0
 91
        1
 62
     0
 92
       -2
340
0
 93
        0
 40
0.045
309
GRIDFORMAT_END
 95
       32
302
GRIDFORMAT
  1
GRIDFORMAT_BEGIN
 90
        0
 91
        1
 62
     0
 92
       -2
340
0
 93
        0
 40
0.045
309
GRIDFORMAT_END
309
TABLEFORMAT_END
  1
CELLSTYLE_BEGIN
 90
        1
 91
        1
300
_TITLE
309
CELLSTYLE_END
300
CELLSTYLE
  1
TABLEFORMAT_BEGIN
 90
        5
170
     1
 91
        0
 92
        0
 62
   257
 93
        1
300
CONTENTFORMAT
  1
CONTENTFORMAT_BEGIN
 90
        0
 91
        0
 92
      512
 93
        0
300

 40
0.0
140
1.0
 94
        5
 62
     0
340
17
144
0.18
309
CONTENTFORMAT_END
171
     0
 94
        6
 95
        1
302
GRIDFORMAT
  1
GRIDFORMAT_BEGIN
 90
        0
 91
        1
 62
     0
 92
       -2
340
0
 93
        0
 40
0.045
309
GRIDFORMAT_END
 95
        2
302
GRIDFORMAT
  1
GRIDFORMAT_BEGIN
 90
        0
 91
        1
 62
     0
 92
       -2
340
0
 93
        0
 40
0.045
309
GRIDFORMAT_END
 95
        4
302
GRIDFORMAT
  1
GRIDFORMAT_BEGIN
 90
        0
 91
        1
 62
     0
 92
       -2
340
0
 93
        0
 40
0.045
309
GRIDFORMAT_END
 95
        8
302
GRIDFORMAT
  1
GRIDFORMAT_BEGIN
 90
        0
 91
        1
 62
     0
 92
       -2
340
0
 93
        0
 40
0.045
309
GRIDFORMAT_END
 95
       16
302
GRIDFORMAT
  1
GRIDFORMAT_BEGIN
 90
        0
 91
        1
 62
     0
 92
       -2
340
0
 93
        0
 40
0.045
309
GRIDFORMAT_END
 95
       32
302
GRIDFORMAT
  1
GRIDFORMAT_BEGIN
 90
        0
 91
        1
 62
     0
 92
       -2
340
0
 93
        0
 40
0.045
309
GRIDFORMAT_END
309
TABLEFORMAT_END
  1
CELLSTYLE_BEGIN
 90
        2
 91
        1
300
_HEADER
309
CELLSTYLE_END
300
CELLSTYLE
  1
TABLEFORMAT_BEGIN
 90
        5
170
     1
 91
        0
 92
        0
 62
   257
 93
        1
300
CONTENTFORMAT
  1
CONTENTFORMAT_BEGIN
 90
        0
 91
        0
 92
      512
 93
        0
300

 40
0.0
140
1.0
 94
        2
 62
     0
340
17
144
0.18
309
CONTENTFORMAT_END
171
     0
 94
        6
 95
        1
302
GRIDFORMAT
  1
GRIDFORMAT_BEGIN
 90
        0
 91
        1
 62
     0
 92
       -2
340
0
 93
        0
 40
0.045
309
GRIDFORMAT_END
 95
        2
302
GRIDFORMAT
  1
GRIDFORMAT_BEGIN
 90
        0
 91
        1
 62
     0
 92
       -2
340
0
 93
        0
 40
0.045
309
GRIDFORMAT_END
 95
        4
302
GRIDFORMAT
  1
GRIDFORMAT_BEGIN
 90
        0
 91
        1
 62
     0
 92
       -2
340
0
 93
        0
 40
0.045
309
GRIDFORMAT_END
 95
        8
302
GRIDFORMAT
  1
GRIDFORMAT_BEGIN
 90
        0
 91
        1
 62
     0
 92
       -2
340
0
 93
        0
 40
0.045
309
GRIDFORMAT_END
 95
       16
302
GRIDFORMAT
  1
GRIDFORMAT_BEGIN
 90
        0
 91
        1
 62
     0
 92
       -2
340
0
 93
        0
 40
0.045
309
GRIDFORMAT_END
 95
       32
302
GRIDFORMAT
  1
GRIDFORMAT_BEGIN
 90
        0
 91
        1
 62
     0
 92
       -2
340
0
 93
        0
 40
0.045
309
GRIDFORMAT_END
309
TABLEFORMAT_END
  1
CELLSTYLE_BEGIN
 90
        3
 91
        2
300
_DATA
309
CELLSTYLE_END
  0
XRECORD
  5
204
102
{ACAD_REACTORS
330
1FB
102
}
330
1FB
100
AcDbXrecord
280
     1
102
ACAD_ROUNDTRIP_PRE2007_TABLESTYLE
 90
      512
 91
        0
  1

 92
      512
 93
        0
  2

 94
      512
 95
        0
  3

  0
ENDSEC
  0
EOF
