  0
SECTION
  2
HEADER
  9
$ACADVER
  1
AC1018
  9
$ACADMAINTVER
 70
   104
  9
$DWGCODEPAGE
  3
ANSI_1252
  9
$LASTSAVEDBY
  1
EARL
  9
$INSBASE
 10
0.0
 20
0.0
 30
0.0
  9
$EXTMIN
 10
-7.381072266619716
 20
-0.4153296364502261
 30
0.0
  9
$EXTMAX
 10
5.650363492335613
 20
5.827137966486901
 30
0.0
  9
$LIMMIN
 10
0.0
 20
0.0
  9
$LIMMAX
 10
0.0
 20
0.0
  9
$ORTHOMODE
 70
     1
  9
$REGENMODE
 70
     1
  9
$FILLMODE
 70
     1
  9
$QTEXTMODE
 70
     0
  9
$MIRRTEXT
 70
     1
  9
$LTSCALE
 40
1.0
  9
$ATTMODE
 70
     1
  9
$TEXTSIZE
 40
0.0
  9
$TRACEWID
 40
0.05
  9
$TEXTSTYLE
  7
Standard
  9
$CLAYER
  8
0
  9
$CELTYPE
  6
Continuous
  9
$CECOLOR
 62
   256
  9
$CELTSCALE
 40
1.0
  9
$DISPSILH
 70
     0
  9
$DIMSCALE
 40
1.0
  9
$DIMASZ
 40
0.18
  9
$DIMEXO
 40
0.0625
  9
$DIMDLI
 40
0.38
  9
$DIMRND
 40
0.0
  9
$DIMDLE
 40
0.0
  9
$DIMEXE
 40
0.18
  9
$DIMTP
 40
0.0
  9
$DIMTM
 40
0.0
  9
$DIMTXT
 40
0.18
  9
$DIMCEN
 40
0.09
  9
$DIMTSZ
 40
0.0
  9
$DIMTOL
 70
     0
  9
$DIMLIM
 70
     0
  9
$DIMTIH
 70
     1
  9
$DIMTOH
 70
     1
  9
$DIMSE1
 70
     0
  9
$DIMSE2
 70
     0
  9
$DIMTAD
 70
     0
  9
$DIMZIN
 70
     0
  9
$DIMBLK
  1

  9
$DIMASO
 70
     1
  9
$DIMSHO
 70
     1
  9
$DIMPOST
  1

  9
$DIMAPOST
  1

  9
$DIMALT
 70
     0
  9
$DIMALTD
 70
     2
  9
$DIMALTF
 40
25.4
  9
$DIMLFAC
 40
1.0
  9
$DIMTOFL
 70
     0
  9
$DIMTVP
 40
0.0
  9
$DIMTIX
 70
     0
  9
$DIMSOXD
 70
     0
  9
$DIMSAH
 70
     0
  9
$DIMBLK1
  1

  9
$DIMBLK2
  1

  9
$DIMSTYLE
  2
Standard
  9
$DIMCLRD
 70
     0
  9
$DIMCLRE
 70
     0
  9
$DIMCLRT
 70
     0
  9
$DIMTFAC
 40
1.0
  9
$DIMGAP
 40
0.09
  9
$DIMJUST
 70
     0
  9
$DIMSD1
 70
     0
  9
$DIMSD2
 70
     0
  9
$DIMTOLJ
 70
     1
  9
$DIMTZIN
 70
     0
  9
$DIMALTZ
 70
     0
  9
$DIMALTTZ
 70
     0
  9
$DIMUPT
 70
     0
  9
$DIMDEC
 70
     4
  9
$DIMTDEC
 70
     4
  9
$DIMALTU
 70
     2
  9
$DIMALTTD
 70
     2
  9
$DIMTXSTY
  7
Standard
  9
$DIMAUNIT
 70
     0
  9
$DIMADEC
 70
     0
  9
$DIMALTRND
 40
0.0
  9
$DIMAZIN
 70
     0
  9
$DIMDSEP
 70
    46
  9
$DIMATFIT
 70
     0
  9
$DIMFRAC
 70
     0
  9
$DIMLDRBLK
  1

  9
$DIMLUNIT
 70
     2
  9
$DIMLWD
 70
    -2
  9
$DIMLWE
 70
    -2
  9
$DIMTMOVE
 70
     0
  9
$LUNITS
 70
     2
  9
$LUPREC
 70
     4
  9
$SKETCHINC
 40
0.1
  9
$FILLETRAD
 40
0.0
  9
$AUNITS
 70
     0
  9
$AUPREC
 70
     0
  9
$MENU
  1
acad
  9
$ELEVATION
 40
0.0
  9
$PELEVATION
 40
0.0
  9
$THICKNESS
 40
0.0
  9
$LIMCHECK
 70
     0
  9
$CHAMFERA
 40
0.0
  9
$CHAMFERB
 40
0.0
  9
$CHAMFERC
 40
0.0
  9
$CHAMFERD
 40
0.0
  9
$SKPOLY
 70
     0
  9
$TDCREATE
 40
2454842.801041667
  9
$TDUCREATE
 40
2454842.967708334
  9
$TDUPDATE
 40
2455104.568723229
  9
$TDUUPDATE
 40
2455104.735389896
  9
$TDINDWG
 40
0.0014671528
  9
$TDUSRTIMER
 40
0.0014671528
  9
$USRTIMER
 70
     1
  9
$ANGBASE
 50
0.0
  9
$ANGDIR
 70
     0
  9
$PDMODE
 70
     0
  9
$PDSIZE
 40
0.0
  9
$PLINEWID
 40
0.0
  9
$SPLFRAME
 70
     0
  9
$SPLINETYPE
 70
     6
  9
$SPLINESEGS
 70
     8
  9
$HANDSEED
  5
1FD
  9
$SURFTAB1
 70
     6
  9
$SURFTAB2
 70
     6
  9
$SURFTYPE
 70
     6
  9
$SURFU
 70
     6
  9
$SURFV
 70
     6
  9
$UCSBASE
  2

  9
$UCSNAME
  2

  9
$UCSORG
 10
0.0
 20
0.0
 30
0.0
  9
$UCSXDIR
 10
1.0
 20
0.0
 30
0.0
  9
$UCSYDIR
 10
0.0
 20
1.0
 30
0.0
  9
$UCSORTHOREF
  2

  9
$UCSORTHOVIEW
 70
     0
  9
$UCSORGTOP
 10
0.0
 20
0.0
 30
0.0
  9
$UCSORGBOTTOM
 10
0.0
 20
0.0
 30
0.0
  9
$UCSORGLEFT
 10
0.0
 20
0.0
 30
0.0
  9
$UCSORGRIGHT
 10
0.0
 20
0.0
 30
0.0
  9
$UCSORGFRONT
 10
0.0
 20
0.0
 30
0.0
  9
$UCSORGBACK
 10
0.0
 20
0.0
 30
0.0
  9
$PUCSBASE
  2

  9
$PUCSNAME
  2

  9
$PUCSORG
 10
0.0
 20
0.0
 30
0.0
  9
$PUCSXDIR
 10
1.0
 20
0.0
 30
0.0
  9
$PUCSYDIR
 10
0.0
 20
1.0
 30
0.0
  9
$PUCSORTHOREF
  2

  9
$PUCSORTHOVIEW
 70
     0
  9
$PUCSORGTOP
 10
0.0
 20
0.0
 30
0.0
  9
$PUCSORGBOTTOM
 10
0.0
 20
0.0
 30
0.0
  9
$PUCSORGLEFT
 10
0.0
 20
0.0
 30
0.0
  9
$PUCSORGRIGHT
 10
0.0
 20
0.0
 30
0.0
  9
$PUCSORGFRONT
 10
0.0
 20
0.0
 30
0.0
  9
$PUCSORGBACK
 10
0.0
 20
0.0
 30
0.0
  9
$USERI1
 70
     0
  9
$USERI2
 70
     0
  9
$USERI3
 70
     0
  9
$USERI4
 70
     0
  9
$USERI5
 70
     0
  9
$USERR1
 40
0.0
  9
$USERR2
 40
0.0
  9
$USERR3
 40
0.0
  9
$USERR4
 40
0.0
  9
$USERR5
 40
0.0
  9
$WORLDVIEW
 70
     1
  9
$SHADEDGE
 70
     3
  9
$SHADEDIF
 70
    70
  9
$TILEMODE
 70
     0
  9
$MAXACTVP
 70
    16
  9
$PINSBASE
 10
0.0
 20
0.0
 30
0.0
  9
$PLIMCHECK
 70
     0
  9
$PEXTMIN
 10
-0.0909266185249429
 20
-0.1135482522998323
 30
-0.0015258207003583
  9
$PEXTMAX
 10
10.4649508359109
 20
8.016029154163678
 30
0.0000000349246037
  9
$PLIMMIN
 10
-0.3306119115190196
 20
-0.2812499079328949
  9
$PLIMMAX
 10
10.66938784818509
 20
8.218749851771214
  9
$UNITMODE
 70
     0
  9
$VISRETAIN
 70
     0
  9
$PLINEGEN
 70
     1
  9
$PSLTSCALE
 70
     0
  9
$TREEDEPTH
 70
  3020
  9
$CMLSTYLE
  2
Standard
  9
$CMLJUST
 70
     0
  9
$CMLSCALE
 40
1.0
  9
$PROXYGRAPHICS
 70
     0
  9
$MEASUREMENT
 70
     0
  9
$CELWEIGHT
370
     0
  9
$ENDCAPS
280
     0
  9
$JOINSTYLE
280
     0
  9
$LWDISPLAY
290
     0
  9
$INSUNITS
 70
     0
  9
$HYPERLINKBASE
  1

  9
$STYLESHEET
  1

  9
$XEDIT
290
     1
  9
$CEPSNTYPE
380
     0
  9
$PSTYLEMODE
290
     1
  9
$FINGERPRINTGUID
  2

  9
$VERSIONGUID
  2
{4AA3E6D5-707C-480F-A8CD-CD53BC4B1E8E}
  9
$EXTNAMES
290
     1
  9
$PSVPSCALE
 40
0.0
  9
$OLESTARTUP
290
     0
  9
$SORTENTS
280
   127
  9
$INDEXCTL
280
     0
  9
$HIDETEXT
280
     0
  9
$XCLIPFRAME
290
     0
  9
$HALOGAP
280
     0
  9
$OBSCOLOR
 70
   257
  9
$OBSLTYPE
280
     0
  9
$INTERSECTIONDISPLAY
280
     0
  9
$INTERSECTIONCOLOR
 70
   257
  9
$DIMASSOC
280
     1
  9
$PROJECTNAME
  1

  0
ENDSEC
  0
SECTION
  2
CLASSES
  0
CLASS
  1
IMAGE
  2
AcDbRasterImage
  3
ISM
 90
     2175
 91
        0
280
     0
281
     1
  0
CLASS
  1
DICTIONARYVAR
  2
AcDbDictionaryVar
  3
ObjectDBX Classes
 90
        0
 91
        5
280
     0
281
     0
  0
CLASS
  1
RASTERVARIABLES
  2
AcDbRasterVariables
  3
ISM
 90
        0
 91
        0
280
     0
281
     0
  0
CLASS
  1
IMAGEDEF
  2
AcDbRasterImageDef
  3
ISM
 90
        0
 91
        0
280
     0
281
     0
  0
CLASS
  1
IMAGEDEF_REACTOR
  2
AcDbRasterImageDefReactor
  3
ISM
 90
        1
 91
        0
280
     0
281
     0
  0
CLASS
  1
IDBUFFER
  2
AcDbIdBuffer
  3
ObjectDBX Classes
 90
        0
 91
        0
280
     0
281
     0
  0
CLASS
  1
SPATIAL_FILTER
  2
AcDbSpatialFilter
  3
ObjectDBX Classes
 90
        0
 91
        0
280
     0
281
     0
  0
CLASS
  1
SORTENTSTABLE
  2
AcDbSortentsTable
  3
ObjectDBX Classes
 90
        0
 91
        1
280
     0
281
     0
  0
CLASS
  1
LAYER_INDEX
  2
AcDbLayerIndex
  3
ObjectDBX Classes
 90
        0
 91
        0
280
     0
281
     0
  0
CLASS
  1
SPATIAL_INDEX
  2
AcDbSpatialIndex
  3
ObjectDBX Classes
 90
        0
 91
        0
280
     0
281
     0
  0
CLASS
  1
OBJECT_PTR
  2
CAseDLPNTableRecord
  3
ASE-LPNTableRecord
 90
        1
 91
        0
280
     0
281
     0
  0
CLASS
  1
PLOTSETTINGS
  2
AcDbPlotSettings
  3
ObjectDBX Classes
 90
        0
 91
        0
280
     0
281
     0
  0
CLASS
  1
ACDBDICTIONARYWDFLT
  2
AcDbDictionaryWithDefault
  3
ObjectDBX Classes
 90
        0
 91
        1
280
     0
281
     0
  0
CLASS
  1
WIPEOUT
  2
AcDbWipeout
  3
"WipeOut|Product Desc: Object Enabler for WipeOut entity                        |Company: Autodesk, Inc.                        |WEB Address: www.autodesk.com"
 90
     2175
 91
        0
280
     0
281
     1
  0
CLASS
  1
WIPEOUTVARIABLES
  2
AcDbWipeoutVariables
  3
"WipeOut|Product Desc:     WipeOut Dbx Application|Company:          Autodesk, Inc.|WEB Address:      www.autodesk.com"
 90
        0
 91
        1
280
     0
281
     0
  0
CLASS
  1
RTEXT
  2
RText
  3
RText|AutoCAD Express Tool|expresstools@autodesk.com
 90
     3071
 91
        0
280
     0
281
     1
  0
CLASS
  1
ARCALIGNEDTEXT
  2
AcDbArcAlignedText
  3
ATEXT|AutoCAD Express Tool|expresstools@autodesk.com
 90
        0
 91
        0
280
     0
281
     1
  0
CLASS
  1
MATERIAL
  2
AcDbMaterial
  3
ObjectDBX Classes
 90
     1153
 91
        3
280
     0
281
     0
  0
CLASS
  1
VISUALSTYLE
  2
AcDbVisualStyle
  3
ObjectDBX Classes
 90
     4095
 91
       16
280
     0
281
     0
  0
CLASS
  1
TABLESTYLE
  2
AcDbTableStyle
  3
ObjectDBX Classes
 90
     4095
 91
        1
280
     0
281
     0
  0
CLASS
  1
SCALE
  2
AcDbScale
  3
ObjectDBX Classes
 90
     1153
 91
       33
280
     0
281
     0
  0
CLASS
  1
MLEADERSTYLE
  2
AcDbMLeaderStyle
  3
ACDB_MLEADERSTYLE_CLASS
 90
     4095
 91
        1
280
     0
281
     0
  0
CLASS
  1
CELLSTYLEMAP
  2
AcDbCellStyleMap
  3
ObjectDBX Classes
 90
     1152
 91
        2
280
     0
281
     0
  0
ENDSEC
  0
SECTION
  2
TABLES
  0
TABLE
  2
VPORT
  5
7
330
0
100
AcDbSymbolTable
 70
     1
  0
VPORT
  5
15
330
7
100
AcDbSymbolTableRecord
100
AcDbViewportTableRecord
  2
*ACTIVE
 70
     0
 10
0.0
 20
0.0
 11
1.0
 21
1.0
 12
13.89621157632295
 22
4.579183999999999
 13
0.0
 23
0.0
 14
1.0
 24
1.0
 15
0.0
 25
0.0
 16
0.0
 26
0.0
 36
1.0
 17
0.0
 27
0.0
 37
0.0
 40
9.158369
 41
2.283809523809523
 42
50.0
 43
0.0
 44
0.0
 50
0.0
 51
0.0
 71
     0
 72
   100
 73
     1
 74
     1
 75
     0
 76
     0
 77
     0
 78
     0
281
     0
 65
     0
110
0.0
120
0.0
130
0.0
111
1.0
121
0.0
131
0.0
112
0.0
122
1.0
132
0.0
 79
     0
146
0.0
  0
ENDTAB
  0
TABLE
  2
LTYPE
  5
4
330
0
100
AcDbSymbolTable
 70
     5
  0
LTYPE
  5
11
330
4
100
AcDbSymbolTableRecord
100
AcDbLinetypeTableRecord
  2
ByBlock
 70
     0
  3

 72
    65
 73
     0
 40
0.0
  0
LTYPE
  5
12
330
4
100
AcDbSymbolTableRecord
100
AcDbLinetypeTableRecord
  2
ByLayer
 70
     0
  3

 72
    65
 73
     0
 40
0.0
  0
LTYPE
  5
13
330
4
100
AcDbSymbolTableRecord
100
AcDbLinetypeTableRecord
  2
Continuous
 70
     0
  3
Solid line
 72
    65
 73
     0
 40
0.0
  0
LTYPE
  5
24
330
4
100
AcDbSymbolTableRecord
100
AcDbLinetypeTableRecord
  2
solid
 70
     0
  3

 72
    65
 73
     0
 40
0.0
  0
LTYPE
  5
25
330
4
100
AcDbSymbolTableRecord
100
AcDbLinetypeTableRecord
  2
dashed
 70
     0
  3

 72
    65
 73
     0
 40
0.0
  0
LTYPE
  5
26
330
4
100
AcDbSymbolTableRecord
100
AcDbLinetypeTableRecord
  2
center
 70
     0
  3

 72
    65
 73
     0
 40
0.0
  0
ENDTAB
  0
TABLE
  2
LAYER
  5
2
330
0
100
AcDbSymbolTable
 70
     3
  0
LAYER
  5
14
102
{ACAD_XDICTIONARY
360
1AD
102
}
330
2
100
AcDbSymbolTableRecord
100
AcDbLayerTableRecord
  2
0
 70
     0
 62
     7
  6
Continuous
370
    -3
390
1D
  0
LAYER
  5
27
102
{ACAD_XDICTIONARY
360
1AF
102
}
330
2
100
AcDbSymbolTableRecord
100
AcDbLayerTableRecord
  2
1
 70
     0
 62
     1
  6
solid
370
    -3
390
1D
  0
LAYER
  5
A9
102
{ACAD_XDICTIONARY
360
1B1
102
}
330
2
100
AcDbSymbolTableRecord
100
AcDbLayerTableRecord
  2
0
 70
     0
 62
     1
  6
solid
370
    -3
390
1D
  0
ENDTAB
  0
TABLE
  2
STYLE
  5
3
330
0
100
AcDbSymbolTable
 70
     2
  0
STYLE
  5
17
330
3
100
AcDbSymbolTableRecord
100
AcDbTextStyleTableRecord
  2
Standard
 70
     0
 40
0.0
 41
1.0
 50
0.0
 71
     0
 42
0.0
  3
txt
  4

  0
ENDTAB
  0
TABLE
  2
VIEW
  5
5
330
0
100
AcDbSymbolTable
 70
     0
  0
ENDTAB
  0
TABLE
  2
UCS
  5
6
330
0
100
AcDbSymbolTable
 70
     0
  0
ENDTAB
  0
TABLE
  2
APPID
  5
8
330
0
100
AcDbSymbolTable
 70
     4
  0
APPID
  5
16
330
8
100
AcDbSymbolTableRecord
100
AcDbRegAppTableRecord
  2
ACAD
 70
     0
  0
APPID
  5
178
330
8
100
AcDbSymbolTableRecord
100
AcDbRegAppTableRecord
  2
ACAD_PSEXT
 70
     0
  0
APPID
  5
17D
330
8
100
AcDbSymbolTableRecord
100
AcDbRegAppTableRecord
  2
DCO15
 70
     0
  0
APPID
  5
1A6
330
8
100
AcDbSymbolTableRecord
100
AcDbRegAppTableRecord
  2
ACAD_MLEADERVER
 70
     0
  0
ENDTAB
  0
TABLE
  2
DIMSTYLE
  5
9
330
0
100
AcDbSymbolTable
 70
     3
100
AcDbDimStyleTable
 71
     1
340
18
  0
DIMSTYLE
105
18
330
9
100
AcDbSymbolTableRecord
100
AcDbDimStyleTableRecord
  2
Standard
 70
     0
289
     0
340
17
  0
ENDTAB
  0
TABLE
  2
BLOCK_RECORD
  5
1
330
0
100
AcDbSymbolTable
 70
     6
  0
BLOCK_RECORD
  5
A
102
{ACAD_XDICTIONARY
360
1C2
102
}
330
1
100
AcDbSymbolTableRecord
100
AcDbBlockTableRecord
  2
*MODEL_SPACE
340
20
  0
BLOCK_RECORD
  5
B
330
1
100
AcDbSymbolTableRecord
100
AcDbBlockTableRecord
  2
*PAPER_SPACE
340
21
  0
BLOCK_RECORD
  5
93
330
1
100
AcDbSymbolTableRecord
100
AcDbBlockTableRecord
  2
*D0
340
0
  0
BLOCK_RECORD
  5
9E
330
1
100
AcDbSymbolTableRecord
100
AcDbBlockTableRecord
  2
*D1
340
0
  0
BLOCK_RECORD
  5
144
330
1
100
AcDbSymbolTableRecord
100
AcDbBlockTableRecord
  2
*D2
340
0
  0
BLOCK_RECORD
  5
14F
330
1
100
AcDbSymbolTableRecord
100
AcDbBlockTableRecord
  2
*D3
340
0
  0
ENDTAB
  0
ENDSEC
  0
SECTION
  2
BLOCKS
  0
BLOCK
  5
D
330
A
100
AcDbEntity
  8
0
100
AcDbBlockBegin
  2
*MODEL_SPACE
 70
     0
 10
0.0
 20
0.0
 30
0.0
  3
*MODEL_SPACE
  1

  0
ENDBLK
  5
E
330
A
100
AcDbEntity
  8
0
100
AcDbBlockEnd
  0
BLOCK
  5
F
330
B
100
AcDbEntity
 67
     1
  8
0
100
AcDbBlockBegin
  2
*PAPER_SPACE
 70
     0
 10
0.0
 20
0.0
 30
0.0
  3
*PAPER_SPACE
  1

  0
ENDBLK
  5
10
330
B
100
AcDbEntity
 67
     1
  8
0
100
AcDbBlockEnd
  0
BLOCK
  5
94
330
93
100
AcDbEntity
  8
1
  6
solid
 62
     7
100
AcDbBlockBegin
  2
*D0
 70
     0
 10
0.0
 20
0.0
 30
0.0
  3
*D0
  1

  0
LINE
  5
95
330
93
100
AcDbEntity
  8
1
  6
solid
 62
     7
100
AcDbLine
 10
0.6408365964889528
 20
1.639277935028075
 30
0.0
 11
0.6408365964889527
 21
5.827137966486901
 31
0.0
  0
LINE
  5
96
330
93
100
AcDbEntity
  8
1
  6
solid
 62
     7
100
AcDbLine
 10
4.727060794830322
 20
5.607296943664549
 30
0.0
 11
4.727060794830322
 21
5.827137966486901
 31
0.0
  0
LINE
  5
97
330
93
100
AcDbEntity
  8
1
  6
solid
 62
     7
100
AcDbLine
 10
0.6408365964889527
 20
5.764637966486901
 30
0.0
 11
2.445404578012579
 21
5.764637966486901
 31
0.0
  0
LINE
  5
98
330
93
100
AcDbEntity
  8
1
  6
solid
 62
     7
100
AcDbLine
 10
4.727060794830322
 20
5.764637966486901
 30
0.0
 11
2.922492813306695
 21
5.764637966486901
 31
0.0
  0
MTEXT
  5
99
330
93
100
AcDbEntity
  8
1
  6
solid
 62
     7
100
AcDbMText
 10
2.683948695659637
 20
5.764637966486901
 30
0.0
 40
0.125
 41
0.0
 71
     5
 72
     1
  1
{\H0.125000;4 1/8}
 73
     1
 44
1.0
  0
SOLID
  5
9A
330
93
100
AcDbEntity
  8
1
  6
solid
 62
     7
100
AcDbTrace
 10
0.7658365964889527
 20
5.7854504664869
 30
0.0
 11
0.7658365964889527
 21
5.743825466486902
 31
0.0
 12
0.6408365964889527
 22
5.764637966486901
 32
0.0
 13
0.6408365964889527
 23
5.764637966486901
 33
0.0
  0
SOLID
  5
9B
330
93
100
AcDbEntity
  8
1
  6
solid
 62
     7
100
AcDbTrace
 10
4.602060794830322
 20
5.743825466486902
 30
0.0
 11
4.602060794830322
 21
5.7854504664869
 31
0.0
 12
4.727060794830322
 22
5.764637966486901
 32
0.0
 13
4.727060794830322
 23
5.764637966486901
 33
0.0
  0
ENDBLK
  5
9C
330
93
100
AcDbEntity
  8
1
  6
solid
 62
     7
100
AcDbBlockEnd
  0
BLOCK
  5
9F
330
9E
100
AcDbEntity
  8
1
  6
solid
 62
     7
100
AcDbBlockBegin
  2
*D1
 70
     0
 10
0.0
 20
0.0
 30
0.0
  3
*D1
  1

  0
LINE
  5
A0
330
9E
100
AcDbEntity
  8
1
  6
solid
 62
     7
100
AcDbLine
 10
0.5158367156982422
 20
0.5890976786613465
 30
0.0
 11
0.342334932051515
 21
0.5890976786613465
 31
0.0
  0
LINE
  5
A1
330
9E
100
AcDbEntity
  8
1
  6
solid
 62
     7
100
AcDbLine
 10
3.673433542251586
 20
5.482296943664549
 30
0.0
 11
0.3423349320515185
 21
5.482296943664552
 31
0.0
  0
LINE
  5
A2
330
9E
100
AcDbEntity
  8
1
  6
solid
 62
     7
100
AcDbLine
 10
0.4048349320515151
 20
0.5890976786613465
 30
0.0
 11
0.4048349320515167
 21
2.875824715009102
 31
0.0
  0
LINE
  5
A3
330
9E
100
AcDbEntity
  8
1
  6
solid
 62
     7
100
AcDbLine
 10
0.4048349320515186
 20
5.482296943664552
 30
0.0
 11
0.4048349320515169
 21
3.195569907316794
 31
0.0
  0
MTEXT
  5
A4
330
9E
100
AcDbEntity
  8
1
  6
solid
 62
     7
100
AcDbMText
 10
0.4048349320515169
 20
3.035697311162948
 30
0.0
 40
0.125
 41
0.0
 71
     5
 72
     1
  1
{\H0.125000;4 7/8}
 73
     1
 44
1.0
  0
SOLID
  5
A5
330
9E
100
AcDbEntity
  8
1
  6
solid
 62
     7
100
AcDbTrace
 10
0.3840224320515152
 20
0.7140976786613465
 30
0.0
 11
0.4256474320515152
 21
0.7140976786613465
 31
0.0
 12
0.4048349320515151
 22
0.5890976786613465
 32
0.0
 13
0.4048349320515151
 23
0.5890976786613465
 33
0.0
  0
SOLID
  5
A6
330
9E
100
AcDbEntity
  8
1
  6
solid
 62
     7
100
AcDbTrace
 10
0.4256474320515185
 20
5.357296943664552
 30
0.0
 11
0.3840224320515184
 21
5.357296943664552
 31
0.0
 12
0.4048349320515186
 22
5.482296943664552
 32
0.0
 13
0.4048349320515186
 23
5.482296943664552
 33
0.0
  0
ENDBLK
  5
A7
330
9E
100
AcDbEntity
  8
1
  6
solid
 62
     7
100
AcDbBlockEnd
  0
BLOCK
  5
145
330
144
100
AcDbEntity
  8
0
  6
solid
 62
     7
100
AcDbBlockBegin
  2
*D2
 70
     0
 10
0.0
 20
0.0
 30
0.0
  3
*D2
  1

  0
LINE
  5
146
330
144
100
AcDbEntity
  8
0
  6
solid
 62
     7
100
AcDbLine
 10
-6.639229774475097
 20
3.492185831069946
 30
0.0
 11
-6.639229774475097
 21
2.136847390441315
 31
0.0
  0
LINE
  5
147
330
144
100
AcDbEntity
  8
0
  6
solid
 62
     7
100
AcDbLine
 10
-0.2660075128078461
 20
3.34163212776184
 30
0.0
 11
-0.2660075128078461
 21
2.136847390441315
 31
0.0
  0
LINE
  5
148
330
144
100
AcDbEntity
  8
0
  6
solid
 62
     7
100
AcDbLine
 10
-6.639229774475097
 20
2.199347390441315
 30
0.0
 11
-3.452618643641471
 21
2.199347390441315
 31
0.0
  0
LINE
  5
149
330
144
100
AcDbEntity
  8
0
  6
solid
 62
     7
100
AcDbLine
 10
-0.2660075128078461
 20
2.199347390441315
 30
0.0
 11
-3.452618643641471
 21
2.199347390441315
 31
0.0
  0
MTEXT
  5
14A
330
144
100
AcDbEntity
  8
0
  6
solid
 62
     7
100
AcDbMText
 10
-3.452618643641471
 20
2.302932486595161
 30
0.0
 40
0.125
 41
0.0
 71
     5
 72
     1
  1
{\H0.125000;6 3/8}
 73
     1
 44
1.0
  0
SOLID
  5
14B
330
144
100
AcDbEntity
  8
0
  6
solid
 62
     7
100
AcDbTrace
 10
-6.514229774475097
 20
2.220162390441315
 30
0.0
 11
-6.514229774475097
 21
2.178532390441314
 31
0.0
 12
-6.639229774475097
 22
2.199347390441315
 32
0.0
 13
-6.639229774475097
 23
2.199347390441315
 33
0.0
  0
SOLID
  5
14C
330
144
100
AcDbEntity
  8
0
  6
solid
 62
     7
100
AcDbTrace
 10
-0.3910075128078461
 20
2.178532390441315
 30
0.0
 11
-0.3910075128078461
 21
2.220162390441315
 31
0.0
 12
-0.2660075128078461
 22
2.199347390441315
 32
0.0
 13
-0.2660075128078461
 23
2.199347390441315
 33
0.0
  0
ENDBLK
  5
14D
330
144
100
AcDbEntity
  8
0
  6
solid
 62
     7
100
AcDbBlockEnd
  0
BLOCK
  5
150
330
14F
100
AcDbEntity
  8
0
  6
solid
 62
     7
100
AcDbBlockBegin
  2
*D3
 70
     0
 10
0.0
 20
0.0
 30
0.0
  3
*D3
  1

  0
LINE
  5
151
330
14F
100
AcDbEntity
  8
0
  6
solid
 62
     7
100
AcDbLine
 10
-6.186000823974609
 20
2.890549659729003
 30
0.0
 11
-7.333276433286383
 21
2.890549659729005
 31
0.0
  0
LINE
  5
152
330
14F
100
AcDbEntity
  8
0
  6
solid
 62
     7
100
AcDbLine
 10
-2.411400556564331
 20
3.876541376113891
 30
0.0
 11
-7.333276433286382
 21
3.876541376113895
 31
0.0
  0
LINE
  5
153
330
14F
100
AcDbEntity
  8
0
  6
solid
 62
     7
100
AcDbLine
 10
-7.270776433286383
 20
2.890549659729005
 30
0.0
 11
-7.270776433286382
 21
3.383545517921449
 31
0.0
  0
LINE
  5
154
330
14F
100
AcDbEntity
  8
0
  6
solid
 62
     7
100
AcDbLine
 10
-7.270776433286382
 20
3.876541376113895
 30
0.0
 11
-7.270776433286382
 21
3.383545517921449
 31
0.0
  0
MTEXT
  5
155
330
14F
100
AcDbEntity
  8
0
  6
solid
 62
     7
100
AcDbMText
 10
-7.360238933286383
 20
3.383545517921449
 30
0.0
 40
0.125
 41
0.0
 71
     5
 72
     1
  1
{\H0.125000;1}
 73
     1
 44
1.0
  0
SOLID
  5
156
330
14F
100
AcDbEntity
  8
0
  6
solid
 62
     7
100
AcDbTrace
 10
-7.291591433286383
 20
3.015549659729005
 30
0.0
 11
-7.249961433286383
 21
3.015549659729005
 31
0.0
 12
-7.270776433286383
 22
2.890549659729005
 32
0.0
 13
-7.270776433286383
 23
2.890549659729005
 33
0.0
  0
SOLID
  5
157
330
14F
100
AcDbEntity
  8
0
  6
solid
 62
     7
100
AcDbTrace
 10
-7.249961433286382
 20
3.751541376113895
 30
0.0
 11
-7.291591433286382
 21
3.751541376113895
 31
0.0
 12
-7.270776433286382
 22
3.876541376113895
 32
0.0
 13
-7.270776433286382
 23
3.876541376113895
 33
0.0
  0
ENDBLK
  5
158
330
14F
100
AcDbEntity
  8
0
  6
solid
 62
     7
100
AcDbBlockEnd
  0
ENDSEC
  0
SECTION
  2
ENTITIES
  0
ARC
  5
28
330
A
100
AcDbEntity
  8
1
  6
solid
 62
     7
100
AcDbCircle
 10
4.694669448394432
 20
3.098966902415544
 30
0.0
 40
1.743692561853805
100
AcDbArc
 50
136.2828994764307
 51
154.1993801300669
  0
ARC
  5
29
330
A
100
AcDbEntity
  8
1
  6
solid
 62
     7
100
AcDbCircle
 10
3.616739553577966
 20
3.605442921452114
 30
0.0
 40
0.5529350143901936
100
AcDbArc
 50
152.8343683345331
 51
176.3276392851638
  0
ARC
  5
2A
330
A
100
AcDbEntity
  8
1
  6
solid
 62
     7
100
AcDbCircle
 10
1.881591220520953
 20
3.875417203357065
 30
0.0
 40
1.206371288006442
100
AcDbArc
 50
280.5110976333426
 51
348.7884053252207
  0
LINE
  5
2B
330
A
100
AcDbEntity
  8
1
  6
solid
 62
     7
100
AcDbLine
 10
2.101664607985772
 20
2.689289262155039
 30
0.0
 11
2.060910623672771
 21
2.604100657439079
 31
0.0
  0
ARC
  5
2C
330
A
100
AcDbEntity
  8
1
  6
solid
 62
     7
100
AcDbCircle
 10
1.865893805781912
 20
2.196268915636454
 30
0.0
 40
0.452060121437673
100
AcDbArc
 50
270.6175444985473
 51
424.443826173749
  0
LINE
  5
2D
330
A
100
AcDbEntity
  8
1
  6
solid
 62
     7
100
AcDbLine
 10
1.870766182434983
 20
1.74423511858055
 30
0.0
 11
1.865173316920417
 21
1.532283001706128
 31
0.0
  0
ARC
  5
2E
330
A
100
AcDbEntity
  8
1
  6
solid
 62
     7
100
AcDbCircle
 10
1.843138037582134
 20
0.5894512173792932
 30
0.0
 40
0.9430891659601407
100
AcDbArc
 50
88.66116471603003
 51
177.6148129960437
  0
LINE
  5
2F
330
A
100
AcDbEntity
  8
1
  6
solid
 62
     7
100
AcDbLine
 10
0.9008659899410794
 20
0.6287001181061052
 30
0.0
 11
0.6408366503290308
 21
0.5890975664717955
 31
0.0
  0
LINE
  5
30
330
A
100
AcDbEntity
  8
1
  6
solid
 62
     7
100
AcDbLine
 10
0.6408366975990707
 20
0.5890976721088137
 30
0.0
 11
0.6408365810573984
 21
1.514277876143856
 31
0.0
  0
ARC
  5
31
330
A
100
AcDbEntity
  8
1
  6
solid
 62
     7
100
AcDbCircle
 10
4.498418398630523
 20
5.291854356929411
 30
0.0
 40
0.2975662085548417
100
AcDbArc
 50
256.0215004189148
 51
399.7918486904505
  0
LINE
  5
32
330
A
100
AcDbEntity
  8
1
  6
solid
 62
     7
100
AcDbLine
 10
4.426539115306845
 20
5.003100445042241
 30
0.0
 11
4.375396198250913
 21
4.873632136207952
 31
0.0
  0
ARC
  5
33
330
A
100
AcDbEntity
  8
1
  6
solid
 62
     7
100
AcDbCircle
 10
5.017613572062574
 20
2.750590423960573
 30
0.0
 40
2.218050781016482
100
AcDbArc
 50
106.8304981339998
 51
135.5439188036128
  0
LINE
  5
34
330
A
100
AcDbEntity
  8
1
  6
solid
 62
     7
100
AcDbLine
 10
4.727060597917216
 20
5.48229687748701
 30
0.0
 11
3.798433463263187
 21
5.48229687748701
 31
0.0
  0
ARC
  5
35
330
A
100
AcDbEntity
  8
1
  6
solid
 62
     7
100
AcDbCircle
 10
5.54904833354468
 20
2.398766037960386
 30
0.0
 40
1.743692561853805
100
AcDbArc
 50
136.2828994764307
 51
154.1993801300669
  0
ARC
  5
36
330
A
100
AcDbEntity
  8
1
  6
solid
 62
     7
100
AcDbCircle
 10
2.735970105671202
 20
3.175216338901905
 30
0.0
 40
1.206371288006442
100
AcDbArc
 50
280.5110976333426
 51
348.7884053252207
  0
LINE
  5
37
330
A
100
AcDbEntity
  8
1
  6
solid
 62
     7
100
AcDbLine
 10
2.956043493136022
 20
1.98908839769988
 30
0.0
 11
2.91528950882302
 21
1.903899792983919
 31
0.0
  0
ARC
  5
38
330
A
100
AcDbEntity
  8
1
  6
solid
 62
     7
100
AcDbCircle
 10
2.720272690932163
 20
1.496068051181295
 30
0.0
 40
0.452060121437673
100
AcDbArc
 50
270.6175444985473
 51
424.443826173749
  0
LINE
  5
39
330
A
100
AcDbEntity
  8
1
  6
solid
 62
     7
100
AcDbLine
 10
2.725145067585232
 20
1.044034254125391
 30
0.0
 11
2.719552202070667
 21
0.8320821372509692
 31
0.0
  0
ARC
  5
3A
330
A
100
AcDbEntity
  8
1
  6
solid
 62
     7
100
AcDbCircle
 10
2.697516922732384
 20
-0.110749647075866
 30
0.0
 40
0.9430891659601407
100
AcDbArc
 50
88.66116471603003
 51
177.6148129960437
  0
LINE
  5
3B
330
A
100
AcDbEntity
  8
1
  6
solid
 62
     7
100
AcDbLine
 10
1.755244875091328
 20
-0.071500746349054
 30
0.0
 11
1.495215535479279
 21
-0.1111032979833637
 31
0.0
  0
ARC
  5
3C
330
A
100
AcDbEntity
  8
1
  6
solid
 62
     7
100
AcDbCircle
 10
5.352797283780772
 20
4.591653492474251
 30
0.0
 40
0.2975662085548417
100
AcDbArc
 50
256.0215004189148
 51
399.7918486904505
  0
LINE
  5
3D
330
A
100
AcDbEntity
  8
1
  6
solid
 62
     7
100
AcDbLine
 10
5.280918000457096
 20
4.302899580587082
 30
0.0
 11
5.229775083401164
 21
4.173431271752792
 31
0.0
  0
ARC
  5
3E
330
A
100
AcDbEntity
  8
1
  6
solid
 62
     7
100
AcDbCircle
 10
5.871992457212824
 20
2.050389559505414
 30
0.0
 40
2.218050781016482
100
AcDbArc
 50
106.8304981339998
 51
135.5439188036128
  0
ARC
  5
3F
330
A
100
AcDbEntity
  8
1
  6
solid
 62
     7
100
AcDbCircle
 10
4.471118492252894
 20
2.905242125324794
 30
0.0
 40
0.5529350143901936
100
AcDbArc
 50
152.8343683345331
 51
176.3276392851638
  0
LINE
  5
40
330
A
100
AcDbEntity
  8
1
  6
solid
 62
     7
100
AcDbLine
 10
4.727060794830322
 20
5.482296943664549
 30
0.0
 11
5.581439495086669
 21
4.782095909118652
 31
0.0
  0
LINE
  5
41
330
A
100
AcDbEntity
  8
1
  6
solid
 62
     7
100
AcDbLine
 10
4.426538944244383
 20
5.003100395202635
 30
0.0
 11
5.280918121337889
 21
4.302899360656738
 31
0.0
  0
LINE
  5
42
330
A
100
AcDbEntity
  8
1
  6
solid
 62
     7
100
AcDbLine
 10
5.229774951934813
 20
4.173431396484375
 30
0.0
 11
4.375396251678465
 21
4.873631954193115
 31
0.0
  0
LINE
  5
43
330
A
100
AcDbEntity
  8
1
  6
solid
 62
     7
100
AcDbLine
 10
2.956043481826781
 20
1.989088416099547
 30
0.0
 11
2.101664781570434
 21
2.689289331436156
 31
0.0
  0
LINE
  5
44
330
A
100
AcDbEntity
  8
1
  6
solid
 62
     7
100
AcDbLine
 10
2.915289402008056
 20
1.903899788856505
 30
0.0
 11
2.227475452579042
 21
2.467593566366387
 31
0.0
  0
LINE
  5
45
330
A
100
AcDbEntity
  8
1
  6
solid
 62
     7
100
AcDbLine
 10
2.725145101547241
 20
1.044034242630003
 30
0.0
 11
1.870766043663024
 21
1.744235038757324
 31
0.0
  0
LINE
  5
46
330
A
100
AcDbEntity
  8
1
  6
solid
 62
     7
100
AcDbLine
 10
2.719552278518675
 20
0.832082152366638
 30
0.0
 11
1.86517322063446
 21
1.532282948493957
 31
0.0
  0
LINE
  5
47
330
A
100
AcDbEntity
  8
1
  6
solid
 62
     7
100
AcDbLine
 10
1.755244851112365
 20
-0.0715007483959198
 30
0.0
 11
0.9008659720420837
 21
0.6287001371383667
 31
0.0
  0
LINE
  5
48
330
A
100
AcDbEntity
  8
1
  6
solid
 62
     7
100
AcDbLine
 10
1.495215535163878
 20
-0.1111032962799072
 30
0.0
 11
0.6408367156982422
 21
0.5890976786613466
 31
0.0
  0
LINE
  5
49
330
A
100
AcDbEntity
  8
1
  6
solid
 62
     7
100
AcDbLine
 10
1.041178421312602
 20
-0.413876148078133
 30
0.0
 11
1.016469118987022
 21
-0.413876148078133
 31
0.0
  0
LINE
  5
4A
330
A
100
AcDbEntity
  8
1
  6
solid
 62
     7
100
AcDbLine
 10
1.016469118987022
 20
-0.413876148078133
 30
0.0
 11
1.016469118987022
 21
-0.3250198690083655
 31
0.0
  0
SPLINE
  5
4B
330
A
100
AcDbEntity
  8
1
  6
solid
 62
     7
100
AcDbSpline
210
0.0
220
0.0
230
1.0
 70
     8
 71
     2
 72
     6
 73
     3
 74
     0
 42
0.0000000001
 43
0.0000000001
 40
0.0
 40
0.0
 40
0.0
 40
1.0
 40
1.0
 40
1.0
 10
1.016469118987022
 20
-0.3250198690083655
 30
0.0
 10
1.003477025963765
 20
-0.33918265970604
 30
0.0
 10
0.9859458631730685
 20
-0.3455621945897609
 30
0.0
  0
LINE
  5
4C
330
A
100
AcDbEntity
  8
1
  6
solid
 62
     7
100
AcDbLine
 10
0.9859458631730685
 20
-0.3455621945897609
 30
0.0
 11
0.9859458631730685
 21
-0.3208528922641795
 31
0.0
  0
SPLINE
  5
4D
330
A
100
AcDbEntity
  8
1
  6
solid
 62
     7
100
AcDbSpline
210
0.0
220
0.0
230
1.0
 70
     8
 71
     2
 72
     7
 73
     4
 74
     0
 42
0.0000000001
 43
0.0000000001
 40
0.0
 40
0.0
 40
0.0
 40
1.0
 40
2.0
 40
2.0
 40
2.0
 10
0.9859458631730685
 20
-0.3208528922641795
 30
0.0
 10
0.995128188754464
 20
-0.3178119620316214
 30
0.0
 10
1.017153770149811
 20
-0.3004594038920865
 30
0.0
 10
1.021350514335858
 20
-0.288876148078133
 30
0.0
  0
LINE
  5
4E
330
A
100
AcDbEntity
  8
1
  6
solid
 62
     7
100
AcDbLine
 10
1.021350514335858
 20
-0.288876148078133
 30
0.0
 11
1.041178421312602
 21
-0.288876148078133
 31
0.0
  0
LINE
  5
4F
330
A
100
AcDbEntity
  8
1
  6
solid
 62
     7
100
AcDbLine
 10
1.041178421312602
 20
-0.413876148078133
 30
0.0
 11
1.041178421312602
 21
-0.288876148078133
 31
0.0
  0
LINE
  5
50
330
A
100
AcDbEntity
  8
1
  6
solid
 62
     7
100
AcDbLine
 10
1.084888188754463
 20
-0.413876148078133
 30
0.0
 11
1.128016560847487
 21
-0.3481863806362725
 31
0.0
  0
LINE
  5
51
330
A
100
AcDbEntity
  8
1
  6
solid
 62
     7
100
AcDbLine
 10
1.128016560847487
 20
-0.3481863806362725
 30
0.0
 11
1.089248653870741
 21
-0.288876148078133
 31
0.0
  0
LINE
  5
52
330
A
100
AcDbEntity
  8
1
  6
solid
 62
     7
100
AcDbLine
 10
1.089248653870741
 20
-0.288876148078133
 30
0.0
 11
1.118303537591673
 21
-0.288876148078133
 31
0.0
  0
LINE
  5
53
330
A
100
AcDbEntity
  8
1
  6
solid
 62
     7
100
AcDbLine
 10
1.118303537591673
 20
-0.288876148078133
 30
0.0
 11
1.142551444568417
 21
-0.3260417294734819
 31
0.0
  0
LINE
  5
54
330
A
100
AcDbEntity
  8
1
  6
solid
 62
     7
100
AcDbLine
 10
1.142551444568417
 20
-0.3260417294734819
 30
0.0
 11
1.166283537591672
 21
-0.288876148078133
 31
0.0
  0
LINE
  5
55
330
A
100
AcDbEntity
  8
1
  6
solid
 62
     7
100
AcDbLine
 10
1.166283537591672
 20
-0.288876148078133
 30
0.0
 11
1.195353305033532
 21
-0.288876148078133
 31
0.0
  0
LINE
  5
56
330
A
100
AcDbEntity
  8
1
  6
solid
 62
     7
100
AcDbLine
 10
1.195353305033532
 20
-0.288876148078133
 30
0.0
 11
1.157086328289347
 21
-0.3481863806362725
 31
0.0
  0
LINE
  5
57
330
A
100
AcDbEntity
  8
1
  6
solid
 62
     7
100
AcDbLine
 10
1.157086328289347
 20
-0.3481863806362725
 30
0.0
 11
1.199713770149811
 21
-0.413876148078133
 31
0.0
  0
LINE
  5
58
330
A
100
AcDbEntity
  8
1
  6
solid
 62
     7
100
AcDbLine
 10
1.199713770149811
 20
-0.413876148078133
 30
0.0
 11
1.170644002707952
 21
-0.413876148078133
 31
0.0
  0
LINE
  5
59
330
A
100
AcDbEntity
  8
1
  6
solid
 62
     7
100
AcDbLine
 10
1.170644002707952
 20
-0.413876148078133
 30
0.0
 11
1.142551444568417
 21
-0.3708170783106912
 31
0.0
  0
LINE
  5
5A
330
A
100
AcDbEntity
  8
1
  6
solid
 62
     7
100
AcDbLine
 10
1.142551444568417
 20
-0.3708170783106912
 30
0.0
 11
1.113943072475394
 21
-0.413876148078133
 31
0.0
  0
LINE
  5
5B
330
A
100
AcDbEntity
  8
1
  6
solid
 62
     7
100
AcDbLine
 10
1.084888188754463
 20
-0.413876148078133
 30
0.0
 11
1.113943072475394
 21
-0.413876148078133
 31
0.0
  0
LINE
  5
5C
330
A
100
AcDbEntity
  8
1
  6
solid
 62
     7
100
AcDbLine
 10
1.323866328289347
 20
-0.3229710317990632
 30
0.0
 11
1.299157025963765
 21
-0.3252133573804586
 31
0.0
  0
SPLINE
  5
5D
330
A
100
AcDbEntity
  8
1
  6
solid
 62
     7
100
AcDbSpline
210
0.0
220
0.0
230
1.0
 70
     8
 71
     2
 72
     7
 73
     4
 74
     0
 42
0.0000000001
 43
0.0000000001
 40
0.0
 40
0.0
 40
0.0
 40
1.0
 40
2.0
 40
2.0
 40
2.0
 10
1.299157025963765
 20
-0.3252133573804586
 30
0.0
 10
1.298105398056788
 20
-0.3178268457525516
 30
0.0
 10
1.291016560847487
 20
-0.3106784736595283
 30
0.0
 10
1.285351444568417
 20
-0.3106784736595283
 30
0.0
  0
SPLINE
  5
5E
330
A
100
AcDbEntity
  8
1
  6
solid
 62
     7
100
AcDbSpline
210
0.0
220
0.0
230
1.0
 70
     8
 71
     2
 72
     7
 73
     4
 74
     0
 42
0.0000000001
 43
0.0000000001
 40
0.0
 40
0.0
 40
0.0
 40
1.0
 40
2.0
 40
2.0
 40
2.0
 10
1.285351444568417
 20
-0.3106784736595283
 30
0.0
 10
1.277994700382369
 20
-0.3106784736595283
 30
0.0
 10
1.267775630614929
 20
-0.3251835899385981
 30
0.0
 10
1.266396560847486
 20
-0.347769636450226
 30
0.0
  0
SPLINE
  5
5F
330
A
100
AcDbEntity
  8
1
  6
solid
 62
     7
100
AcDbSpline
210
0.0
220
0.0
230
1.0
 70
     8
 71
     2
 72
     6
 73
     3
 74
     0
 42
0.0000000001
 43
0.0000000001
 40
0.0
 40
0.0
 40
0.0
 40
1.0
 40
1.0
 40
1.0
 10
1.266396560847486
 20
-0.347769636450226
 30
0.0
 10
1.275901212010277
 20
-0.3368412643572027
 30
0.0
 10
1.28933981666144
 20
-0.3368412643572027
 30
0.0
  0
SPLINE
  5
60
330
A
100
AcDbEntity
  8
1
  6
solid
 62
     7
100
AcDbSpline
210
0.0
220
0.0
230
1.0
 70
     8
 71
     2
 72
     7
 73
     4
 74
     0
 42
0.0000000001
 43
0.0000000001
 40
0.0
 40
0.0
 40
0.0
 40
1.0
 40
2.0
 40
2.0
 40
2.0
 10
1.28933981666144
 20
-0.3368412643572027
 30
0.0
 10
1.304410514335859
 20
-0.3368412643572027
 30
0.0
 10
1.326773305033533
 20
-0.3584649852874353
 30
0.0
 10
1.326773305033533
 20
-0.3756389387758074
 30
0.0
  0
SPLINE
  5
61
330
A
100
AcDbEntity
  8
1
  6
solid
 62
     7
100
AcDbSpline
210
0.0
220
0.0
230
1.0
 70
     8
 71
     2
 72
     7
 73
     4
 74
     0
 42
0.0000000001
 43
0.0000000001
 40
0.0
 40
0.0
 40
0.0
 40
1.0
 40
2.0
 40
2.0
 40
2.0
 10
1.326773305033533
 20
-0.3756389387758074
 30
0.0
 10
1.326773305033533
 20
-0.3934975434269702
 30
0.0
 10
1.304112839917253
 20
-0.4153296364502261
 30
0.0
 10
1.286626328289347
 20
-0.4153296364502261
 30
0.0
  0
SPLINE
  5
62
330
A
100
AcDbEntity
  8
1
  6
solid
 62
     7
100
AcDbSpline
210
0.0
220
0.0
230
1.0
 70
     8
 71
     2
 72
     7
 73
     4
 74
     0
 42
0.0000000001
 43
0.0000000001
 40
0.0
 40
0.0
 40
0.0
 40
1.0
 40
2.0
 40
2.0
 40
2.0
 10
1.286626328289347
 20
-0.4153296364502261
 30
0.0
 10
1.267805398056788
 20
-0.4153296364502261
 30
0.0
 10
1.24392446782423
 20
-0.3862152178455749
 30
0.0
 10
1.24392446782423
 20
-0.3534347527292958
 30
0.0
  0
SPLINE
  5
63
330
A
100
AcDbEntity
  8
1
  6
solid
 62
     7
100
AcDbSpline
210
0.0
220
0.0
230
1.0
 70
     8
 71
     2
 72
     7
 73
     4
 74
     0
 42
0.0000000001
 43
0.0000000001
 40
0.0
 40
0.0
 40
0.0
 40
1.0
 40
2.0
 40
2.0
 40
2.0
 10
1.24392446782423
 20
-0.3534347527292958
 30
0.0
 10
1.24392446782423
 20
-0.3191017294734818
 30
0.0
 10
1.268842142242835
 20
-0.288876148078133
 30
0.0
 10
1.288451909684696
 20
-0.288876148078133
 30
0.0
  0
SPLINE
  5
64
330
A
100
AcDbEntity
  8
1
  6
solid
 62
     7
100
AcDbSpline
210
0.0
220
0.0
230
1.0
 70
     8
 71
     2
 72
     7
 73
     4
 74
     0
 42
0.0000000001
 43
0.0000000001
 40
0.0
 40
0.0
 40
0.0
 40
1.0
 40
2.0
 40
2.0
 40
2.0
 10
1.288451909684696
 20
-0.288876148078133
 30
0.0
 10
1.302644467824231
 20
-0.288876148078133
 30
0.0
 10
1.321212374800974
 20
-0.3061989387758074
 30
0.0
 10
1.323866328289347
 20
-0.3229710317990632
 30
0.0
  0
SPLINE
  5
65
330
A
100
AcDbEntity
  8
1
  6
solid
 62
     7
100
AcDbSpline
210
0.0
220
0.0
230
1.0
 70
     8
 71
     2
 72
     7
 73
     4
 74
     0
 42
0.0000000001
 43
0.0000000001
 40
0.0
 40
0.0
 40
0.0
 40
1.0
 40
2.0
 40
2.0
 40
2.0
 10
1.268633770149812
 20
-0.3753412643572028
 30
0.0
 10
1.268633770149812
 20
-0.3841812643572028
 30
0.0
 10
1.27923981666144
 20
-0.3935273108688307
 30
0.0
 10
1.286298886428882
 20
-0.3935273108688307
 30
0.0
  0
SPLINE
  5
66
330
A
100
AcDbEntity
  8
1
  6
solid
 62
     7
100
AcDbSpline
210
0.0
220
0.0
230
1.0
 70
     8
 71
     2
 72
     7
 73
     4
 74
     0
 42
0.0000000001
 43
0.0000000001
 40
0.0
 40
0.0
 40
0.0
 40
1.0
 40
2.0
 40
2.0
 40
2.0
 10
1.286298886428882
 20
-0.3935273108688307
 30
0.0
 10
1.292693305033532
 20
-0.3935273108688307
 30
0.0
 10
1.302064002707951
 20
-0.3858282411013888
 30
0.0
 10
1.302064002707951
 20
-0.3768989387758074
 30
0.0
  0
SPLINE
  5
67
330
A
100
AcDbEntity
  8
1
  6
solid
 62
     7
100
AcDbSpline
210
0.0
220
0.0
230
1.0
 70
     8
 71
     2
 72
     7
 73
     4
 74
     0
 42
0.0000000001
 43
0.0000000001
 40
0.0
 40
0.0
 40
0.0
 40
1.0
 40
2.0
 40
2.0
 40
2.0
 10
1.302064002707951
 20
-0.3768989387758074
 30
0.0
 10
1.302064002707951
 20
-0.3673049852874353
 30
0.0
 10
1.292246793405626
 20
-0.3586435899385981
 30
0.0
 10
1.285009118987022
 20
-0.3586435899385981
 30
0.0
  0
SPLINE
  5
68
330
A
100
AcDbEntity
  8
1
  6
solid
 62
     7
100
AcDbSpline
210
0.0
220
0.0
230
1.0
 70
     8
 71
     2
 72
     7
 73
     4
 74
     0
 42
0.0000000001
 43
0.0000000001
 40
0.0
 40
0.0
 40
0.0
 40
1.0
 40
2.0
 40
2.0
 40
2.0
 10
1.285009118987022
 20
-0.3586435899385981
 30
0.0
 10
1.27795004921958
 20
-0.3586435899385981
 30
0.0
 10
1.268633770149812
 20
-0.3670519620316214
 30
0.0
 10
1.268633770149812
 20
-0.3753412643572028
 30
0.0
  0
LINE
  5
69
330
A
100
AcDbEntity
  8
1
  6
solid
 62
     7
100
AcDbLine
 10
1.347663305033532
 20
-0.3804459155199935
 30
0.0
 11
1.347663305033532
 21
-0.3586435899385981
 31
0.0
  0
LINE
  5
6A
330
A
100
AcDbEntity
  8
1
  6
solid
 62
     7
100
AcDbLine
 10
1.347663305033532
 20
-0.3586435899385981
 30
0.0
 11
1.395628421312602
 21
-0.3586435899385981
 31
0.0
  0
LINE
  5
6B
330
A
100
AcDbEntity
  8
1
  6
solid
 62
     7
100
AcDbLine
 10
1.395628421312602
 20
-0.3586435899385981
 30
0.0
 11
1.395628421312602
 21
-0.3804459155199935
 31
0.0
  0
LINE
  5
6C
330
A
100
AcDbEntity
  8
1
  6
solid
 62
     7
100
AcDbLine
 10
1.347663305033532
 20
-0.3804459155199935
 30
0.0
 11
1.395628421312602
 21
-0.3804459155199935
 31
0.0
  0
LINE
  5
6D
330
A
100
AcDbEntity
  8
1
  6
solid
 62
     7
100
AcDbLine
 10
1.416518421312602
 20
-0.3775389387758074
 30
0.0
 11
1.441227723638184
 21
-0.3746319620316214
 31
0.0
  0
SPLINE
  5
6E
330
A
100
AcDbEntity
  8
1
  6
solid
 62
     7
100
AcDbSpline
210
0.0
220
0.0
230
1.0
 70
     8
 71
     2
 72
     7
 73
     4
 74
     0
 42
0.0000000001
 43
0.0000000001
 40
0.0
 40
0.0
 40
0.0
 40
1.0
 40
2.0
 40
2.0
 40
2.0
 10
1.441227723638184
 20
-0.3746319620316214
 30
0.0
 10
1.441912374800975
 20
-0.3841514969153423
 30
0.0
 10
1.451461677126556
 20
-0.3935273108688307
 30
0.0
 10
1.457751909684696
 20
-0.3935273108688307
 30
0.0
  0
SPLINE
  5
6F
330
A
100
AcDbEntity
  8
1
  6
solid
 62
     7
100
AcDbSpline
210
0.0
220
0.0
230
1.0
 70
     8
 71
     2
 72
     7
 73
     4
 74
     0
 42
0.0000000001
 43
0.0000000001
 40
0.0
 40
0.0
 40
0.0
 40
1.0
 40
2.0
 40
2.0
 40
2.0
 10
1.457751909684696
 20
-0.3935273108688307
 30
0.0
 10
1.464855630614929
 20
-0.3935273108688307
 30
0.0
 10
1.474657956196324
 20
-0.3838835899385981
 30
0.0
 10
1.474657956196324
 20
-0.3752519620316214
 30
0.0
  0
SPLINE
  5
70
330
A
100
AcDbEntity
  8
1
  6
solid
 62
     7
100
AcDbSpline
210
0.0
220
0.0
230
1.0
 70
     8
 71
     2
 72
     7
 73
     4
 74
     0
 42
0.0000000001
 43
0.0000000001
 40
0.0
 40
0.0
 40
0.0
 40
1.0
 40
2.0
 40
2.0
 40
2.0
 10
1.474657956196324
 20
-0.3752519620316214
 30
0.0
 10
1.474657956196324
 20
-0.3669328922641795
 30
0.0
 10
1.465966793405625
 20
-0.3571901015665051
 30
0.0
 10
1.459384002707952
 20
-0.3571901015665051
 30
0.0
  0
SPLINE
  5
71
330
A
100
AcDbEntity
  8
1
  6
solid
 62
     7
100
AcDbSpline
210
0.0
220
0.0
230
1.0
 70
     8
 71
     2
 72
     6
 73
     3
 74
     0
 42
0.0000000001
 43
0.0000000001
 40
0.0
 40
0.0
 40
0.0
 40
1.0
 40
1.0
 40
1.0
 10
1.459384002707952
 20
-0.3571901015665051
 30
0.0
 10
1.455187258521904
 20
-0.3571901015665051
 30
0.0
 10
1.449948653870742
 20
-0.3593677759851098
 30
0.0
  0
LINE
  5
72
330
A
100
AcDbEntity
  8
1
  6
solid
 62
     7
100
AcDbLine
 10
1.449948653870742
 20
-0.3593677759851098
 30
0.0
 11
1.451893305033532
 21
-0.3382947527292957
 31
0.0
  0
SPLINE
  5
73
330
A
100
AcDbEntity
  8
1
  6
solid
 62
     7
100
AcDbSpline
210
0.0
220
0.0
230
1.0
 70
     8
 71
     2
 72
     7
 73
     4
 74
     0
 42
0.0000000001
 43
0.0000000001
 40
0.0
 40
0.0
 40
0.0
 40
1.0
 40
2.0
 40
2.0
 40
2.0
 10
1.451893305033532
 20
-0.3382947527292957
 30
0.0
 10
1.460227258521906
 20
-0.3389742876130168
 30
0.0
 10
1.468844002707951
 20
-0.330536148078133
 30
0.0
 10
1.468844002707951
 20
-0.323536613194412
 30
0.0
  0
SPLINE
  5
74
330
A
100
AcDbEntity
  8
1
  6
solid
 62
     7
100
AcDbSpline
210
0.0
220
0.0
230
1.0
 70
     8
 71
     2
 72
     7
 73
     4
 74
     0
 42
0.0000000001
 43
0.0000000001
 40
0.0
 40
0.0
 40
0.0
 40
1.0
 40
2.0
 40
2.0
 40
2.0
 10
1.468844002707951
 20
-0.323536613194412
 30
0.0
 10
1.468844002707951
 20
-0.3177226597060399
 30
0.0
 10
1.462216560847487
 20
-0.3106784736595283
 30
0.0
 10
1.457305398056788
 20
-0.3106784736595283
 30
0.0
  0
SPLINE
  5
75
330
A
100
AcDbEntity
  8
1
  6
solid
 62
     7
100
AcDbSpline
210
0.0
220
0.0
230
1.0
 70
     8
 71
     2
 72
     7
 73
     4
 74
     0
 42
0.0000000001
 43
0.0000000001
 40
0.0
 40
0.0
 40
0.0
 40
1.0
 40
2.0
 40
2.0
 40
2.0
 10
1.457305398056788
 20
-0.3106784736595283
 30
0.0
 10
1.451923072475393
 20
-0.3106784736595283
 30
0.0
 10
1.444655630614929
 20
-0.3190273108688307
 30
0.0
 10
1.444134700382369
 20
-0.3266668457525516
 30
0.0
  0
LINE
  5
76
330
A
100
AcDbEntity
  8
1
  6
solid
 62
     7
100
AcDbLine
 10
1.444134700382369
 20
-0.3266668457525516
 30
0.0
 11
1.419425398056788
 21
-0.3233133573804586
 31
0.0
  0
SPLINE
  5
77
330
A
100
AcDbEntity
  8
1
  6
solid
 62
     7
100
AcDbSpline
210
0.0
220
0.0
230
1.0
 70
     8
 71
     2
 72
     8
 73
     5
 74
     0
 42
0.0000000001
 43
0.0000000001
 40
0.0
 40
0.0
 40
0.0
 40
1.0
 40
2.0
 40
3.0
 40
3.0
 40
3.0
 10
1.419425398056788
 20
-0.3233133573804586
 30
0.0
 10
1.42139981666144
 20
-0.3115217294734818
 30
0.0
 10
1.430373770149811
 20
-0.2972101015665051
 30
0.0
 10
1.447071444568416
 20
-0.288876148078133
 30
0.0
 10
1.456700281777719
 20
-0.288876148078133
 30
0.0
  0
SPLINE
  5
78
330
A
100
AcDbEntity
  8
1
  6
solid
 62
     7
100
AcDbSpline
210
0.0
220
0.0
230
1.0
 70
     8
 71
     2
 72
     6
 73
     3
 74
     0
 42
0.0000000001
 43
0.0000000001
 40
0.0
 40
0.0
 40
0.0
 40
1.0
 40
1.0
 40
1.0
 10
1.456700281777719
 20
-0.288876148078133
 30
0.0
 10
1.474052839917254
 20
-0.288876148078133
 30
0.0
 10
1.484906793405625
 20
-0.3003105666827841
 30
0.0
  0
SPLINE
  5
79
330
A
100
AcDbEntity
  8
1
  6
solid
 62
     7
100
AcDbSpline
210
0.0
220
0.0
230
1.0
 70
     8
 71
     2
 72
     6
 73
     3
 74
     0
 42
0.0000000001
 43
0.0000000001
 40
0.0
 40
0.0
 40
0.0
 40
1.0
 40
1.0
 40
1.0
 10
1.484906793405625
 20
-0.3003105666827841
 30
0.0
 10
1.493553305033533
 20
-0.309889636450226
 30
0.0
 10
1.493553305033533
 20
-0.3215324271479004
 30
0.0
  0
SPLINE
  5
7A
330
A
100
AcDbEntity
  8
1
  6
solid
 62
     7
100
AcDbSpline
210
0.0
220
0.0
230
1.0
 70
     8
 71
     2
 72
     6
 73
     3
 74
     0
 42
0.0000000001
 43
0.0000000001
 40
0.0
 40
0.0
 40
0.0
 40
1.0
 40
1.0
 40
1.0
 10
1.493553305033533
 20
-0.3215324271479004
 30
0.0
 10
1.493553305033533
 20
-0.3379077759851097
 30
0.0
 10
1.474925863173067
 20
-0.3478738224967377
 30
0.0
  0
SPLINE
  5
7B
330
A
100
AcDbEntity
  8
1
  6
solid
 62
     7
100
AcDbSpline
210
0.0
220
0.0
230
1.0
 70
     8
 71
     2
 72
     7
 73
     4
 74
     0
 42
0.0000000001
 43
0.0000000001
 40
0.0
 40
0.0
 40
0.0
 40
1.0
 40
2.0
 40
2.0
 40
2.0
 10
1.474925863173067
 20
-0.3478738224967377
 30
0.0
 10
1.485680746893998
 20
-0.3498482411013888
 30
0.0
 10
1.499367258521905
 20
-0.3656282411013888
 30
0.0
 10
1.499367258521905
 20
-0.3768989387758074
 30
0.0
  0
SPLINE
  5
7C
330
A
100
AcDbEntity
  8
1
  6
solid
 62
     7
100
AcDbSpline
210
0.0
220
0.0
230
1.0
 70
     8
 71
     2
 72
     7
 73
     4
 74
     0
 42
0.0000000001
 43
0.0000000001
 40
0.0
 40
0.0
 40
0.0
 40
1.0
 40
2.0
 40
2.0
 40
2.0
 10
1.499367258521905
 20
-0.3768989387758074
 30
0.0
 10
1.499367258521905
 20
-0.3929617294734818
 30
0.0
 10
1.475134235266092
 20
-0.4153296364502261
 30
0.0
 10
1.457409584103301
 20
-0.4153296364502261
 30
0.0
  0
SPLINE
  5
7D
330
A
100
AcDbEntity
  8
1
  6
solid
 62
     7
100
AcDbSpline
210
0.0
220
0.0
230
1.0
 70
     8
 71
     2
 72
     7
 73
     4
 74
     0
 42
0.0000000001
 43
0.0000000001
 40
0.0
 40
0.0
 40
0.0
 40
1.0
 40
2.0
 40
2.0
 40
2.0
 10
1.457409584103301
 20
-0.4153296364502261
 30
0.0
 10
1.440310049219579
 20
-0.4153296364502261
 30
0.0
 10
1.41819516549865
 20
-0.3946235899385981
 30
0.0
 10
1.416518421312602
 20
-0.3775389387758074
 30
0.0
  0
LINE
  5
7E
330
A
100
AcDbEntity
  8
1
  6
solid
 62
     7
100
AcDbLine
 10
1.519428886428882
 20
-0.413876148078133
 30
0.0
 11
1.548513537591673
 21
-0.288876148078133
 31
0.0
  0
LINE
  5
7F
330
A
100
AcDbEntity
  8
1
  6
solid
 62
     7
100
AcDbLine
 10
1.548513537591673
 20
-0.288876148078133
 30
0.0
 11
1.568222374800974
 21
-0.288876148078133
 31
0.0
  0
LINE
  5
80
330
A
100
AcDbEntity
  8
1
  6
solid
 62
     7
100
AcDbLine
 10
1.568222374800974
 20
-0.288876148078133
 30
0.0
 11
1.539152607359115
 21
-0.413876148078133
 31
0.0
  0
LINE
  5
81
330
A
100
AcDbEntity
  8
1
  6
solid
 62
     7
100
AcDbLine
 10
1.519428886428882
 20
-0.413876148078133
 30
0.0
 11
1.539152607359115
 21
-0.413876148078133
 31
0.0
  0
SPLINE
  5
82
330
A
100
AcDbEntity
  8
1
  6
solid
 62
     7
100
AcDbSpline
210
0.0
220
0.0
230
1.0
 70
     8
 71
     2
 72
     7
 73
     4
 74
     0
 42
0.0000000001
 43
0.0000000001
 40
0.0
 40
0.0
 40
0.0
 40
1.0
 40
2.0
 40
2.0
 40
2.0
 10
1.61091470038237
 20
-0.347576148078133
 30
0.0
 10
1.600918886428881
 20
-0.3434984736595283
 30
0.0
 10
1.592019351545161
 20
-0.3294696364502259
 30
0.0
 10
1.592019351545161
 20
-0.3215770783106912
 30
0.0
  0
SPLINE
  5
83
330
A
100
AcDbEntity
  8
1
  6
solid
 62
     7
100
AcDbSpline
210
0.0
220
0.0
230
1.0
 70
     8
 71
     2
 72
     7
 73
     4
 74
     0
 42
0.0000000001
 43
0.0000000001
 40
0.0
 40
0.0
 40
0.0
 40
1.0
 40
2.0
 40
2.0
 40
2.0
 10
1.592019351545161
 20
-0.3215770783106912
 30
0.0
 10
1.592019351545161
 20
-0.3073845201711562
 30
0.0
 10
1.611673770149812
 20
-0.288876148078133
 30
0.0
 10
1.630286328289348
 20
-0.288876148078133
 30
0.0
  0
SPLINE
  5
84
330
A
100
AcDbEntity
  8
1
  6
solid
 62
     7
100
AcDbSpline
210
0.0
220
0.0
230
1.0
 70
     8
 71
     2
 72
     7
 73
     4
 74
     0
 42
0.0000000001
 43
0.0000000001
 40
0.0
 40
0.0
 40
0.0
 40
1.0
 40
2.0
 40
2.0
 40
2.0
 10
1.630286328289348
 20
-0.288876148078133
 30
0.0
 10
1.648794700382371
 20
-0.288876148078133
 30
0.0
 10
1.669054235266091
 20
-0.3073845201711562
 30
0.0
 10
1.669054235266091
 20
-0.3215770783106912
 30
0.0
  0
SPLINE
  5
85
330
A
100
AcDbEntity
  8
1
  6
solid
 62
     7
100
AcDbSpline
210
0.0
220
0.0
230
1.0
 70
     8
 71
     2
 72
     7
 73
     4
 74
     0
 42
0.0000000001
 43
0.0000000001
 40
0.0
 40
0.0
 40
0.0
 40
1.0
 40
2.0
 40
2.0
 40
2.0
 10
1.669054235266091
 20
-0.3215770783106912
 30
0.0
 10
1.669054235266091
 20
-0.3302980085432493
 30
0.0
 10
1.658998886428882
 20
-0.3437217294734818
 30
0.0
 10
1.649553770149813
 20
-0.347576148078133
 30
0.0
  0
SPLINE
  5
86
330
A
100
AcDbEntity
  8
1
  6
solid
 62
     7
100
AcDbSpline
210
0.0
220
0.0
230
1.0
 70
     8
 71
     2
 72
     7
 73
     4
 74
     0
 42
0.0000000001
 43
0.0000000001
 40
0.0
 40
0.0
 40
0.0
 40
1.0
 40
2.0
 40
2.0
 40
2.0
 10
1.649553770149813
 20
-0.347576148078133
 30
0.0
 10
1.660616095731207
 20
-0.3512570783106911
 30
0.0
 10
1.671961212010278
 20
-0.3670519620316214
 30
0.0
 10
1.671961212010278
 20
-0.3773007992409237
 30
0.0
  0
SPLINE
  5
87
330
A
100
AcDbEntity
  8
1
  6
solid
 62
     7
100
AcDbSpline
210
0.0
220
0.0
230
1.0
 70
     8
 71
     2
 72
     7
 73
     4
 74
     0
 42
0.0000000001
 43
0.0000000001
 40
0.0
 40
0.0
 40
0.0
 40
1.0
 40
2.0
 40
2.0
 40
2.0
 10
1.671961212010278
 20
-0.3773007992409237
 30
0.0
 10
1.671961212010278
 20
-0.3944152178455749
 30
0.0
 10
1.649360281777719
 20
-0.4153296364502261
 30
0.0
 10
1.630732839917254
 20
-0.4153296364502261
 30
0.0
  0
SPLINE
  5
88
330
A
100
AcDbEntity
  8
1
  6
solid
 62
     7
100
AcDbSpline
210
0.0
220
0.0
230
1.0
 70
     8
 71
     2
 72
     6
 73
     3
 74
     0
 42
0.0000000001
 43
0.0000000001
 40
0.0
 40
0.0
 40
0.0
 40
1.0
 40
1.0
 40
1.0
 10
1.630732839917254
 20
-0.4153296364502261
 30
0.0
 10
1.613955630614928
 20
-0.4153296364502261
 30
0.0
 10
1.602461677126556
 20
-0.4065789387758075
 30
0.0
  0
SPLINE
  5
89
330
A
100
AcDbEntity
  8
1
  6
solid
 62
     7
100
AcDbSpline
210
0.0
220
0.0
230
1.0
 70
     8
 71
     2
 72
     6
 73
     3
 74
     0
 42
0.0000000001
 43
0.0000000001
 40
0.0
 40
0.0
 40
0.0
 40
1.0
 40
1.0
 40
1.0
 10
1.602461677126556
 20
-0.4065789387758075
 30
0.0
 10
1.589112374800975
 20
-0.3962854504037144
 30
0.0
 10
1.589112374800975
 20
-0.3784566131944121
 30
0.0
  0
SPLINE
  5
8A
330
A
100
AcDbEntity
  8
1
  6
solid
 62
     7
100
AcDbSpline
210
0.0
220
0.0
230
1.0
 70
     8
 71
     2
 72
     7
 73
     4
 74
     0
 42
0.0000000001
 43
0.0000000001
 40
0.0
 40
0.0
 40
0.0
 40
1.0
 40
2.0
 40
2.0
 40
2.0
 10
1.589112374800975
 20
-0.3784566131944121
 30
0.0
 10
1.589112374800975
 20
-0.3684310317990632
 30
0.0
 10
1.59949516549865
 20
-0.3520407992409237
 30
0.0
 10
1.61091470038237
 20
-0.347576148078133
 30
0.0
  0
SPLINE
  5
8B
330
A
100
AcDbEntity
  8
1
  6
solid
 62
     7
100
AcDbSpline
210
0.0
220
0.0
230
1.0
 70
     8
 71
     2
 72
     7
 73
     4
 74
     0
 42
0.0000000001
 43
0.0000000001
 40
0.0
 40
0.0
 40
0.0
 40
1.0
 40
2.0
 40
2.0
 40
2.0
 10
1.616728653870743
 20
-0.3231942876130167
 30
0.0
 10
1.616728653870743
 20
-0.3304617294734818
 30
0.0
 10
1.624144932940509
 20
-0.3382947527292957
 30
0.0
 10
1.630241677126557
 20
-0.3382947527292957
 30
0.0
  0
SPLINE
  5
8C
330
A
100
AcDbEntity
  8
1
  6
solid
 62
     7
100
AcDbSpline
210
0.0
220
0.0
230
1.0
 70
     8
 71
     2
 72
     7
 73
     4
 74
     0
 42
0.0000000001
 43
0.0000000001
 40
0.0
 40
0.0
 40
0.0
 40
1.0
 40
2.0
 40
2.0
 40
2.0
 10
1.630241677126557
 20
-0.3382947527292957
 30
0.0
 10
1.636368188754464
 20
-0.3382947527292957
 30
0.0
 10
1.644344932940509
 20
-0.330402194589761
 30
0.0
 10
1.644344932940509
 20
-0.3231347527292958
 30
0.0
  0
SPLINE
  5
8D
330
A
100
AcDbEntity
  8
1
  6
solid
 62
     7
100
AcDbSpline
210
0.0
220
0.0
230
1.0
 70
     8
 71
     2
 72
     7
 73
     4
 74
     0
 42
0.0000000001
 43
0.0000000001
 40
0.0
 40
0.0
 40
0.0
 40
1.0
 40
2.0
 40
2.0
 40
2.0
 10
1.644344932940509
 20
-0.3231347527292958
 30
0.0
 10
1.644344932940509
 20
-0.3161649852874353
 30
0.0
 10
1.636427723638185
 20
-0.3077714969153424
 30
0.0
 10
1.630390514335859
 20
-0.3077714969153424
 30
0.0
  0
SPLINE
  5
8E
330
A
100
AcDbEntity
  8
1
  6
solid
 62
     7
100
AcDbSpline
210
0.0
220
0.0
230
1.0
 70
     8
 71
     2
 72
     7
 73
     4
 74
     0
 42
0.0000000001
 43
0.0000000001
 40
0.0
 40
0.0
 40
0.0
 40
1.0
 40
2.0
 40
2.0
 40
2.0
 10
1.630390514335859
 20
-0.3077714969153424
 30
0.0
 10
1.62420446782423
 20
-0.3077714969153424
 30
0.0
 10
1.616728653870743
 20
-0.3162245201711562
 30
0.0
 10
1.616728653870743
 20
-0.3231942876130167
 30
0.0
  0
SPLINE
  5
8F
330
A
100
AcDbEntity
  8
1
  6
solid
 62
     7
100
AcDbSpline
210
0.0
220
0.0
230
1.0
 70
     8
 71
     2
 72
     7
 73
     4
 74
     0
 42
0.0000000001
 43
0.0000000001
 40
0.0
 40
0.0
 40
0.0
 40
1.0
 40
2.0
 40
2.0
 40
2.0
 10
1.613821677126557
 20
-0.3759812643572027
 30
0.0
 10
1.613821677126557
 20
-0.3858282411013888
 30
0.0
 10
1.623197491080045
 20
-0.3964342876130167
 30
0.0
 10
1.63047981666144
 20
-0.3964342876130167
 30
0.0
  0
SPLINE
  5
90
330
A
100
AcDbEntity
  8
1
  6
solid
 62
     7
100
AcDbSpline
210
0.0
220
0.0
230
1.0
 70
     8
 71
     2
 72
     7
 73
     4
 74
     0
 42
0.0000000001
 43
0.0000000001
 40
0.0
 40
0.0
 40
0.0
 40
1.0
 40
2.0
 40
2.0
 40
2.0
 10
1.63047981666144
 20
-0.3964342876130167
 30
0.0
 10
1.637643072475394
 20
-0.3964342876130167
 30
0.0
 10
1.647251909684696
 20
-0.386096148078133
 30
0.0
 10
1.647251909684696
 20
-0.3766459155199935
 30
0.0
  0
SPLINE
  5
91
330
A
100
AcDbEntity
  8
1
  6
solid
 62
     7
100
AcDbSpline
210
0.0
220
0.0
230
1.0
 70
     8
 71
     2
 72
     7
 73
     4
 74
     0
 42
0.0000000001
 43
0.0000000001
 40
0.0
 40
0.0
 40
0.0
 40
1.0
 40
2.0
 40
2.0
 40
2.0
 10
1.647251909684696
 20
-0.3766459155199935
 30
0.0
 10
1.647251909684696
 20
-0.368029171333947
 30
0.0
 10
1.637538886428882
 20
-0.3571901015665051
 30
0.0
 10
1.630256560847487
 20
-0.3571901015665051
 30
0.0
  0
SPLINE
  5
92
330
A
100
AcDbEntity
  8
1
  6
solid
 62
     7
100
AcDbSpline
210
0.0
220
0.0
230
1.0
 70
     8
 71
     2
 72
     7
 73
     4
 74
     0
 42
0.0000000001
 43
0.0000000001
 40
0.0
 40
0.0
 40
0.0
 40
1.0
 40
2.0
 40
2.0
 40
2.0
 10
1.630256560847487
 20
-0.3571901015665051
 30
0.0
 10
1.621744002707951
 20
-0.3571901015665051
 30
0.0
 10
1.613821677126557
 20
-0.3694528922641795
 30
0.0
 10
1.613821677126557
 20
-0.3759812643572027
 30
0.0
  0
LINE
  5
AA
330
A
100
AcDbEntity
  8
0
  6
solid
 62
     7
100
AcDbLine
 10
3.728370642845924
 20
5.093762681116025
 30
0.0
 11
3.728370642845924
 21
5.099549718153062
 31
0.0
  0
SPLINE
  5
AB
330
A
100
AcDbEntity
  8
0
  6
solid
 62
     7
100
AcDbSpline
210
0.0
220
0.0
230
1.0
 70
     8
 71
     2
 72
     6
 73
     3
 74
     0
 42
0.0000000001
 43
0.0000000001
 40
0.0
 40
0.0
 40
0.0
 40
1.0
 40
1.0
 40
1.0
 10
3.728370642845924
 20
5.099549718153062
 30
0.0
 10
3.741083605808887
 20
5.099549718153062
 30
0.0
 10
3.746712618154566
 20
5.105356508276519
 30
0.0
  0
SPLINE
  5
AC
330
A
100
AcDbEntity
  8
0
  6
solid
 62
     7
100
AcDbSpline
210
0.0
220
0.0
230
1.0
 70
     8
 71
     2
 72
     7
 73
     4
 74
     0
 42
0.0000000001
 43
0.0000000001
 40
0.0
 40
0.0
 40
0.0
 40
1.0
 40
2.0
 40
2.0
 40
2.0
 10
3.746712618154566
 20
5.105356508276519
 30
0.0
 10
3.749392247784195
 20
5.108134903338247
 30
0.0
 10
3.752302124327405
 20
5.11899786630121
 30
0.0
 10
3.752302124327405
 20
5.129670088523432
 30
0.0
  0
LINE
  5
AD
330
A
100
AcDbEntity
  8
0
  6
solid
 62
     7
100
AcDbLine
 10
3.752302124327405
 20
5.129670088523432
 30
0.0
 11
3.752302124327405
 21
5.213361446548124
 31
0.0
  0
SPLINE
  5
AE
330
A
100
AcDbEntity
  8
0
  6
solid
 62
     7
100
AcDbSpline
210
0.0
220
0.0
230
1.0
 70
     8
 71
     2
 72
     7
 73
     4
 74
     0
 42
0.0000000001
 43
0.0000000001
 40
0.0
 40
0.0
 40
0.0
 40
1.0
 40
2.0
 40
2.0
 40
2.0
 10
3.752302124327405
 20
5.213361446548124
 30
0.0
 10
3.752302124327405
 20
5.224935520622198
 30
0.0
 10
3.749273729265677
 20
5.235291693461705
 30
0.0
 10
3.745731753957035
 20
5.238734903338247
 30
0.0
  0
SPLINE
  5
AF
330
A
100
AcDbEntity
  8
0
  6
solid
 62
     7
100
AcDbSpline
210
0.0
220
0.0
230
1.0
 70
     8
 71
     2
 72
     7
 73
     4
 74
     0
 42
0.0000000001
 43
0.0000000001
 40
0.0
 40
0.0
 40
0.0
 40
1.0
 40
2.0
 40
2.0
 40
2.0
 10
3.745731753957035
 20
5.238734903338247
 30
0.0
 10
3.743229902105183
 20
5.241118236671581
 30
0.0
 10
3.735928667537282
 20
5.243422557659235
 30
0.0
 10
3.728370642845924
 20
5.244265150251828
 30
0.0
  0
LINE
  5
B0
330
A
100
AcDbEntity
  8
0
  6
solid
 62
     7
100
AcDbLine
 10
3.728370642845924
 20
5.244265150251828
 30
0.0
 11
3.728370642845924
 21
5.250012681116025
 31
0.0
  0
LINE
  5
B1
330
A
100
AcDbEntity
  8
0
  6
solid
 62
     7
100
AcDbLine
 10
3.728370642845924
 20
5.250012681116025
 30
0.0
 11
3.804701507043454
 21
5.250012681116025
 31
0.0
  0
LINE
  5
B2
330
A
100
AcDbEntity
  8
0
  6
solid
 62
     7
100
AcDbLine
 10
3.804701507043454
 20
5.250012681116025
 30
0.0
 11
3.804701507043454
 21
5.244363915683926
 31
0.0
  0
SPLINE
  5
B3
330
A
100
AcDbEntity
  8
0
  6
solid
 62
     7
100
AcDbSpline
210
0.0
220
0.0
230
1.0
 70
     8
 71
     2
 72
     7
 73
     4
 74
     0
 42
0.0000000001
 43
0.0000000001
 40
0.0
 40
0.0
 40
0.0
 40
1.0
 40
2.0
 40
2.0
 40
2.0
 10
3.804701507043454
 20
5.244363915683926
 30
0.0
 10
3.795530519389133
 20
5.243383051486396
 30
0.0
 10
3.789407679882961
 20
5.241296014449359
 30
0.0
 10
3.786063235438516
 20
5.238655890992569
 30
0.0
  0
SPLINE
  5
B4
330
A
100
AcDbEntity
  8
0
  6
solid
 62
     7
100
AcDbSpline
210
0.0
220
0.0
230
1.0
 70
     8
 71
     2
 72
     7
 73
     4
 74
     0
 42
0.0000000001
 43
0.0000000001
 40
0.0
 40
0.0
 40
0.0
 40
1.0
 40
2.0
 40
2.0
 40
2.0
 10
3.786063235438516
 20
5.238655890992569
 30
0.0
 10
3.783620642845924
 20
5.235587989758
 30
0.0
 10
3.78123730951259
 20
5.225034286054297
 30
0.0
 10
3.78123730951259
 20
5.212578113214791
 30
0.0
  0
LINE
  5
B5
330
A
100
AcDbEntity
  8
0
  6
solid
 62
     7
100
AcDbLine
 10
3.78123730951259
 20
5.212578113214791
 30
0.0
 11
3.78123730951259
 21
5.147794779881457
 31
0.0
  0
SPLINE
  5
B6
330
A
100
AcDbEntity
  8
0
  6
solid
 62
     7
100
AcDbSpline
210
0.0
220
0.0
230
1.0
 70
     8
 71
     2
 72
     7
 73
     4
 74
     0
 42
0.0000000001
 43
0.0000000001
 40
0.0
 40
0.0
 40
0.0
 40
1.0
 40
2.0
 40
2.0
 40
2.0
 10
3.78123730951259
 20
5.147794779881457
 30
0.0
 10
3.78123730951259
 20
5.132342928029605
 30
0.0
 10
3.782244716919997
 20
5.117641693461704
 30
0.0
 10
3.784134223092837
 20
5.113783668770346
 30
0.0
  0
SPLINE
  5
B7
330
A
100
AcDbEntity
  8
0
  6
solid
 62
     7
100
AcDbSpline
210
0.0
220
0.0
230
1.0
 70
     8
 71
     2
 72
     7
 73
     4
 74
     0
 42
0.0000000001
 43
0.0000000001
 40
0.0
 40
0.0
 40
0.0
 40
1.0
 40
2.0
 40
2.0
 40
2.0
 10
3.784134223092837
 20
5.113783668770346
 30
0.0
 10
3.788012000870615
 20
5.105830582350593
 30
0.0
 10
3.801436074944689
 20
5.099549718153062
 30
0.0
 10
3.813029902105183
 20
5.099549718153062
 30
0.0
  0
SPLINE
  5
B8
330
A
100
AcDbEntity
  8
0
  6
solid
 62
     7
100
AcDbSpline
210
0.0
220
0.0
230
1.0
 70
     8
 71
     2
 72
     7
 73
     4
 74
     0
 42
0.0000000001
 43
0.0000000001
 40
0.0
 40
0.0
 40
0.0
 40
1.0
 40
2.0
 40
2.0
 40
2.0
 10
3.813029902105183
 20
5.099549718153062
 30
0.0
 10
3.82623669222864
 20
5.099549718153062
 30
0.0
 10
3.84365706259901
 20
5.105988607041951
 30
0.0
 10
3.849286074944689
 20
5.113289841609852
 30
0.0
  0
SPLINE
  5
B9
330
A
100
AcDbEntity
  8
0
  6
solid
 62
     7
100
AcDbSpline
210
0.0
220
0.0
230
1.0
 70
     8
 71
     2
 72
     7
 73
     4
 74
     0
 42
0.0000000001
 43
0.0000000001
 40
0.0
 40
0.0
 40
0.0
 40
1.0
 40
2.0
 40
2.0
 40
2.0
 10
3.849286074944689
 20
5.113289841609852
 30
0.0
 10
3.853084840376788
 20
5.117799718153063
 30
0.0
 10
3.857634223092837
 20
5.130631199634544
 30
0.0
 10
3.860563852722467
 20
5.142462063832074
 30
0.0
  0
LINE
  5
BA
330
A
100
AcDbEntity
  8
0
  6
solid
 62
     7
100
AcDbLine
 10
3.860563852722467
 20
5.142462063832074
 30
0.0
 11
3.868042865068146
 21
5.142047249017259
 31
0.0
  0
LINE
  5
BB
330
A
100
AcDbEntity
  8
0
  6
solid
 62
     7
100
AcDbLine
 10
3.868042865068146
 20
5.142047249017259
 30
0.0
 11
3.868042865068146
 21
5.093762681116025
 31
0.0
  0
LINE
  5
BC
330
A
100
AcDbEntity
  8
0
  6
solid
 62
     7
100
AcDbLine
 10
3.728370642845924
 20
5.093762681116025
 30
0.0
 11
3.868042865068146
 21
5.093762681116025
 31
0.0
  0
SPLINE
  5
BD
330
A
100
AcDbEntity
  8
0
  6
solid
 62
     7
100
AcDbSpline
210
0.0
220
0.0
230
1.0
 70
     8
 71
     2
 72
     7
 73
     4
 74
     0
 42
0.0000000001
 43
0.0000000001
 40
0.0
 40
0.0
 40
0.0
 40
1.0
 40
2.0
 40
2.0
 40
2.0
 10
3.879319531734812
 20
5.098805890992569
 30
0.0
 10
3.887858420623701
 20
5.09972749593084
 30
0.0
 10
3.894494840376788
 20
5.102150335437013
 30
0.0
 10
3.897661507043455
 20
5.105415767535778
 30
0.0
  0
SPLINE
  5
BE
330
A
100
AcDbEntity
  8
0
  6
solid
 62
     7
100
AcDbSpline
210
0.0
220
0.0
230
1.0
 70
     8
 71
     2
 72
     7
 73
     4
 74
     0
 42
0.0000000001
 43
0.0000000001
 40
0.0
 40
0.0
 40
0.0
 40
1.0
 40
2.0
 40
2.0
 40
2.0
 10
3.897661507043455
 20
5.105415767535778
 30
0.0
 10
3.900341136673084
 20
5.108213915683927
 30
0.0
 10
3.903251013216294
 20
5.11905712556047
 30
0.0
 10
3.903251013216294
 20
5.129729347782692
 30
0.0
  0
LINE
  5
BF
330
A
100
AcDbEntity
  8
0
  6
solid
 62
     7
100
AcDbLine
 10
3.903251013216294
 20
5.129729347782692
 30
0.0
 11
3.903251013216294
 21
5.213381199634544
 31
0.0
  0
SPLINE
  5
C0
330
A
100
AcDbEntity
  8
0
  6
solid
 62
     7
100
AcDbSpline
210
0.0
220
0.0
230
1.0
 70
     8
 71
     2
 72
     7
 73
     4
 74
     0
 42
0.0000000001
 43
0.0000000001
 40
0.0
 40
0.0
 40
0.0
 40
1.0
 40
2.0
 40
2.0
 40
2.0
 10
3.903251013216294
 20
5.213381199634544
 30
0.0
 10
3.903251013216294
 20
5.225310829264174
 30
0.0
 10
3.900104099636047
 20
5.23562749593084
 30
0.0
 10
3.896226321858269
 20
5.239129965066642
 30
0.0
  0
SPLINE
  5
C1
330
A
100
AcDbEntity
  8
0
  6
solid
 62
     7
100
AcDbSpline
210
0.0
220
0.0
230
1.0
 70
     8
 71
     2
 72
     6
 73
     3
 74
     0
 42
0.0000000001
 43
0.0000000001
 40
0.0
 40
0.0
 40
0.0
 40
1.0
 40
1.0
 40
1.0
 10
3.896226321858269
 20
5.239129965066642
 30
0.0
 10
3.890992371240985
 20
5.243205273708618
 30
0.0
 10
3.879319531734812
 20
5.244284903338248
 30
0.0
  0
LINE
  5
C2
330
A
100
AcDbEntity
  8
0
  6
solid
 62
     7
100
AcDbLine
 10
3.879319531734812
 20
5.244284903338248
 30
0.0
 11
3.879319531734812
 21
5.250012681116025
 31
0.0
  0
LINE
  5
C3
330
A
100
AcDbEntity
  8
0
  6
solid
 62
     7
100
AcDbLine
 10
3.879319531734812
 20
5.250012681116025
 30
0.0
 11
3.942325087290368
 21
5.250012681116025
 31
0.0
  0
SPLINE
  5
C4
330
A
100
AcDbEntity
  8
0
  6
solid
 62
     7
100
AcDbSpline
210
0.0
220
0.0
230
1.0
 70
     8
 71
     2
 72
     6
 73
     3
 74
     0
 42
0.0000000001
 43
0.0000000001
 40
0.0
 40
0.0
 40
0.0
 40
1.0
 40
1.0
 40
1.0
 10
3.942325087290368
 20
5.250012681116025
 30
0.0
 10
3.96228681568543
 20
5.249328113214791
 30
0.0
 10
3.967955334203948
 20
5.249031816918495
 30
0.0
  0
SPLINE
  5
C5
330
A
100
AcDbEntity
  8
0
  6
solid
 62
     7
100
AcDbSpline
210
0.0
220
0.0
230
1.0
 70
     8
 71
     2
 72
     6
 73
     3
 74
     0
 42
0.0000000001
 43
0.0000000001
 40
0.0
 40
0.0
 40
0.0
 40
1.0
 40
1.0
 40
1.0
 10
3.967955334203948
 20
5.249031816918495
 30
0.0
 10
3.992894223092837
 20
5.247122557659235
 30
0.0
 10
4.009682494697775
 20
5.235370705807383
 30
0.0
  0
SPLINE
  5
C6
330
A
100
AcDbEntity
  8
0
  6
solid
 62
     7
100
AcDbSpline
210
0.0
220
0.0
230
1.0
 70
     8
 71
     2
 72
     7
 73
     4
 74
     0
 42
0.0000000001
 43
0.0000000001
 40
0.0
 40
0.0
 40
0.0
 40
1.0
 40
2.0
 40
2.0
 40
2.0
 10
4.009682494697775
 20
5.235370705807383
 30
0.0
 10
4.025963976179257
 20
5.223500335437013
 30
0.0
 10
4.044068914450861
 20
5.186967619387631
 30
0.0
 10
4.044068914450861
 20
5.16586700210368
 30
0.0
  0
SPLINE
  5
C7
330
A
100
AcDbEntity
  8
0
  6
solid
 62
     7
100
AcDbSpline
210
0.0
220
0.0
230
1.0
 70
     8
 71
     2
 72
     7
 73
     4
 74
     0
 42
0.0000000001
 43
0.0000000001
 40
0.0
 40
0.0
 40
0.0
 40
1.0
 40
2.0
 40
2.0
 40
2.0
 10
4.044068914450861
 20
5.16586700210368
 30
0.0
 10
4.044068914450861
 20
5.150454656424667
 30
0.0
 10
4.033581260129874
 20
5.122974409511087
 30
0.0
 10
4.023936198401479
 20
5.113072557659235
 30
0.0
  0
SPLINE
  5
C8
330
A
100
AcDbEntity
  8
0
  6
solid
 62
     7
100
AcDbSpline
210
0.0
220
0.0
230
1.0
 70
     8
 71
     2
 72
     6
 73
     3
 74
     0
 42
0.0000000001
 43
0.0000000001
 40
0.0
 40
0.0
 40
0.0
 40
1.0
 40
1.0
 40
1.0
 10
4.023936198401479
 20
5.113072557659235
 30
0.0
 10
4.011828790994072
 20
5.099964532967877
 30
0.0
 10
3.991261507043454
 20
5.096126261362939
 30
0.0
  0
SPLINE
  5
C9
330
A
100
AcDbEntity
  8
0
  6
solid
 62
     7
100
AcDbSpline
210
0.0
220
0.0
230
1.0
 70
     8
 71
     2
 72
     6
 73
     3
 74
     0
 42
0.0000000001
 43
0.0000000001
 40
0.0
 40
0.0
 40
0.0
 40
1.0
 40
1.0
 40
1.0
 10
3.991261507043454
 20
5.096126261362939
 30
0.0
 10
3.977541136673084
 20
5.093762681116025
 30
0.0
 10
3.963267679882961
 20
5.093762681116025
 30
0.0
  0
LINE
  5
CA
330
A
100
AcDbEntity
  8
0
  6
solid
 62
     7
100
AcDbLine
 10
3.963267679882961
 20
5.093762681116025
 30
0.0
 11
3.879319531734812
 21
5.093762681116025
 31
0.0
  0
LINE
  5
CB
330
A
100
AcDbEntity
  8
0
  6
solid
 62
     7
100
AcDbLine
 10
3.879319531734812
 20
5.098805890992569
 30
0.0
 11
3.879319531734812
 21
5.093762681116025
 31
0.0
  0
LINE
  5
CC
330
A
100
AcDbEntity
  8
0
  6
solid
 62
     7
100
AcDbLine
 10
3.932186198401479
 20
5.242296631733309
 30
0.0
 11
3.932186198401479
 21
5.132658977412321
 31
0.0
  0
SPLINE
  5
CD
330
A
100
AcDbEntity
  8
0
  6
solid
 62
     7
100
AcDbSpline
210
0.0
220
0.0
230
1.0
 70
     8
 71
     2
 72
     7
 73
     4
 74
     0
 42
0.0000000001
 43
0.0000000001
 40
0.0
 40
0.0
 40
0.0
 40
1.0
 40
2.0
 40
2.0
 40
2.0
 10
3.932186198401479
 20
5.132658977412321
 30
0.0
 10
3.932186198401479
 20
5.121361446548124
 30
0.0
 10
3.934451013216294
 20
5.110103421856766
 30
0.0
 10
3.936775087290368
 20
5.107463298399975
 30
0.0
  0
SPLINE
  5
CE
330
A
100
AcDbEntity
  8
0
  6
solid
 62
     7
100
AcDbSpline
210
0.0
220
0.0
230
1.0
 70
     8
 71
     2
 72
     6
 73
     3
 74
     0
 42
0.0000000001
 43
0.0000000001
 40
0.0
 40
0.0
 40
0.0
 40
1.0
 40
1.0
 40
1.0
 10
3.936775087290368
 20
5.107463298399975
 30
0.0
 10
3.943799778648393
 20
5.099549718153062
 30
0.0
 10
3.957618914450862
 20
5.099549718153062
 30
0.0
  0
SPLINE
  5
CF
330
A
100
AcDbEntity
  8
0
  6
solid
 62
     7
100
AcDbSpline
210
0.0
220
0.0
230
1.0
 70
     8
 71
     2
 72
     7
 73
     4
 74
     0
 42
0.0000000001
 43
0.0000000001
 40
0.0
 40
0.0
 40
0.0
 40
1.0
 40
2.0
 40
2.0
 40
2.0
 10
3.957618914450862
 20
5.099549718153062
 30
0.0
 10
3.971122000870615
 20
5.099549718153062
 30
0.0
 10
3.990254099636047
 20
5.10791761938763
 30
0.0
 10
3.997812124327405
 20
5.117661446548124
 30
0.0
  0
SPLINE
  5
D0
330
A
100
AcDbEntity
  8
0
  6
solid
 62
     7
100
AcDbSpline
210
0.0
220
0.0
230
1.0
 70
     8
 71
     2
 72
     7
 73
     4
 74
     0
 42
0.0000000001
 43
0.0000000001
 40
0.0
 40
0.0
 40
0.0
 40
1.0
 40
2.0
 40
2.0
 40
2.0
 10
3.997812124327405
 20
5.117661446548124
 30
0.0
 10
4.004705334203948
 20
5.127286755190099
 30
0.0
 10
4.013204716919998
 20
5.152265150251827
 30
0.0
 10
4.013204716919998
 20
5.166064532967877
 30
0.0
  0
SPLINE
  5
D1
330
A
100
AcDbEntity
  8
0
  6
solid
 62
     7
100
AcDbSpline
210
0.0
220
0.0
230
1.0
 70
     8
 71
     2
 72
     7
 73
     4
 74
     0
 42
0.0000000001
 43
0.0000000001
 40
0.0
 40
0.0
 40
0.0
 40
1.0
 40
2.0
 40
2.0
 40
2.0
 10
4.013204716919998
 20
5.166064532967877
 30
0.0
 10
4.013204716919998
 20
5.181575644078988
 30
0.0
 10
4.003638667537281
 20
5.20995774284442
 30
0.0
 10
3.99452693914222
 20
5.220136137906148
 30
0.0
  0
SPLINE
  5
D2
330
A
100
AcDbEntity
  8
0
  6
solid
 62
     7
100
AcDbSpline
210
0.0
220
0.0
230
1.0
 70
     8
 71
     2
 72
     6
 73
     3
 74
     0
 42
0.0000000001
 43
0.0000000001
 40
0.0
 40
0.0
 40
0.0
 40
1.0
 40
1.0
 40
1.0
 10
3.99452693914222
 20
5.220136137906148
 30
0.0
 10
3.982538050253331
 20
5.234936137906148
 30
0.0
 10
3.965512741611356
 20
5.23930774284442
 30
0.0
  0
SPLINE
  5
D3
330
A
100
AcDbEntity
  8
0
  6
solid
 62
     7
100
AcDbSpline
210
0.0
220
0.0
230
1.0
 70
     8
 71
     2
 72
     6
 73
     3
 74
     0
 42
0.0000000001
 43
0.0000000001
 40
0.0
 40
0.0
 40
0.0
 40
1.0
 40
1.0
 40
1.0
 10
3.965512741611356
 20
5.23930774284442
 30
0.0
 10
3.956065210747158
 20
5.242296631733309
 30
0.0
 10
3.941969531734812
 20
5.242296631733309
 30
0.0
  0
LINE
  5
D4
330
A
100
AcDbEntity
  8
0
  6
solid
 62
     7
100
AcDbLine
 10
3.932186198401479
 20
5.242296631733309
 30
0.0
 11
3.941969531734812
 21
5.242296631733309
 31
0.0
  0
SPLINE
  5
D5
330
A
100
AcDbEntity
  8
0
  6
solid
 62
     7
100
AcDbSpline
210
0.0
220
0.0
230
1.0
 70
     8
 71
     2
 72
     6
 73
     3
 74
     0
 42
0.0000000001
 43
0.0000000001
 40
0.0
 40
0.0
 40
0.0
 40
1.0
 40
1.0
 40
1.0
 10
4.122544963833578
 20
5.175808360128371
 30
0.0
 10
4.15836656877185
 20
5.167796014449359
 30
0.0
 10
4.15836656877185
 20
5.138742310745655
 30
0.0
  0
SPLINE
  5
D6
330
A
100
AcDbEntity
  8
0
  6
solid
 62
     7
100
AcDbSpline
210
0.0
220
0.0
230
1.0
 70
     8
 71
     2
 72
     6
 73
     3
 74
     0
 42
0.0000000001
 43
0.0000000001
 40
0.0
 40
0.0
 40
0.0
 40
1.0
 40
1.0
 40
1.0
 10
4.15836656877185
 20
5.138742310745655
 30
0.0
 10
4.15836656877185
 20
5.129037989758001
 30
0.0
 10
4.153251136673085
 20
5.119333668770346
 30
0.0
  0
SPLINE
  5
D7
330
A
100
AcDbEntity
  8
0
  6
solid
 62
     7
100
AcDbSpline
210
0.0
220
0.0
230
1.0
 70
     8
 71
     2
 72
     7
 73
     4
 74
     0
 42
0.0000000001
 43
0.0000000001
 40
0.0
 40
0.0
 40
0.0
 40
1.0
 40
2.0
 40
2.0
 40
2.0
 10
4.153251136673085
 20
5.119333668770346
 30
0.0
 10
4.147227062599011
 20
5.106442928029605
 30
0.0
 10
4.118884470006418
 20
5.091833668770346
 30
0.0
 10
4.100812247784196
 20
5.091833668770346
 30
0.0
  0
SPLINE
  5
D8
330
A
100
AcDbEntity
  8
0
  6
solid
 62
     7
100
AcDbSpline
210
0.0
220
0.0
230
1.0
 70
     8
 71
     2
 72
     7
 73
     4
 74
     0
 42
0.0000000001
 43
0.0000000001
 40
0.0
 40
0.0
 40
0.0
 40
1.0
 40
2.0
 40
2.0
 40
2.0
 10
4.100812247784196
 20
5.091833668770346
 30
0.0
 10
4.089870272475554
 20
5.091833668770346
 30
0.0
 10
4.071738790994072
 20
5.097758977412322
 30
0.0
 10
4.065912247784195
 20
5.102565150251828
 30
0.0
  0
SPLINE
  5
D9
330
A
100
AcDbEntity
  8
0
  6
solid
 62
     7
100
AcDbSpline
210
0.0
220
0.0
230
1.0
 70
     8
 71
     2
 72
     7
 73
     4
 74
     0
 42
0.0000000001
 43
0.0000000001
 40
0.0
 40
0.0
 40
0.0
 40
1.0
 40
2.0
 40
2.0
 40
2.0
 10
4.065912247784195
 20
5.102565150251828
 30
0.0
 10
4.060875828031109
 20
5.107325026795037
 30
0.0
 10
4.056128914450862
 20
5.118879347782692
 30
0.0
 10
4.056128914450862
 20
5.124804656424667
 30
0.0
  0
SPLINE
  5
DA
330
A
100
AcDbEntity
  8
0
  6
solid
 62
     7
100
AcDbSpline
210
0.0
220
0.0
230
1.0
 70
     8
 71
     2
 72
     7
 73
     4
 74
     0
 42
0.0000000001
 43
0.0000000001
 40
0.0
 40
0.0
 40
0.0
 40
1.0
 40
2.0
 40
2.0
 40
2.0
 10
4.056128914450862
 20
5.124804656424667
 30
0.0
 10
4.056128914450862
 20
5.134923792227136
 30
0.0
 10
4.070145581117529
 20
5.149704039140717
 30
0.0
 10
4.08380669222864
 20
5.149704039140717
 30
0.0
  0
LINE
  5
DB
330
A
100
AcDbEntity
  8
0
  6
solid
 62
     7
100
AcDbLine
 10
4.08380669222864
 20
5.149704039140717
 30
0.0
 11
4.085064099636047
 21
5.144904656424667
 31
0.0
  0
SPLINE
  5
DC
330
A
100
AcDbEntity
  8
0
  6
solid
 62
     7
100
AcDbSpline
210
0.0
220
0.0
230
1.0
 70
     8
 71
     2
 72
     7
 73
     4
 74
     0
 42
0.0000000001
 43
0.0000000001
 40
0.0
 40
0.0
 40
0.0
 40
1.0
 40
2.0
 40
2.0
 40
2.0
 10
4.085064099636047
 20
5.144904656424667
 30
0.0
 10
4.079435087290368
 20
5.140552804572815
 30
0.0
 10
4.075419037907653
 20
5.132342928029605
 30
0.0
 10
4.075419037907653
 20
5.125436755190099
 30
0.0
  0
SPLINE
  5
DD
330
A
100
AcDbEntity
  8
0
  6
solid
 62
     7
100
AcDbSpline
210
0.0
220
0.0
230
1.0
 70
     8
 71
     2
 72
     6
 73
     3
 74
     0
 42
0.0000000001
 43
0.0000000001
 40
0.0
 40
0.0
 40
0.0
 40
1.0
 40
1.0
 40
1.0
 10
4.075419037907653
 20
5.125436755190099
 30
0.0
 10
4.075419037907653
 20
5.115752187288864
 30
0.0
 10
4.079869655191603
 20
5.109313298399976
 30
0.0
  0
SPLINE
  5
DE
330
A
100
AcDbEntity
  8
0
  6
solid
 62
     7
100
AcDbSpline
210
0.0
220
0.0
230
1.0
 70
     8
 71
     2
 72
     7
 73
     4
 74
     0
 42
0.0000000001
 43
0.0000000001
 40
0.0
 40
0.0
 40
0.0
 40
1.0
 40
2.0
 40
2.0
 40
2.0
 10
4.079869655191603
 20
5.109313298399976
 30
0.0
 10
4.083964716919998
 20
5.102584903338247
 30
0.0
 10
4.095222741611356
 20
5.097620705807384
 30
0.0
 10
4.101404840376789
 20
5.097620705807384
 30
0.0
  0
SPLINE
  5
DF
330
A
100
AcDbEntity
  8
0
  6
solid
 62
     7
100
AcDbSpline
210
0.0
220
0.0
230
1.0
 70
     8
 71
     2
 72
     6
 73
     3
 74
     0
 42
0.0000000001
 43
0.0000000001
 40
0.0
 40
0.0
 40
0.0
 40
1.0
 40
1.0
 40
1.0
 10
4.101404840376789
 20
5.097620705807384
 30
0.0
 10
4.115928297166911
 20
5.097620705807384
 30
0.0
 10
4.124098667537282
 20
5.108095397165408
 30
0.0
  0
SPLINE
  5
E0
330
A
100
AcDbEntity
  8
0
  6
solid
 62
     7
100
AcDbSpline
210
0.0
220
0.0
230
1.0
 70
     8
 71
     2
 72
     7
 73
     4
 74
     0
 42
0.0000000001
 43
0.0000000001
 40
0.0
 40
0.0
 40
0.0
 40
1.0
 40
2.0
 40
2.0
 40
2.0
 10
4.124098667537282
 20
5.108095397165408
 30
0.0
 10
4.128154223092837
 20
5.113605890992569
 30
0.0
 10
4.133289408278023
 20
5.128741693461704
 30
0.0
 10
4.133289408278023
 20
5.136398483585161
 30
0.0
  0
SPLINE
  5
E1
330
A
100
AcDbEntity
  8
0
  6
solid
 62
     7
100
AcDbSpline
210
0.0
220
0.0
230
1.0
 70
     8
 71
     2
 72
     7
 73
     4
 74
     0
 42
0.0000000001
 43
0.0000000001
 40
0.0
 40
0.0
 40
0.0
 40
1.0
 40
2.0
 40
2.0
 40
2.0
 10
4.133289408278023
 20
5.136398483585161
 30
0.0
 10
4.133289408278023
 20
5.144608360128371
 30
0.0
 10
4.126778297166912
 20
5.160514532967877
 30
0.0
 10
4.12238693914222
 20
5.165471940375285
 30
0.0
  0
SPLINE
  5
E2
330
A
100
AcDbEntity
  8
0
  6
solid
 62
     7
100
AcDbSpline
210
0.0
220
0.0
230
1.0
 70
     8
 71
     2
 72
     6
 73
     3
 74
     0
 42
0.0000000001
 43
0.0000000001
 40
0.0
 40
0.0
 40
0.0
 40
1.0
 40
1.0
 40
1.0
 10
4.12238693914222
 20
5.165471940375285
 30
0.0
 10
4.116817186055801
 20
5.170923174943186
 30
0.0
 10
4.110753605808887
 20
5.170923174943186
 30
0.0
  0
SPLINE
  5
E3
330
A
100
AcDbEntity
  8
0
  6
solid
 62
     7
100
AcDbSpline
210
0.0
220
0.0
230
1.0
 70
     8
 71
     2
 72
     7
 73
     4
 74
     0
 42
0.0000000001
 43
0.0000000001
 40
0.0
 40
0.0
 40
0.0
 40
1.0
 40
2.0
 40
2.0
 40
2.0
 10
4.110753605808887
 20
5.170923174943186
 30
0.0
 10
4.110200519389134
 20
5.170923174943186
 30
0.0
 10
4.107428914450863
 20
5.169685520622198
 30
0.0
 10
4.104611013216294
 20
5.167440458893803
 30
0.0
  0
SPLINE
  5
E4
330
A
100
AcDbEntity
  8
0
  6
solid
 62
     7
100
AcDbSpline
210
0.0
220
0.0
230
1.0
 70
     8
 71
     2
 72
     6
 73
     3
 74
     0
 42
0.0000000001
 43
0.0000000001
 40
0.0
 40
0.0
 40
0.0
 40
1.0
 40
1.0
 40
1.0
 10
4.104611013216294
 20
5.167440458893803
 30
0.0
 10
4.098567186055801
 20
5.16320712556047
 30
0.0
 10
4.09201656877185
 20
5.16320712556047
 30
0.0
  0
SPLINE
  5
E5
330
A
100
AcDbEntity
  8
0
  6
solid
 62
     7
100
AcDbSpline
210
0.0
220
0.0
230
1.0
 70
     8
 71
     2
 72
     7
 73
     4
 74
     0
 42
0.0000000001
 43
0.0000000001
 40
0.0
 40
0.0
 40
0.0
 40
1.0
 40
2.0
 40
2.0
 40
2.0
 10
4.09201656877185
 20
5.16320712556047
 30
0.0
 10
4.088099284821232
 20
5.16320712556047
 30
0.0
 10
4.083135087290369
 20
5.167519471239482
 30
0.0
 10
4.083135087290369
 20
5.171239224325902
 30
0.0
  0
SPLINE
  5
E6
330
A
100
AcDbEntity
  8
0
  6
solid
 62
     7
100
AcDbSpline
210
0.0
220
0.0
230
1.0
 70
     8
 71
     2
 72
     7
 73
     4
 74
     0
 42
0.0000000001
 43
0.0000000001
 40
0.0
 40
0.0
 40
0.0
 40
1.0
 40
2.0
 40
2.0
 40
2.0
 10
4.083135087290369
 20
5.171239224325902
 30
0.0
 10
4.083135087290369
 20
5.175275026795038
 30
0.0
 10
4.089534470006418
 20
5.180568236671581
 30
0.0
 10
4.094709161364443
 20
5.180568236671581
 30
0.0
  0
SPLINE
  5
E7
330
A
100
AcDbEntity
  8
0
  6
solid
 62
     7
100
AcDbSpline
210
0.0
220
0.0
230
1.0
 70
     8
 71
     2
 72
     6
 73
     3
 74
     0
 42
0.0000000001
 43
0.0000000001
 40
0.0
 40
0.0
 40
0.0
 40
1.0
 40
1.0
 40
1.0
 10
4.094709161364443
 20
5.180568236671581
 30
0.0
 10
4.097033235438517
 20
5.179883668770346
 30
0.0
 10
4.099100519389134
 20
5.17960712556047
 30
0.0
  0
LINE
  5
E8
330
A
100
AcDbEntity
  8
0
  6
solid
 62
     7
100
AcDbLine
 10
4.099100519389134
 20
5.17960712556047
 30
0.0
 11
4.103215334203949
 21
5.178935520622198
 31
0.0
  0
SPLINE
  5
E9
330
A
100
AcDbEntity
  8
0
  6
solid
 62
     7
100
AcDbSpline
210
0.0
220
0.0
230
1.0
 70
     8
 71
     2
 72
     6
 73
     3
 74
     0
 42
0.0000000001
 43
0.0000000001
 40
0.0
 40
0.0
 40
0.0
 40
1.0
 40
1.0
 40
1.0
 10
4.103215334203949
 20
5.178935520622198
 30
0.0
 10
4.105065334203949
 20
5.178639224325902
 30
0.0
 10
4.106777062599011
 20
5.178639224325902
 30
0.0
  0
SPLINE
  5
EA
330
A
100
AcDbEntity
  8
0
  6
solid
 62
     7
100
AcDbSpline
210
0.0
220
0.0
230
1.0
 70
     8
 71
     2
 72
     6
 73
     3
 74
     0
 42
0.0000000001
 43
0.0000000001
 40
0.0
 40
0.0
 40
0.0
 40
1.0
 40
1.0
 40
1.0
 10
4.106777062599011
 20
5.178639224325902
 30
0.0
 10
4.113235704574319
 20
5.178639224325902
 30
0.0
 10
4.120122124327406
 20
5.185058360128371
 30
0.0
  0
SPLINE
  5
EB
330
A
100
AcDbEntity
  8
0
  6
solid
 62
     7
100
AcDbSpline
210
0.0
220
0.0
230
1.0
 70
     8
 71
     2
 72
     6
 73
     3
 74
     0
 42
0.0000000001
 43
0.0000000001
 40
0.0
 40
0.0
 40
0.0
 40
1.0
 40
1.0
 40
1.0
 10
4.120122124327406
 20
5.185058360128371
 30
0.0
 10
4.129431383586664
 20
5.194703421856766
 30
0.0
 10
4.129431383586664
 20
5.210629347782692
 30
0.0
  0
SPLINE
  5
EC
330
A
100
AcDbEntity
  8
0
  6
solid
 62
     7
100
AcDbSpline
210
0.0
220
0.0
230
1.0
 70
     8
 71
     2
 72
     7
 73
     4
 74
     0
 42
0.0000000001
 43
0.0000000001
 40
0.0
 40
0.0
 40
0.0
 40
1.0
 40
2.0
 40
2.0
 40
2.0
 10
4.129431383586664
 20
5.210629347782692
 30
0.0
 10
4.129431383586664
 20
5.218444162597506
 30
0.0
 10
4.124335704574319
 20
5.233342928029605
 30
0.0
 10
4.120181383586665
 20
5.238833668770346
 30
0.0
  0
SPLINE
  5
ED
330
A
100
AcDbEntity
  8
0
  6
solid
 62
     7
100
AcDbSpline
210
0.0
220
0.0
230
1.0
 70
     8
 71
     2
 72
     6
 73
     3
 74
     0
 42
0.0000000001
 43
0.0000000001
 40
0.0
 40
0.0
 40
0.0
 40
1.0
 40
1.0
 40
1.0
 10
4.120181383586665
 20
5.238833668770346
 30
0.0
 10
4.112801136673085
 20
5.248083668770346
 30
0.0
 10
4.102662247784196
 20
5.248083668770346
 30
0.0
  0
SPLINE
  5
EE
330
A
100
AcDbEntity
  8
0
  6
solid
 62
     7
100
AcDbSpline
210
0.0
220
0.0
230
1.0
 70
     8
 71
     2
 72
     7
 73
     4
 74
     0
 42
0.0000000001
 43
0.0000000001
 40
0.0
 40
0.0
 40
0.0
 40
1.0
 40
2.0
 40
2.0
 40
2.0
 10
4.102662247784196
 20
5.248083668770346
 30
0.0
 10
4.095202988524937
 20
5.248083668770346
 30
0.0
 10
4.085064099636047
 20
5.2375367551901
 30
0.0
 10
4.085064099636047
 20
5.229010829264173
 30
0.0
  0
SPLINE
  5
EF
330
A
100
AcDbEntity
  8
0
  6
solid
 62
     7
100
AcDbSpline
210
0.0
220
0.0
230
1.0
 70
     8
 71
     2
 72
     7
 73
     4
 74
     0
 42
0.0000000001
 43
0.0000000001
 40
0.0
 40
0.0
 40
0.0
 40
1.0
 40
2.0
 40
2.0
 40
2.0
 10
4.085064099636047
 20
5.229010829264173
 30
0.0
 10
4.085064099636047
 20
5.22190712556047
 30
0.0
 10
4.089909778648393
 20
5.213697249017259
 30
0.0
 10
4.095657309512591
 20
5.211965767535779
 30
0.0
  0
LINE
  5
F0
330
A
100
AcDbEntity
  8
0
  6
solid
 62
     7
100
AcDbLine
 10
4.095657309512591
 20
5.211965767535779
 30
0.0
 11
4.096638173710122
 21
5.20806823667158
 31
0.0
  0
SPLINE
  5
F1
330
A
100
AcDbEntity
  8
0
  6
solid
 62
     7
100
AcDbSpline
210
0.0
220
0.0
230
1.0
 70
     8
 71
     2
 72
     6
 73
     3
 74
     0
 42
0.0000000001
 43
0.0000000001
 40
0.0
 40
0.0
 40
0.0
 40
1.0
 40
1.0
 40
1.0
 10
4.096638173710122
 20
5.20806823667158
 30
0.0
 10
4.089534470006418
 20
5.205645397165408
 30
0.0
 10
4.085083852722467
 20
5.205645397165408
 30
0.0
  0
SPLINE
  5
F2
330
A
100
AcDbEntity
  8
0
  6
solid
 62
     7
100
AcDbSpline
210
0.0
220
0.0
230
1.0
 70
     8
 71
     2
 72
     7
 73
     4
 74
     0
 42
0.0000000001
 43
0.0000000001
 40
0.0
 40
0.0
 40
0.0
 40
1.0
 40
2.0
 40
2.0
 40
2.0
 10
4.085083852722467
 20
5.205645397165408
 30
0.0
 10
4.076130149018764
 20
5.205645397165408
 30
0.0
 10
4.065773976179257
 20
5.215922557659235
 30
0.0
 10
4.065773976179257
 20
5.224112681116025
 30
0.0
  0
SPLINE
  5
F3
330
A
100
AcDbEntity
  8
0
  6
solid
 62
     7
100
AcDbSpline
210
0.0
220
0.0
230
1.0
 70
     8
 71
     2
 72
     7
 73
     4
 74
     0
 42
0.0000000001
 43
0.0000000001
 40
0.0
 40
0.0
 40
0.0
 40
1.0
 40
2.0
 40
2.0
 40
2.0
 10
4.065773976179257
 20
5.224112681116025
 30
0.0
 10
4.065773976179257
 20
5.236766384819729
 30
0.0
 10
4.088059778648394
 20
5.253870705807384
 30
0.0
 10
4.104472741611356
 20
5.253870705807384
 30
0.0
  0
SPLINE
  5
F4
330
A
100
AcDbEntity
  8
0
  6
solid
 62
     7
100
AcDbSpline
210
0.0
220
0.0
230
1.0
 70
     8
 71
     2
 72
     7
 73
     4
 74
     0
 42
0.0000000001
 43
0.0000000001
 40
0.0
 40
0.0
 40
0.0
 40
1.0
 40
2.0
 40
2.0
 40
2.0
 10
4.104472741611356
 20
5.253870705807384
 30
0.0
 10
4.114414099636047
 20
5.253870705807384
 30
0.0
 10
4.133368420623702
 20
5.246905273708618
 30
0.0
 10
4.139214716919998
 20
5.241454039140717
 30
0.0
  0
SPLINE
  5
F5
330
A
100
AcDbEntity
  8
0
  6
solid
 62
     7
100
AcDbSpline
210
0.0
220
0.0
230
1.0
 70
     8
 71
     2
 72
     7
 73
     4
 74
     0
 42
0.0000000001
 43
0.0000000001
 40
0.0
 40
0.0
 40
0.0
 40
1.0
 40
2.0
 40
2.0
 40
2.0
 10
4.139214716919998
 20
5.241454039140717
 30
0.0
 10
4.145712865068146
 20
5.235410211980223
 30
0.0
 10
4.152579531734813
 20
5.221176261362939
 30
0.0
 10
4.152579531734813
 20
5.213361446548124
 30
0.0
  0
SPLINE
  5
F6
330
A
100
AcDbEntity
  8
0
  6
solid
 62
     7
100
AcDbSpline
210
0.0
220
0.0
230
1.0
 70
     8
 71
     2
 72
     6
 73
     3
 74
     0
 42
0.0000000001
 43
0.0000000001
 40
0.0
 40
0.0
 40
0.0
 40
1.0
 40
1.0
 40
1.0
 10
4.152579531734813
 20
5.213361446548124
 30
0.0
 10
4.152579531734813
 20
5.196158360128371
 30
0.0
 10
4.13805607494469
 20
5.183583668770346
 30
0.0
  0
SPLINE
  5
F7
330
A
100
AcDbEntity
  8
0
  6
solid
 62
     7
100
AcDbSpline
210
0.0
220
0.0
230
1.0
 70
     8
 71
     2
 72
     6
 73
     3
 74
     0
 42
0.0000000001
 43
0.0000000001
 40
0.0
 40
0.0
 40
0.0
 40
1.0
 40
1.0
 40
1.0
 10
4.13805607494469
 20
5.183583668770346
 30
0.0
 10
4.132269037907652
 20
5.178994779881457
 30
0.0
 10
4.122544963833578
 20
5.175808360128371
 30
0.0
  0
LINE
  5
F8
330
A
100
AcDbEntity
  8
0
  6
solid
 62
     7
100
AcDbLine
 10
4.226367926796541
 20
5.130413915683926
 30
0.0
 11
4.17042656877185
 21
5.130413915683926
 31
0.0
  0
LINE
  5
F9
330
A
100
AcDbEntity
  8
0
  6
solid
 62
     7
100
AcDbLine
 10
4.17042656877185
 20
5.130413915683926
 30
0.0
 11
4.17042656877185
 21
5.135002804572815
 31
0.0
  0
LINE
  5
FA
330
A
100
AcDbEntity
  8
0
  6
solid
 62
     7
100
AcDbLine
 10
4.17042656877185
 20
5.135002804572815
 30
0.0
 11
4.240957432969381
 21
5.253870705807384
 31
0.0
  0
LINE
  5
FB
330
A
100
AcDbEntity
  8
0
  6
solid
 62
     7
100
AcDbLine
 10
4.240957432969381
 20
5.253870705807384
 30
0.0
 11
4.251445087290368
 21
5.253870705807384
 31
0.0
  0
LINE
  5
FC
330
A
100
AcDbEntity
  8
0
  6
solid
 62
     7
100
AcDbLine
 10
4.251445087290368
 20
5.253870705807384
 30
0.0
 11
4.251445087290368
 21
5.138129965066642
 31
0.0
  0
SPLINE
  5
FD
330
A
100
AcDbEntity
  8
0
  6
solid
 62
     7
100
AcDbSpline
210
0.0
220
0.0
230
1.0
 70
     8
 71
     2
 72
     7
 73
     4
 74
     0
 42
0.0000000001
 43
0.0000000001
 40
0.0
 40
0.0
 40
0.0
 40
1.0
 40
2.0
 40
2.0
 40
2.0
 10
4.251445087290368
 20
5.138129965066642
 30
0.0
 10
4.254104963833578
 20
5.138129965066642
 30
0.0
 10
4.2594771860558
 20
5.13913737247405
 30
0.0
 10
4.261425951487899
 20
5.142067002103679
 30
0.0
  0
SPLINE
  5
FE
330
A
100
AcDbEntity
  8
0
  6
solid
 62
     7
100
AcDbSpline
210
0.0
220
0.0
230
1.0
 70
     8
 71
     2
 72
     7
 73
     4
 74
     0
 42
0.0000000001
 43
0.0000000001
 40
0.0
 40
0.0
 40
0.0
 40
1.0
 40
2.0
 40
2.0
 40
2.0
 10
4.261425951487899
 20
5.142067002103679
 30
0.0
 10
4.263038914450862
 20
5.143936755190099
 30
0.0
 10
4.26402656877185
 20
5.148446631733309
 30
0.0
 10
4.264204346549627
 20
5.152561446548124
 30
0.0
  0
LINE
  5
FF
330
A
100
AcDbEntity
  8
0
  6
solid
 62
     7
100
AcDbLine
 10
4.264204346549627
 20
5.152561446548124
 30
0.0
 11
4.265007432969381
 21
5.157420088523433
 31
0.0
  0
LINE
  5
100
330
A
100
AcDbEntity
  8
0
  6
solid
 62
     7
100
AcDbLine
 10
4.265007432969381
 20
5.157420088523433
 30
0.0
 11
4.274593235438516
 21
5.157420088523433
 31
0.0
  0
LINE
  5
101
330
A
100
AcDbEntity
  8
0
  6
solid
 62
     7
100
AcDbLine
 10
4.274593235438516
 20
5.157420088523433
 30
0.0
 11
4.274593235438516
 21
5.111123792227136
 31
0.0
  0
LINE
  5
102
330
A
100
AcDbEntity
  8
0
  6
solid
 62
     7
100
AcDbLine
 10
4.274593235438516
 20
5.111123792227136
 30
0.0
 11
4.2650271860558
 21
5.111123792227136
 31
0.0
  0
SPLINE
  5
103
330
A
100
AcDbEntity
  8
0
  6
solid
 62
     7
100
AcDbSpline
210
0.0
220
0.0
230
1.0
 70
     8
 71
     2
 72
     7
 73
     4
 74
     0
 42
0.0000000001
 43
0.0000000001
 40
0.0
 40
0.0
 40
0.0
 40
1.0
 40
2.0
 40
2.0
 40
2.0
 10
4.2650271860558
 20
5.111123792227136
 30
0.0
 10
4.26402656877185
 20
5.119353421856766
 30
0.0
 10
4.262334593463208
 20
5.125179965066642
 30
0.0
 10
4.26128767988296
 20
5.126950952720964
 30
0.0
  0
SPLINE
  5
104
330
A
100
AcDbEntity
  8
0
  6
solid
 62
     7
100
AcDbSpline
210
0.0
220
0.0
230
1.0
 70
     8
 71
     2
 72
     7
 73
     4
 74
     0
 42
0.0000000001
 43
0.0000000001
 40
0.0
 40
0.0
 40
0.0
 40
1.0
 40
2.0
 40
2.0
 40
2.0
 10
4.26128767988296
 20
5.126950952720964
 30
0.0
 10
4.2594771860558
 20
5.128840458893803
 30
0.0
 10
4.254381507043454
 20
5.130413915683926
 30
0.0
 10
4.249792618154565
 20
5.130413915683926
 30
0.0
  0
LINE
  5
105
330
A
100
AcDbEntity
  8
0
  6
solid
 62
     7
100
AcDbLine
 10
4.249792618154565
 20
5.130413915683926
 30
0.0
 11
4.251445087290368
 21
5.130413915683926
 31
0.0
  0
LINE
  5
106
330
A
100
AcDbEntity
  8
0
  6
solid
 62
     7
100
AcDbLine
 10
4.251445087290368
 20
5.130413915683926
 30
0.0
 11
4.251445087290368
 21
5.120084286054296
 31
0.0
  0
SPLINE
  5
107
330
A
100
AcDbEntity
  8
0
  6
solid
 62
     7
100
AcDbSpline
210
0.0
220
0.0
230
1.0
 70
     8
 71
     2
 72
     7
 73
     4
 74
     0
 42
0.0000000001
 43
0.0000000001
 40
0.0
 40
0.0
 40
0.0
 40
1.0
 40
2.0
 40
2.0
 40
2.0
 10
4.251445087290368
 20
5.120084286054296
 30
0.0
 10
4.251445087290368
 20
5.113961446548124
 30
0.0
 10
4.253393852722467
 20
5.106008360128371
 30
0.0
 10
4.254262988524936
 20
5.10423737247405
 30
0.0
  0
SPLINE
  5
108
330
A
100
AcDbEntity
  8
0
  6
solid
 62
     7
100
AcDbSpline
210
0.0
220
0.0
230
1.0
 70
     8
 71
     2
 72
     7
 73
     4
 74
     0
 42
0.0000000001
 43
0.0000000001
 40
0.0
 40
0.0
 40
0.0
 40
1.0
 40
2.0
 40
2.0
 40
2.0
 10
4.254262988524936
 20
5.10423737247405
 30
0.0
 10
4.256389531734813
 20
5.101636755190099
 30
0.0
 10
4.260030272475553
 20
5.099964532967877
 30
0.0
 10
4.268062371240985
 20
5.098568853955532
 30
0.0
  0
LINE
  5
109
330
A
100
AcDbEntity
  8
0
  6
solid
 62
     7
100
AcDbLine
 10
4.268062371240985
 20
5.098568853955532
 30
0.0
 11
4.268062371240985
 21
5.093762681116025
 31
0.0
  0
LINE
  5
10A
330
A
100
AcDbEntity
  8
0
  6
solid
 62
     7
100
AcDbLine
 10
4.268062371240985
 20
5.093762681116025
 30
0.0
 11
4.207551877413825
 21
5.093762681116025
 31
0.0
  0
LINE
  5
10B
330
A
100
AcDbEntity
  8
0
  6
solid
 62
     7
100
AcDbLine
 10
4.207551877413825
 20
5.093762681116025
 30
0.0
 11
4.207551877413825
 21
5.098766384819729
 31
0.0
  0
SPLINE
  5
10C
330
A
100
AcDbEntity
  8
0
  6
solid
 62
     7
100
AcDbSpline
210
0.0
220
0.0
230
1.0
 70
     8
 71
     2
 72
     6
 73
     3
 74
     0
 42
0.0000000001
 43
0.0000000001
 40
0.0
 40
0.0
 40
0.0
 40
1.0
 40
1.0
 40
1.0
 10
4.207551877413825
 20
5.098766384819729
 30
0.0
 10
4.219442000870615
 20
5.100162063832074
 30
0.0
 10
4.222667926796541
 20
5.103506508276519
 30
0.0
  0
SPLINE
  5
10D
330
A
100
AcDbEntity
  8
0
  6
solid
 62
     7
100
AcDbSpline
210
0.0
220
0.0
230
1.0
 70
     8
 71
     2
 72
     7
 73
     4
 74
     0
 42
0.0000000001
 43
0.0000000001
 40
0.0
 40
0.0
 40
0.0
 40
1.0
 40
2.0
 40
2.0
 40
2.0
 10
4.222667926796541
 20
5.103506508276519
 30
0.0
 10
4.224577186055801
 20
5.105554039140717
 30
0.0
 10
4.226367926796541
 20
5.11348737247405
 30
0.0
 10
4.226367926796541
 20
5.121183668770346
 30
0.0
  0
LINE
  5
10E
330
A
100
AcDbEntity
  8
0
  6
solid
 62
     7
100
AcDbLine
 10
4.226367926796541
 20
5.130413915683926
 30
0.0
 11
4.226367926796541
 21
5.121183668770346
 31
0.0
  0
LINE
  5
10F
330
A
100
AcDbEntity
  8
0
  6
solid
 62
     7
100
AcDbLine
 10
4.226367926796541
 20
5.138129965066642
 30
0.0
 11
4.226367926796541
 21
5.21816761938763
 31
0.0
  0
LINE
  5
110
330
A
100
AcDbEntity
  8
0
  6
solid
 62
     7
100
AcDbLine
 10
4.226367926796541
 20
5.21816761938763
 30
0.0
 11
4.182000642845924
 21
5.138129965066642
 31
0.0
  0
LINE
  5
111
330
A
100
AcDbEntity
  8
0
  6
solid
 62
     7
100
AcDbLine
 10
4.226367926796541
 20
5.138129965066642
 30
0.0
 11
4.182000642845924
 21
5.138129965066642
 31
0.0
  0
SPLINE
  5
112
330
A
100
AcDbEntity
  8
0
  6
solid
 62
     7
100
AcDbSpline
210
0.0
220
0.0
230
1.0
 70
     8
 71
     2
 72
     6
 73
     3
 74
     0
 42
0.0000000001
 43
0.0000000001
 40
0.0
 40
0.0
 40
0.0
 40
1.0
 40
1.0
 40
1.0
 10
4.353069284821232
 20
5.175808360128371
 30
0.0
 10
4.388890889759504
 20
5.167796014449359
 30
0.0
 10
4.388890889759504
 20
5.138742310745655
 30
0.0
  0
SPLINE
  5
113
330
A
100
AcDbEntity
  8
0
  6
solid
 62
     7
100
AcDbSpline
210
0.0
220
0.0
230
1.0
 70
     8
 71
     2
 72
     6
 73
     3
 74
     0
 42
0.0000000001
 43
0.0000000001
 40
0.0
 40
0.0
 40
0.0
 40
1.0
 40
1.0
 40
1.0
 10
4.388890889759504
 20
5.138742310745655
 30
0.0
 10
4.388890889759504
 20
5.129037989758001
 30
0.0
 10
4.383775457660739
 20
5.119333668770346
 30
0.0
  0
SPLINE
  5
114
330
A
100
AcDbEntity
  8
0
  6
solid
 62
     7
100
AcDbSpline
210
0.0
220
0.0
230
1.0
 70
     8
 71
     2
 72
     7
 73
     4
 74
     0
 42
0.0000000001
 43
0.0000000001
 40
0.0
 40
0.0
 40
0.0
 40
1.0
 40
2.0
 40
2.0
 40
2.0
 10
4.383775457660739
 20
5.119333668770346
 30
0.0
 10
4.377751383586665
 20
5.106442928029605
 30
0.0
 10
4.349408790994072
 20
5.091833668770346
 30
0.0
 10
4.33133656877185
 20
5.091833668770346
 30
0.0
  0
SPLINE
  5
115
330
A
100
AcDbEntity
  8
0
  6
solid
 62
     7
100
AcDbSpline
210
0.0
220
0.0
230
1.0
 70
     8
 71
     2
 72
     7
 73
     4
 74
     0
 42
0.0000000001
 43
0.0000000001
 40
0.0
 40
0.0
 40
0.0
 40
1.0
 40
2.0
 40
2.0
 40
2.0
 10
4.33133656877185
 20
5.091833668770346
 30
0.0
 10
4.320394593463208
 20
5.091833668770346
 30
0.0
 10
4.302263111981726
 20
5.097758977412322
 30
0.0
 10
4.296436568771849
 20
5.102565150251828
 30
0.0
  0
SPLINE
  5
116
330
A
100
AcDbEntity
  8
0
  6
solid
 62
     7
100
AcDbSpline
210
0.0
220
0.0
230
1.0
 70
     8
 71
     2
 72
     7
 73
     4
 74
     0
 42
0.0000000001
 43
0.0000000001
 40
0.0
 40
0.0
 40
0.0
 40
1.0
 40
2.0
 40
2.0
 40
2.0
 10
4.296436568771849
 20
5.102565150251828
 30
0.0
 10
4.291400149018763
 20
5.107325026795037
 30
0.0
 10
4.286653235438516
 20
5.118879347782692
 30
0.0
 10
4.286653235438516
 20
5.124804656424667
 30
0.0
  0
SPLINE
  5
117
330
A
100
AcDbEntity
  8
0
  6
solid
 62
     7
100
AcDbSpline
210
0.0
220
0.0
230
1.0
 70
     8
 71
     2
 72
     7
 73
     4
 74
     0
 42
0.0000000001
 43
0.0000000001
 40
0.0
 40
0.0
 40
0.0
 40
1.0
 40
2.0
 40
2.0
 40
2.0
 10
4.286653235438516
 20
5.124804656424667
 30
0.0
 10
4.286653235438516
 20
5.134923792227136
 30
0.0
 10
4.300669902105183
 20
5.149704039140717
 30
0.0
 10
4.314331013216294
 20
5.149704039140717
 30
0.0
  0
LINE
  5
118
330
A
100
AcDbEntity
  8
0
  6
solid
 62
     7
100
AcDbLine
 10
4.314331013216294
 20
5.149704039140717
 30
0.0
 11
4.315588420623702
 21
5.144904656424667
 31
0.0
  0
SPLINE
  5
119
330
A
100
AcDbEntity
  8
0
  6
solid
 62
     7
100
AcDbSpline
210
0.0
220
0.0
230
1.0
 70
     8
 71
     2
 72
     7
 73
     4
 74
     0
 42
0.0000000001
 43
0.0000000001
 40
0.0
 40
0.0
 40
0.0
 40
1.0
 40
2.0
 40
2.0
 40
2.0
 10
4.315588420623702
 20
5.144904656424667
 30
0.0
 10
4.309959408278023
 20
5.140552804572815
 30
0.0
 10
4.305943358895307
 20
5.132342928029605
 30
0.0
 10
4.305943358895307
 20
5.125436755190099
 30
0.0
  0
SPLINE
  5
11A
330
A
100
AcDbEntity
  8
0
  6
solid
 62
     7
100
AcDbSpline
210
0.0
220
0.0
230
1.0
 70
     8
 71
     2
 72
     6
 73
     3
 74
     0
 42
0.0000000001
 43
0.0000000001
 40
0.0
 40
0.0
 40
0.0
 40
1.0
 40
1.0
 40
1.0
 10
4.305943358895307
 20
5.125436755190099
 30
0.0
 10
4.305943358895307
 20
5.115752187288864
 30
0.0
 10
4.310393976179257
 20
5.109313298399976
 30
0.0
  0
SPLINE
  5
11B
330
A
100
AcDbEntity
  8
0
  6
solid
 62
     7
100
AcDbSpline
210
0.0
220
0.0
230
1.0
 70
     8
 71
     2
 72
     7
 73
     4
 74
     0
 42
0.0000000001
 43
0.0000000001
 40
0.0
 40
0.0
 40
0.0
 40
1.0
 40
2.0
 40
2.0
 40
2.0
 10
4.310393976179257
 20
5.109313298399976
 30
0.0
 10
4.314489037907653
 20
5.102584903338247
 30
0.0
 10
4.325747062599011
 20
5.097620705807384
 30
0.0
 10
4.331929161364443
 20
5.097620705807384
 30
0.0
  0
SPLINE
  5
11C
330
A
100
AcDbEntity
  8
0
  6
solid
 62
     7
100
AcDbSpline
210
0.0
220
0.0
230
1.0
 70
     8
 71
     2
 72
     6
 73
     3
 74
     0
 42
0.0000000001
 43
0.0000000001
 40
0.0
 40
0.0
 40
0.0
 40
1.0
 40
1.0
 40
1.0
 10
4.331929161364443
 20
5.097620705807384
 30
0.0
 10
4.346452618154566
 20
5.097620705807384
 30
0.0
 10
4.354622988524936
 20
5.108095397165408
 30
0.0
  0
SPLINE
  5
11D
330
A
100
AcDbEntity
  8
0
  6
solid
 62
     7
100
AcDbSpline
210
0.0
220
0.0
230
1.0
 70
     8
 71
     2
 72
     7
 73
     4
 74
     0
 42
0.0000000001
 43
0.0000000001
 40
0.0
 40
0.0
 40
0.0
 40
1.0
 40
2.0
 40
2.0
 40
2.0
 10
4.354622988524936
 20
5.108095397165408
 30
0.0
 10
4.358678544080492
 20
5.113605890992569
 30
0.0
 10
4.363813729265677
 20
5.128741693461704
 30
0.0
 10
4.363813729265677
 20
5.136398483585161
 30
0.0
  0
SPLINE
  5
11E
330
A
100
AcDbEntity
  8
0
  6
solid
 62
     7
100
AcDbSpline
210
0.0
220
0.0
230
1.0
 70
     8
 71
     2
 72
     7
 73
     4
 74
     0
 42
0.0000000001
 43
0.0000000001
 40
0.0
 40
0.0
 40
0.0
 40
1.0
 40
2.0
 40
2.0
 40
2.0
 10
4.363813729265677
 20
5.136398483585161
 30
0.0
 10
4.363813729265677
 20
5.144608360128371
 30
0.0
 10
4.357302618154566
 20
5.160514532967877
 30
0.0
 10
4.352911260129874
 20
5.165471940375285
 30
0.0
  0
SPLINE
  5
11F
330
A
100
AcDbEntity
  8
0
  6
solid
 62
     7
100
AcDbSpline
210
0.0
220
0.0
230
1.0
 70
     8
 71
     2
 72
     6
 73
     3
 74
     0
 42
0.0000000001
 43
0.0000000001
 40
0.0
 40
0.0
 40
0.0
 40
1.0
 40
1.0
 40
1.0
 10
4.352911260129874
 20
5.165471940375285
 30
0.0
 10
4.347341507043455
 20
5.170923174943186
 30
0.0
 10
4.341277926796541
 20
5.170923174943186
 30
0.0
  0
SPLINE
  5
120
330
A
100
AcDbEntity
  8
0
  6
solid
 62
     7
100
AcDbSpline
210
0.0
220
0.0
230
1.0
 70
     8
 71
     2
 72
     7
 73
     4
 74
     0
 42
0.0000000001
 43
0.0000000001
 40
0.0
 40
0.0
 40
0.0
 40
1.0
 40
2.0
 40
2.0
 40
2.0
 10
4.341277926796541
 20
5.170923174943186
 30
0.0
 10
4.340724840376788
 20
5.170923174943186
 30
0.0
 10
4.337953235438517
 20
5.169685520622198
 30
0.0
 10
4.335135334203949
 20
5.167440458893803
 30
0.0
  0
SPLINE
  5
121
330
A
100
AcDbEntity
  8
0
  6
solid
 62
     7
100
AcDbSpline
210
0.0
220
0.0
230
1.0
 70
     8
 71
     2
 72
     6
 73
     3
 74
     0
 42
0.0000000001
 43
0.0000000001
 40
0.0
 40
0.0
 40
0.0
 40
1.0
 40
1.0
 40
1.0
 10
4.335135334203949
 20
5.167440458893803
 30
0.0
 10
4.329091507043455
 20
5.16320712556047
 30
0.0
 10
4.322540889759504
 20
5.16320712556047
 30
0.0
  0
SPLINE
  5
122
330
A
100
AcDbEntity
  8
0
  6
solid
 62
     7
100
AcDbSpline
210
0.0
220
0.0
230
1.0
 70
     8
 71
     2
 72
     7
 73
     4
 74
     0
 42
0.0000000001
 43
0.0000000001
 40
0.0
 40
0.0
 40
0.0
 40
1.0
 40
2.0
 40
2.0
 40
2.0
 10
4.322540889759504
 20
5.16320712556047
 30
0.0
 10
4.318623605808887
 20
5.16320712556047
 30
0.0
 10
4.313659408278023
 20
5.167519471239482
 30
0.0
 10
4.313659408278023
 20
5.171239224325902
 30
0.0
  0
SPLINE
  5
123
330
A
100
AcDbEntity
  8
0
  6
solid
 62
     7
100
AcDbSpline
210
0.0
220
0.0
230
1.0
 70
     8
 71
     2
 72
     7
 73
     4
 74
     0
 42
0.0000000001
 43
0.0000000001
 40
0.0
 40
0.0
 40
0.0
 40
1.0
 40
2.0
 40
2.0
 40
2.0
 10
4.313659408278023
 20
5.171239224325902
 30
0.0
 10
4.313659408278023
 20
5.175275026795038
 30
0.0
 10
4.320058790994072
 20
5.180568236671581
 30
0.0
 10
4.325233482352097
 20
5.180568236671581
 30
0.0
  0
SPLINE
  5
124
330
A
100
AcDbEntity
  8
0
  6
solid
 62
     7
100
AcDbSpline
210
0.0
220
0.0
230
1.0
 70
     8
 71
     2
 72
     6
 73
     3
 74
     0
 42
0.0000000001
 43
0.0000000001
 40
0.0
 40
0.0
 40
0.0
 40
1.0
 40
1.0
 40
1.0
 10
4.325233482352097
 20
5.180568236671581
 30
0.0
 10
4.327557556426171
 20
5.179883668770346
 30
0.0
 10
4.329624840376788
 20
5.17960712556047
 30
0.0
  0
LINE
  5
125
330
A
100
AcDbEntity
  8
0
  6
solid
 62
     7
100
AcDbLine
 10
4.329624840376788
 20
5.17960712556047
 30
0.0
 11
4.333739655191603
 21
5.178935520622198
 31
0.0
  0
SPLINE
  5
126
330
A
100
AcDbEntity
  8
0
  6
solid
 62
     7
100
AcDbSpline
210
0.0
220
0.0
230
1.0
 70
     8
 71
     2
 72
     6
 73
     3
 74
     0
 42
0.0000000001
 43
0.0000000001
 40
0.0
 40
0.0
 40
0.0
 40
1.0
 40
1.0
 40
1.0
 10
4.333739655191603
 20
5.178935520622198
 30
0.0
 10
4.335589655191603
 20
5.178639224325902
 30
0.0
 10
4.337301383586664
 20
5.178639224325902
 30
0.0
  0
SPLINE
  5
127
330
A
100
AcDbEntity
  8
0
  6
solid
 62
     7
100
AcDbSpline
210
0.0
220
0.0
230
1.0
 70
     8
 71
     2
 72
     6
 73
     3
 74
     0
 42
0.0000000001
 43
0.0000000001
 40
0.0
 40
0.0
 40
0.0
 40
1.0
 40
1.0
 40
1.0
 10
4.337301383586664
 20
5.178639224325902
 30
0.0
 10
4.343760025561973
 20
5.178639224325902
 30
0.0
 10
4.35064644531506
 20
5.185058360128371
 30
0.0
  0
SPLINE
  5
128
330
A
100
AcDbEntity
  8
0
  6
solid
 62
     7
100
AcDbSpline
210
0.0
220
0.0
230
1.0
 70
     8
 71
     2
 72
     6
 73
     3
 74
     0
 42
0.0000000001
 43
0.0000000001
 40
0.0
 40
0.0
 40
0.0
 40
1.0
 40
1.0
 40
1.0
 10
4.35064644531506
 20
5.185058360128371
 30
0.0
 10
4.359955704574319
 20
5.194703421856766
 30
0.0
 10
4.359955704574319
 20
5.210629347782692
 30
0.0
  0
SPLINE
  5
129
330
A
100
AcDbEntity
  8
0
  6
solid
 62
     7
100
AcDbSpline
210
0.0
220
0.0
230
1.0
 70
     8
 71
     2
 72
     7
 73
     4
 74
     0
 42
0.0000000001
 43
0.0000000001
 40
0.0
 40
0.0
 40
0.0
 40
1.0
 40
2.0
 40
2.0
 40
2.0
 10
4.359955704574319
 20
5.210629347782692
 30
0.0
 10
4.359955704574319
 20
5.218444162597506
 30
0.0
 10
4.354860025561974
 20
5.233342928029605
 30
0.0
 10
4.350705704574319
 20
5.238833668770346
 30
0.0
  0
SPLINE
  5
12A
330
A
100
AcDbEntity
  8
0
  6
solid
 62
     7
100
AcDbSpline
210
0.0
220
0.0
230
1.0
 70
     8
 71
     2
 72
     6
 73
     3
 74
     0
 42
0.0000000001
 43
0.0000000001
 40
0.0
 40
0.0
 40
0.0
 40
1.0
 40
1.0
 40
1.0
 10
4.350705704574319
 20
5.238833668770346
 30
0.0
 10
4.343325457660739
 20
5.248083668770346
 30
0.0
 10
4.33318656877185
 20
5.248083668770346
 30
0.0
  0
SPLINE
  5
12B
330
A
100
AcDbEntity
  8
0
  6
solid
 62
     7
100
AcDbSpline
210
0.0
220
0.0
230
1.0
 70
     8
 71
     2
 72
     7
 73
     4
 74
     0
 42
0.0000000001
 43
0.0000000001
 40
0.0
 40
0.0
 40
0.0
 40
1.0
 40
2.0
 40
2.0
 40
2.0
 10
4.33318656877185
 20
5.248083668770346
 30
0.0
 10
4.325727309512591
 20
5.248083668770346
 30
0.0
 10
4.315588420623702
 20
5.2375367551901
 30
0.0
 10
4.315588420623702
 20
5.229010829264173
 30
0.0
  0
SPLINE
  5
12C
330
A
100
AcDbEntity
  8
0
  6
solid
 62
     7
100
AcDbSpline
210
0.0
220
0.0
230
1.0
 70
     8
 71
     2
 72
     7
 73
     4
 74
     0
 42
0.0000000001
 43
0.0000000001
 40
0.0
 40
0.0
 40
0.0
 40
1.0
 40
2.0
 40
2.0
 40
2.0
 10
4.315588420623702
 20
5.229010829264173
 30
0.0
 10
4.315588420623702
 20
5.22190712556047
 30
0.0
 10
4.320434099636047
 20
5.213697249017259
 30
0.0
 10
4.326181630500245
 20
5.211965767535779
 30
0.0
  0
LINE
  5
12D
330
A
100
AcDbEntity
  8
0
  6
solid
 62
     7
100
AcDbLine
 10
4.326181630500245
 20
5.211965767535779
 30
0.0
 11
4.327162494697776
 21
5.20806823667158
 31
0.0
  0
SPLINE
  5
12E
330
A
100
AcDbEntity
  8
0
  6
solid
 62
     7
100
AcDbSpline
210
0.0
220
0.0
230
1.0
 70
     8
 71
     2
 72
     6
 73
     3
 74
     0
 42
0.0000000001
 43
0.0000000001
 40
0.0
 40
0.0
 40
0.0
 40
1.0
 40
1.0
 40
1.0
 10
4.327162494697776
 20
5.20806823667158
 30
0.0
 10
4.320058790994072
 20
5.205645397165408
 30
0.0
 10
4.315608173710121
 20
5.205645397165408
 30
0.0
  0
SPLINE
  5
12F
330
A
100
AcDbEntity
  8
0
  6
solid
 62
     7
100
AcDbSpline
210
0.0
220
0.0
230
1.0
 70
     8
 71
     2
 72
     7
 73
     4
 74
     0
 42
0.0000000001
 43
0.0000000001
 40
0.0
 40
0.0
 40
0.0
 40
1.0
 40
2.0
 40
2.0
 40
2.0
 10
4.315608173710121
 20
5.205645397165408
 30
0.0
 10
4.306654470006418
 20
5.205645397165408
 30
0.0
 10
4.296298297166911
 20
5.215922557659235
 30
0.0
 10
4.296298297166911
 20
5.224112681116025
 30
0.0
  0
SPLINE
  5
130
330
A
100
AcDbEntity
  8
0
  6
solid
 62
     7
100
AcDbSpline
210
0.0
220
0.0
230
1.0
 70
     8
 71
     2
 72
     7
 73
     4
 74
     0
 42
0.0000000001
 43
0.0000000001
 40
0.0
 40
0.0
 40
0.0
 40
1.0
 40
2.0
 40
2.0
 40
2.0
 10
4.296298297166911
 20
5.224112681116025
 30
0.0
 10
4.296298297166911
 20
5.236766384819729
 30
0.0
 10
4.318584099636048
 20
5.253870705807384
 30
0.0
 10
4.33499706259901
 20
5.253870705807384
 30
0.0
  0
SPLINE
  5
131
330
A
100
AcDbEntity
  8
0
  6
solid
 62
     7
100
AcDbSpline
210
0.0
220
0.0
230
1.0
 70
     8
 71
     2
 72
     7
 73
     4
 74
     0
 42
0.0000000001
 43
0.0000000001
 40
0.0
 40
0.0
 40
0.0
 40
1.0
 40
2.0
 40
2.0
 40
2.0
 10
4.33499706259901
 20
5.253870705807384
 30
0.0
 10
4.344938420623702
 20
5.253870705807384
 30
0.0
 10
4.363892741611356
 20
5.246905273708618
 30
0.0
 10
4.369739037907653
 20
5.241454039140717
 30
0.0
  0
SPLINE
  5
132
330
A
100
AcDbEntity
  8
0
  6
solid
 62
     7
100
AcDbSpline
210
0.0
220
0.0
230
1.0
 70
     8
 71
     2
 72
     7
 73
     4
 74
     0
 42
0.0000000001
 43
0.0000000001
 40
0.0
 40
0.0
 40
0.0
 40
1.0
 40
2.0
 40
2.0
 40
2.0
 10
4.369739037907653
 20
5.241454039140717
 30
0.0
 10
4.3762371860558
 20
5.235410211980223
 30
0.0
 10
4.383103852722467
 20
5.221176261362939
 30
0.0
 10
4.383103852722467
 20
5.213361446548124
 30
0.0
  0
SPLINE
  5
133
330
A
100
AcDbEntity
  8
0
  6
solid
 62
     7
100
AcDbSpline
210
0.0
220
0.0
230
1.0
 70
     8
 71
     2
 72
     6
 73
     3
 74
     0
 42
0.0000000001
 43
0.0000000001
 40
0.0
 40
0.0
 40
0.0
 40
1.0
 40
1.0
 40
1.0
 10
4.383103852722467
 20
5.213361446548124
 30
0.0
 10
4.383103852722467
 20
5.196158360128371
 30
0.0
 10
4.368580395932344
 20
5.183583668770346
 30
0.0
  0
SPLINE
  5
134
330
A
100
AcDbEntity
  8
0
  6
solid
 62
     7
100
AcDbSpline
210
0.0
220
0.0
230
1.0
 70
     8
 71
     2
 72
     6
 73
     3
 74
     0
 42
0.0000000001
 43
0.0000000001
 40
0.0
 40
0.0
 40
0.0
 40
1.0
 40
1.0
 40
1.0
 10
4.368580395932344
 20
5.183583668770346
 30
0.0
 10
4.362793358895307
 20
5.178994779881457
 30
0.0
 10
4.353069284821232
 20
5.175808360128371
 30
0.0
  0
LINE
  5
135
330
A
100
AcDbEntity
  8
0
  6
solid
 62
     7
100
AcDbLine
 10
3.798433542251586
 20
5.48229694366455
 30
0.0
 11
0.6408365964889527
 21
1.514277935028076
 31
0.0
  0
ARC
  5
136
330
A
100
AcDbEntity
  8
1
  6
solid
 62
     7
100
AcDbCircle
 10
-4.754142817912851
 20
5.075869708587514
 30
0.0
 40
1.743692561853805
100
AcDbArc
 50
264.7943194764307
 51
282.7108001300668
  0
ARC
  5
137
330
A
100
AcDbEntity
  8
1
  6
solid
 62
     7
100
AcDbCircle
 10
-4.479256965214689
 20
3.917039011727713
 30
0.0
 40
0.5529350143901936
100
AcDbArc
 50
281.345788334533
 51
304.8390592851637
  0
ARC
  5
138
330
A
100
AcDbEntity
  8
1
  6
solid
 62
     7
100
AcDbCircle
 10
-3.610081665603619
 20
2.391208041683313
 30
0.0
 40
1.206371288006442
100
AcDbArc
 50
49.02251763334259
 51
117.2998253252207
  0
LINE
  5
139
330
A
100
AcDbEntity
  8
1
  6
solid
 62
     7
100
AcDbLine
 10
-2.81898868462988
 20
3.301978970196341
 30
0.0
 11
-2.726953650706056
 21
3.323134067489362
 31
0.0
  0
ARC
  5
13A
330
A
100
AcDbEntity
  8
1
  6
solid
 62
     7
100
AcDbCircle
 10
-2.286400570866224
 20
3.424481355196905
 30
0.0
 40
0.452060121437673
100
AcDbArc
 50
39.1289644985473
 51
192.9552461737491
  0
LINE
  5
13B
330
A
100
AcDbEntity
  8
1
  6
solid
 62
     7
100
AcDbLine
 10
-1.935725214115882
 20
3.709762072917275
 30
0.0
 11
-1.766393547383977
 21
3.837362098912601
 31
0.0
  0
ARC
  5
13C
330
A
100
AcDbEntity
  8
1
  6
solid
 62
     7
100
AcDbCircle
 10
-1.014921980447182
 20
4.407193487270593
 30
0.0
 40
0.9430891659601407
100
AcDbArc
 50
217.17258471603
 51
306.1262329960436
  0
LINE
  5
13D
330
A
100
AcDbEntity
  8
1
  6
solid
 62
     7
100
AcDbLine
 10
-0.4589085080902873
 20
3.645441489221649
 30
0.0
 11
-0.2660075147583503
 21
3.466632019879061
 31
0.0
  0
LINE
  5
13E
330
A
100
AcDbEntity
  8
1
  6
solid
 62
     7
100
AcDbLine
 10
-0.2660076268512981
 20
3.466631991090047
 30
0.0
 11
-0.9899463200910503
 21
2.890549376902937
 31
0.0
  0
ARC
  5
13F
330
A
100
AcDbEntity
  8
1
  6
solid
 62
     7
100
AcDbCircle
 10
-6.347842543712177
 20
3.55685981833502
 30
0.0
 40
0.2975662085548417
100
AcDbArc
 50
24.53292041891472
 51
168.3032686904504
  0
LINE
  5
140
330
A
100
AcDbEntity
  8
1
  6
solid
 62
     7
100
AcDbLine
 10
-6.077140092028301
 20
3.680413999379641
 30
0.0
 11
-5.943988012182417
 21
3.721011592782658
 31
0.0
  0
ARC
  5
141
330
A
100
AcDbEntity
  8
1
  6
solid
 62
     7
100
AcDbCircle
 10
-4.682631590142216
 20
5.545492133579346
 30
0.0
 40
2.218050781016482
100
AcDbArc
 50
235.3419181339997
 51
264.0553388036127
  0
LINE
  5
142
330
A
100
AcDbEntity
  8
1
  6
solid
 62
     7
100
AcDbLine
 10
-6.639229559065597
 20
3.617185734941513
 30
0.0
 11
-6.061000733675653
 21
2.890549800856281
 31
0.0
  0
LINE
  5
143
330
A
100
AcDbEntity
  8
0
  6
solid
 62
     7
100
AcDbLine
 10
-0.9899461471926631
 20
2.890549273423177
 30
0.0
 11
-6.06100086684601
 21
2.890549687390533
 31
0.0
  0
LINE
  5
1BB
330
A
100
AcDbEntity
  8
0
  6
solid
 62
     7
370
     0
100
AcDbLine
 10
-6.759638628630495
 20
2.890549659729003
 30
0.0
 11
-7.333276433286383
 21
2.890549659729005
 31
0.0
  0
LINE
  5
1BC
330
A
100
AcDbEntity
  8
0
  6
solid
 62
     7
370
     0
100
AcDbLine
 10
-6.756575578789128
 20
3.876541376113891
 30
0.0
 11
-7.333276433286382
 21
3.876541376113895
 31
0.0
  0
LINE
  5
1BD
330
A
100
AcDbEntity
  8
0
  6
solid
 62
     7
370
     0
100
AcDbLine
 10
-7.270776433286383
 20
2.890549659729005
 30
0.0
 11
-7.270776433286382
 21
3.383545517921449
 31
0.0
  0
LINE
  5
1BE
330
A
100
AcDbEntity
  8
0
  6
solid
 62
     7
370
     0
100
AcDbLine
 10
-7.270776433286382
 20
3.876541376113895
 30
0.0
 11
-7.270776433286382
 21
3.383545517921449
 31
0.0
  0
MTEXT
  5
1BF
330
A
100
AcDbEntity
  8
0
  6
solid
 62
     7
370
     0
100
AcDbMText
 10
-7.360238933286383
 20
3.383545517921449
 30
0.0
 40
0.125
 41
0.0
 71
     5
 72
     1
  1
{\H0.125000;1}
 73
     1
 44
1.0
  0
SOLID
  5
1C0
330
A
100
AcDbEntity
  8
0
  6
solid
 62
     7
370
     0
100
AcDbTrace
 10
-7.291591433286383
 20
3.015549659729005
 30
0.0
 11
-7.249961433286383
 21
3.015549659729005
 31
0.0
 12
-7.270776433286383
 22
2.890549659729005
 32
0.0
 13
-7.270776433286383
 23
2.890549659729005
 33
0.0
  0
SOLID
  5
1C1
330
A
100
AcDbEntity
  8
0
  6
solid
 62
     7
370
     0
100
AcDbTrace
 10
-7.249961433286382
 20
3.751541376113895
 30
0.0
 11
-7.291591433286382
 21
3.751541376113895
 31
0.0
 12
-7.270776433286382
 22
3.876541376113895
 32
0.0
 13
-7.270776433286382
 23
3.876541376113895
 33
0.0
  0
LINE
  5
1C4
330
A
100
AcDbEntity
  8
0
  6
solid
 62
     7
370
     0
100
AcDbLine
 10
-6.639229774475097
 20
2.81451661075563
 30
0.0
 11
-6.639229774475097
 21
2.136847390441315
 31
0.0
  0
LINE
  5
1C5
330
A
100
AcDbEntity
  8
0
  6
solid
 62
     7
370
     0
100
AcDbLine
 10
-0.2660075128078461
 20
3.34163212776184
 30
0.0
 11
-0.2660075128078461
 21
2.136847390441315
 31
0.0
  0
LINE
  5
1C6
330
A
100
AcDbEntity
  8
0
  6
solid
 62
     7
370
     0
100
AcDbLine
 10
-6.639229774475097
 20
2.199347390441315
 30
0.0
 11
-3.452618643641471
 21
2.199347390441315
 31
0.0
  0
LINE
  5
1C7
330
A
100
AcDbEntity
  8
0
  6
solid
 62
     7
370
     0
100
AcDbLine
 10
-0.2660075128078461
 20
2.199347390441315
 30
0.0
 11
-3.452618643641471
 21
2.199347390441315
 31
0.0
  0
MTEXT
  5
1C8
330
A
100
AcDbEntity
  8
0
  6
solid
 62
     7
370
     0
100
AcDbMText
 10
-3.452618643641471
 20
2.302932486595161
 30
0.0
 40
0.125
 41
0.0
 71
     5
 72
     1
  1
{\H0.125000;6 3/8}
 73
     1
 44
1.0
  0
SOLID
  5
1C9
330
A
100
AcDbEntity
  8
0
  6
solid
 62
     7
370
     0
100
AcDbTrace
 10
-6.514229774475097
 20
2.220162390441315
 30
0.0
 11
-6.514229774475097
 21
2.178532390441314
 31
0.0
 12
-6.639229774475097
 22
2.199347390441315
 32
0.0
 13
-6.639229774475097
 23
2.199347390441315
 33
0.0
  0
SOLID
  5
1CA
330
A
100
AcDbEntity
  8
0
  6
solid
 62
     7
370
     0
100
AcDbTrace
 10
-0.3910075128078461
 20
2.178532390441315
 30
0.0
 11
-0.3910075128078461
 21
2.220162390441315
 31
0.0
 12
-0.2660075128078461
 22
2.199347390441315
 32
0.0
 13
-0.2660075128078461
 23
2.199347390441315
 33
0.0
  0
LINE
  5
1CB
330
A
100
AcDbEntity
  8
1
  6
solid
 62
     7
370
     0
100
AcDbLine
 10
0.5158367156982422
 20
0.5890976786613465
 30
0.0
 11
0.342334932051515
 21
0.5890976786613465
 31
0.0
  0
LINE
  5
1CC
330
A
100
AcDbEntity
  8
1
  6
solid
 62
     7
370
     0
100
AcDbLine
 10
0.5810702294307575
 20
5.482296943664552
 30
0.0
 11
0.3423349320515185
 21
5.482296943664552
 31
0.0
  0
LINE
  5
1CD
330
A
100
AcDbEntity
  8
1
  6
solid
 62
     7
370
     0
100
AcDbLine
 10
0.4048349320515151
 20
0.5890976786613465
 30
0.0
 11
0.4048349320515167
 21
2.875824715009102
 31
0.0
  0
LINE
  5
1CE
330
A
100
AcDbEntity
  8
1
  6
solid
 62
     7
370
     0
100
AcDbLine
 10
0.4048349320515186
 20
5.482296943664552
 30
0.0
 11
0.4048349320515169
 21
3.195569907316794
 31
0.0
  0
MTEXT
  5
1CF
330
A
100
AcDbEntity
  8
1
  6
solid
 62
     7
370
     0
100
AcDbMText
 10
0.4048349320515169
 20
3.035697311162948
 30
0.0
 40
0.125
 41
0.0
 71
     5
 72
     1
  1
{\H0.125000;4 7/8}
 73
     1
 44
1.0
  0
SOLID
  5
1D0
330
A
100
AcDbEntity
  8
1
  6
solid
 62
     7
370
     0
100
AcDbTrace
 10
0.3840224320515152
 20
0.7140976786613465
 30
0.0
 11
0.4256474320515152
 21
0.7140976786613465
 31
0.0
 12
0.4048349320515151
 22
0.5890976786613465
 32
0.0
 13
0.4048349320515151
 23
0.5890976786613465
 33
0.0
  0
SOLID
  5
1D1
330
A
100
AcDbEntity
  8
1
  6
solid
 62
     7
370
     0
100
AcDbTrace
 10
0.4256474320515185
 20
5.357296943664552
 30
0.0
 11
0.3840224320515184
 21
5.357296943664552
 31
0.0
 12
0.4048349320515186
 22
5.482296943664552
 32
0.0
 13
0.4048349320515186
 23
5.482296943664552
 33
0.0
  0
LINE
  5
1D2
330
A
100
AcDbEntity
  8
1
  6
solid
 62
     7
370
     0
100
AcDbLine
 10
0.6408365964889528
 20
5.547489952702111
 30
0.0
 11
0.6408365964889527
 21
5.827137966486901
 31
0.0
  0
LINE
  5
1D3
330
A
100
AcDbEntity
  8
1
  6
solid
 62
     7
370
     0
100
AcDbLine
 10
4.727060794830322
 20
5.607296943664549
 30
0.0
 11
4.727060794830322
 21
5.827137966486901
 31
0.0
  0
LINE
  5
1D4
330
A
100
AcDbEntity
  8
1
  6
solid
 62
     7
370
     0
100
AcDbLine
 10
0.6408365964889527
 20
5.764637966486901
 30
0.0
 11
2.230859738756464
 21
5.764637966486901
 31
0.0
  0
LINE
  5
1D5
330
A
100
AcDbEntity
  8
1
  6
solid
 62
     7
370
     0
100
AcDbLine
 10
4.727060794830322
 20
5.764637966486901
 30
0.0
 11
3.139479584207307
 21
5.764637966486901
 31
0.0
  0
MTEXT
  5
1D6
330
A
100
AcDbEntity
  8
1
  6
solid
 62
     7
370
     0
100
AcDbMText
 10
2.683948695659637
 20
5.764637966486901
 30
0.0
 40
0.125
 41
0.0
 71
     5
 72
     1
  1
{\H0.125000;4 1/8}
 73
     1
 44
1.0
  0
SOLID
  5
1D7
330
A
100
AcDbEntity
  8
1
  6
solid
 62
     7
370
     0
100
AcDbTrace
 10
0.7658365964889527
 20
5.7854504664869
 30
0.0
 11
0.7658365964889527
 21
5.743825466486902
 31
0.0
 12
0.6408365964889527
 22
5.764637966486901
 32
0.0
 13
0.6408365964889527
 23
5.764637966486901
 33
0.0
  0
SOLID
  5
1D8
330
A
100
AcDbEntity
  8
1
  6
solid
 62
     7
370
     0
100
AcDbTrace
 10
4.602060794830322
 20
5.743825466486902
 30
0.0
 11
4.602060794830322
 21
5.7854504664869
 31
0.0
 12
4.727060794830322
 22
5.764637966486901
 32
0.0
 13
4.727060794830322
 23
5.764637966486901
 33
0.0
  0
VIEWPORT
  5
177
330
B
100
AcDbEntity
 67
     1
  8
0
  6
Continuous
370
     0
100
AcDbViewport
 10
5.18701210869298
 20
3.951240450931924
 30
0.0
 40
15.54550324723308
 41
8.225219493598377
 68
     1
 69
     1
 12
5.18701210869298
 22
3.951240450931924
 13
0.0
 23
0.0
 14
0.5
 24
0.5
 15
0.5
 25
0.5
 16
0.0
 26
0.0
 36
1.0
 17
0.0
 27
0.0
 37
0.0
 42
50.0
 43
0.0
 44
0.0
 45
8.225219493598377
 50
0.0
 51
0.0
 72
   100
 90
   819232
  1

281
     0
 71
     1
 74
     0
110
0.0
120
0.0
130
0.0
111
1.0
121
0.0
131
0.0
112
0.0
122
1.0
132
0.0
 79
     0
146
0.0
170
     0
  0
VIEWPORT
  5
17A
330
B
100
AcDbEntity
 67
     1
  8
0
  6
Continuous
370
     0
100
AcDbViewport
 10
5.187037609839677
 20
3.951116639509745
 30
0.0
 40
10.55447821870885
 41
8.128966449252153
 68
     2
 69
     2
 12
-0.8371803580256798
 22
2.67777575588843
 13
0.0
 23
0.0
 14
0.5
 24
0.5
 15
0.5
 25
0.5
 16
0.0
 26
0.0
 36
1.0
 17
0.0
 27
0.0
 37
0.0
 42
50.0
 43
0.0
 44
0.0
 45
12.96708379641972
 50
0.0
 51
0.0
 72
   100
 90
   819232
  1

281
     0
 71
     1
 74
     0
110
0.0
120
0.0
130
0.0
111
1.0
121
0.0
131
0.0
112
0.0
122
1.0
132
0.0
 79
     0
146
0.0
170
     0
  0
ENDSEC
  0
SECTION
  2
OBJECTS
  0
DICTIONARY
  5
19
330
0
100
AcDbDictionary
281
     1
  3
ACAD_COLOR
350
170
  3
ACAD_GROUP
350
1A
  3
ACAD_LAYOUT
350
1E
  3
ACAD_MATERIAL
350
15B
  3
ACAD_MLEADERSTYLE
350
1A4
  3
ACAD_MLINESTYLE
350
1B
  3
ACAD_PLOTSETTINGS
350
22
  3
ACAD_PLOTSTYLENAME
350
1F
  3
ACAD_SCALELIST
350
182
  3
ACAD_TABLESTYLE
350
171
  3
ACAD_VISUALSTYLE
350
15F
  3
ACAD_WIPEOUT_VARS
350
23
  3
ACDB_RECOMPOSE_DATA
350
1F5
  3
AcDbVariableDictionary
350
17F
  3
ASE_INDEX_DICTIONARY
350
17C
  0
DICTIONARY
  5
1AD
330
14
100
AcDbDictionary
280
     1
281
     1
  3
ADSK_XREC_LAYER_RECONCILED
360
1AE
  0
DICTIONARY
  5
1AF
330
27
100
AcDbDictionary
280
     1
281
     1
  3
ADSK_XREC_LAYER_RECONCILED
360
1B0
  0
DICTIONARY
  5
1B1
330
A9
100
AcDbDictionary
280
     1
281
     1
  3
ADSK_XREC_LAYER_RECONCILED
360
1B2
  0
DICTIONARY
  5
1C2
330
A
100
AcDbDictionary
280
     1
281
     1
  3
ACAD_SORTENTS
360
1C3
  0
DICTIONARY
  5
170
102
{ACAD_REACTORS
330
19
102
}
330
19
100
AcDbDictionary
281
     1
  0
DICTIONARY
  5
1A
102
{ACAD_REACTORS
330
19
102
}
330
19
100
AcDbDictionary
281
     1
  0
DICTIONARY
  5
1E
102
{ACAD_REACTORS
330
19
102
}
330
19
100
AcDbDictionary
281
     1
  3
Layout1
350
21
  3
Model
350
20
  0
DICTIONARY
  5
15B
102
{ACAD_REACTORS
330
19
102
}
330
19
100
AcDbDictionary
281
     1
  3
ByBlock
350
15D
  3
ByLayer
350
15C
  3
Global
350
15E
  0
DICTIONARY
  5
1A4
102
{ACAD_REACTORS
330
19
102
}
330
19
100
AcDbDictionary
281
     1
  3
Standard
350
1A5
  0
DICTIONARY
  5
1B
102
{ACAD_REACTORS
330
19
102
}
330
19
100
AcDbDictionary
281
     1
  3
Standard
350
1C
  0
DICTIONARY
  5
22
102
{ACAD_REACTORS
330
19
102
}
330
19
100
AcDbDictionary
281
     1
  0
ACDBDICTIONARYWDFLT
  5
1F
102
{ACAD_REACTORS
330
19
102
}
330
19
100
AcDbDictionary
281
     1
  3
Normal
350
1D
100
AcDbDictionaryWithDefault
340
1D
  0
DICTIONARY
  5
182
102
{ACAD_REACTORS
330
19
102
}
330
19
100
AcDbDictionary
281
     1
  3
A0
350
183
  3
A1
350
184
  3
A2
350
185
  3
A3
350
186
  3
A4
350
187
  3
A5
350
188
  3
A6
350
189
  3
A7
350
18A
  3
A8
350
18B
  3
A9
350
18C
  3
B0
350
18D
  3
B1
350
18E
  3
B2
350
18F
  3
B3
350
190
  3
B4
350
191
  3
B5
350
192
  3
B6
350
193
  3
B7
350
194
  3
B8
350
195
  3
B9
350
196
  3
C0
350
197
  3
C1
350
198
  3
C2
350
199
  3
C3
350
19A
  3
C4
350
19B
  3
C5
350
19C
  3
C6
350
19D
  3
C7
350
19E
  3
C8
350
19F
  3
C9
350
1A0
  3
D0
350
1A1
  3
D1
350
1A2
  3
D2
350
1A3
  0
DICTIONARY
  5
171
102
{ACAD_REACTORS
330
19
102
}
330
19
100
AcDbDictionary
281
     1
  3
Standard
350
172
  0
DICTIONARY
  5
15F
102
{ACAD_REACTORS
330
19
102
}
330
19
100
AcDbDictionary
281
     1
  3
2dWireframe
350
165
  3
3D Hidden
350
167
  3
3dWireframe
350
166
  3
Basic
350
164
  3
Brighten
350
16B
  3
ColorChange
350
16F
  3
Conceptual
350
168
  3
Dim
350
16A
  3
Facepattern
350
16E
  3
Flat
350
160
  3
FlatWithEdges
350
161
  3
Gouraud
350
162
  3
GouraudWithEdges
350
163
  3
Linepattern
350
16D
  3
Realistic
350
169
  3
Thicken
350
16C
  0
WIPEOUTVARIABLES
  5
23
330
19
100
AcDbWipeoutVariables
 70
     1
  0
XRECORD
  5
1F5
102
{ACAD_REACTORS
330
19
102
}
330
19
100
AcDbXrecord
280
     1
 90
        1
330
172
  0
DICTIONARY
  5
17F
102
{ACAD_REACTORS
330
19
102
}
330
19
100
AcDbDictionary
281
     1
  3
CANNOSCALE
350
1F2
  3
CMLEADERSTYLE
350
1F1
  3
CTABLESTYLE
350
180
  0
DICTIONARY
  5
17C
102
{ACAD_REACTORS
330
19
102
}
330
19
100
AcDbDictionary
281
     1
  3
ASEBlockHierarchyIndexRecord
350
17E
1001
DCO15
1040
1645034933.066
  0
XRECORD
  5
1AE
102
{ACAD_REACTORS
330
1AD
102
}
330
1AD
100
AcDbXrecord
280
     1
290
     1
  0
XRECORD
  5
1B0
102
{ACAD_REACTORS
330
1AF
102
}
330
1AF
100
AcDbXrecord
280
     1
290
     1
  0
XRECORD
  5
1B2
102
{ACAD_REACTORS
330
1B1
102
}
330
1B1
100
AcDbXrecord
280
     1
290
     1
  0
SORTENTSTABLE
  5
1C3
102
{ACAD_REACTORS
330
1C2
102
}
330
1C2
100
AcDbSortentsTable
330
A
331
133
  5
141
331
111
  5
11F
331
80
  5
80
331
C4
  5
D2
331
122
  5
130
331
100
  5
10E
331
E6
  5
F4
331
1D5
  5
AD
331
6C
  5
6C
331
4A
  5
4A
331
91
  5
91
331
1C4
  5
1CB
331
B3
  5
C1
331
D5
  5
E3
331
5B
  5
5B
331
39
  5
39
331
28
  5
28
331
131
  5
13F
331
7E
  5
7E
331
C2
  5
D0
331
142
  5
1C9
331
120
  5
12E
331
FE
  5
10C
331
E4
  5
F2
331
1D3
  5
AB
331
6A
  5
6A
331
48
  5
48
331
8F
  5
8F
331
10F
  5
11D
331
D3
  5
E1
331
B1
  5
BF
331
59
  5
59
331
37
  5
37
331
7C
  5
7C
331
C0
  5
CE
331
140
  5
1C7
331
11E
  5
12C
331
FC
  5
10A
331
E2
  5
F0
331
1D1
  5
B7
331
68
  5
68
331
46
  5
46
331
8D
  5
8D
331
1C0
  5
1D7
331
AF
  5
BD
331
12F
  5
13D
331
10D
  5
11B
331
D1
  5
DF
331
57
  5
57
331
35
  5
35
331
7A
  5
7A
331
BE
  5
CC
331
13E
  5
1C5
331
11C
  5
12A
331
FA
  5
108
331
E0
  5
EE
331
1CF
  5
B5
331
66
  5
66
331
44
  5
44
331
8B
  5
8B
331
1BE
  5
1D5
331
AD
  5
BB
331
12D
  5
13B
331
10B
  5
119
331
CF
  5
DD
331
77
  5
77
331
55
  5
55
331
33
  5
33
331
78
  5
78
331
BC
  5
CA
331
13C
  5
1C1
331
11A
  5
128
331
F8
  5
106
331
DE
  5
EC
331
1CD
  5
B3
331
64
  5
64
331
42
  5
42
331
89
  5
89
331
1BC
  5
1D3
331
AB
  5
B9
331
12B
  5
139
331
109
  5
117
331
EF
  5
FD
331
CD
  5
DB
331
75
  5
75
331
53
  5
53
331
31
  5
31
331
BA
  5
C8
331
13A
  5
1BF
331
118
  5
126
331
F6
  5
104
331
DC
  5
EA
331
1CB
  5
B1
331
62
  5
62
331
40
  5
40
331
87
  5
87
331
129
  5
137
331
107
  5
115
331
ED
  5
FB
331
CB
  5
D9
331
73
  5
73
331
51
  5
51
331
2F
  5
2F
331
1C9
  5
1D0
331
B8
  5
C6
331
138
  5
1BD
331
116
  5
124
331
F4
  5
102
331
DA
  5
E8
331
60
  5
60
331
85
  5
85
331
127
  5
135
331
105
  5
113
331
EB
  5
F9
331
C9
  5
D7
331
71
  5
71
331
4F
  5
4F
331
3E
  5
3E
331
2D
  5
2D
331
136
  5
1BB
331
114
  5
122
331
F2
  5
100
331
D8
  5
E6
331
83
  5
83
331
C7
  5
D5
331
125
  5
133
331
103
  5
111
331
E9
  5
F7
331
1D8
  5
B0
331
6F
  5
6F
331
4D
  5
4D
331
1C7
  5
1CE
331
B6
  5
C4
331
5E
  5
5E
331
3C
  5
3C
331
2B
  5
2B
331
134
  5
142
331
112
  5
120
331
F0
  5
FE
331
81
  5
81
331
C5
  5
D3
331
123
  5
131
331
101
  5
10F
331
E7
  5
F5
331
1D6
  5
AE
331
6D
  5
6D
331
4B
  5
4B
331
92
  5
92
331
1C5
  5
1CC
331
B4
  5
C2
331
D6
  5
E4
331
5C
  5
5C
331
3A
  5
3A
331
29
  5
29
331
132
  5
140
331
110
  5
11E
331
7F
  5
7F
331
C3
  5
D1
331
143
  5
1CA
331
121
  5
12F
331
FF
  5
10D
331
E5
  5
F3
331
1D4
  5
AC
331
6B
  5
6B
331
49
  5
49
331
90
  5
90
331
D4
  5
E2
331
B2
  5
C0
331
5A
  5
5A
331
38
  5
38
331
130
  5
13E
331
7D
  5
7D
331
C1
  5
CF
331
141
  5
1C8
331
11F
  5
12D
331
FD
  5
10B
331
E3
  5
F1
331
1D2
  5
AA
331
69
  5
69
331
47
  5
47
331
8E
  5
8E
331
1C1
  5
1D8
331
B0
  5
BE
331
10E
  5
11C
331
D2
  5
E0
331
58
  5
58
331
36
  5
36
331
7B
  5
7B
331
BF
  5
CD
331
13F
  5
1C6
331
11D
  5
12B
331
FB
  5
109
331
E1
  5
EF
331
1D0
  5
B6
331
67
  5
67
331
45
  5
45
331
8C
  5
8C
331
1BF
  5
1D6
331
AE
  5
BC
331
12E
  5
13C
331
10C
  5
11A
331
D0
  5
DE
331
56
  5
56
331
34
  5
34
331
79
  5
79
331
BD
  5
CB
331
13D
  5
1C4
331
11B
  5
129
331
F9
  5
107
331
DF
  5
ED
331
1CE
  5
B4
331
65
  5
65
331
43
  5
43
331
8A
  5
8A
331
1BD
  5
1D4
331
AC
  5
BA
331
12C
  5
13A
331
10A
  5
118
331
CE
  5
DC
331
76
  5
76
331
54
  5
54
331
32
  5
32
331
BB
  5
C9
331
13B
  5
1C0
331
119
  5
127
331
F7
  5
105
331
DD
  5
EB
331
1CC
  5
B2
331
63
  5
63
331
41
  5
41
331
88
  5
88
331
1BB
  5
1D2
331
AA
  5
B8
331
12A
  5
138
331
108
  5
116
331
EE
  5
FC
331
CC
  5
DA
331
74
  5
74
331
52
  5
52
331
30
  5
30
331
1CA
  5
1D1
331
B9
  5
C7
331
139
  5
1BE
331
117
  5
125
331
F5
  5
103
331
DB
  5
E9
331
61
  5
61
331
86
  5
86
331
128
  5
136
331
106
  5
114
331
EC
  5
FA
331
CA
  5
D8
331
72
  5
72
331
50
  5
50
331
3F
  5
3F
331
2E
  5
2E
331
1C8
  5
1CF
331
137
  5
1BC
331
115
  5
123
331
F3
  5
101
331
D9
  5
E7
331
84
  5
84
331
126
  5
134
331
104
  5
112
331
EA
  5
F8
331
C8
  5
D6
331
70
  5
70
331
4E
  5
4E
331
B7
  5
C5
331
5F
  5
5F
331
3D
  5
3D
331
2C
  5
2C
331
135
  5
143
331
113
  5
121
331
F1
  5
FF
331
82
  5
82
331
C6
  5
D4
331
124
  5
132
331
102
  5
110
331
E8
  5
F6
331
1D7
  5
AF
331
6E
  5
6E
331
4C
  5
4C
331
1C6
  5
1CD
331
B5
  5
C3
331
D7
  5
E5
331
5D
  5
5D
331
3B
  5
3B
331
2A
  5
2A
  0
LAYOUT
  5
21
102
{ACAD_REACTORS
330
1E
102
}
330
1E
100
AcDbPlotSettings
  1

  2
Foxit PDF Printer
  4
Letter
  6

 40
3.174999952316284
 41
3.174999952316284
 42
3.17498779296875
 43
3.175003051757812
 44
279.3999938964844
 45
215.8999938964844
 46
31.47715384821894
 47
24.12875752349356
 48
0.0
 49
0.0
140
0.0
141
0.0
142
1.0
143
1.0
 70
     4
 72
     0
 73
     0
 74
     1
  7

 75
     0
147
1.0
 76
     0
 77
     2
 78
   300
148
-26.25461124795212
149
-20.16000981431432
100
AcDbLayout
  1
Layout1
 70
     0
 71
     1
 10
-0.3306119115190196
 20
-0.2812499079328949
 11
10.66938784818509
 21
8.218749851771214
 12
0.0
 22
0.0
 32
0.0
 14
-0.0909266185249429
 24
-0.1135482522998323
 34
-0.0015258207003583
 15
10.4649508359109
 25
8.016029154163678
 35
0.0000000349246037
146
0.0
 13
0.0
 23
0.0
 33
0.0
 16
1.0
 26
0.0
 36
0.0
 17
0.0
 27
1.0
 37
0.0
 76
     0
330
B
331
177
1001
ACAD_PSEXT
1000
Foxit PDF Printer
1000
Foxit PDF Printer Driver
1000
FOXIT_PDF
1000

1070
     0
  0
LAYOUT
  5
20
102
{ACAD_REACTORS
330
1E
102
}
330
1E
100
AcDbPlotSettings
  1

  2

  4

  6

 40
0.0
 41
0.0
 42
0.0
 43
0.0
 44
0.0
 45
0.0
 46
0.0
 47
0.0
 48
0.0
 49
0.0
140
0.0
141
0.0
142
1.0
143
1.0
 70
  1024
 72
     0
 73
     0
 74
     0
  7

 75
     0
147
1.0
 76
     0
 77
     2
 78
   300
148
0.0
149
0.0
100
AcDbLayout
  1
Model
 70
     0
 71
     0
 10
0.0
 20
0.0
 11
0.0
 21
0.0
 12
0.0
 22
0.0
 32
0.0
 14
0.0
 24
0.0
 34
0.0
 15
0.0
 25
0.0
 35
0.0
146
0.0
 13
0.0
 23
0.0
 33
0.0
 16
0.0
 26
0.0
 36
0.0
 17
0.0
 27
0.0
 37
0.0
 76
     0
330
A
  0
MATERIAL
  5
15D
102
{ACAD_XDICTIONARY
360
1F8
102
}
102
{ACAD_REACTORS
330
15B
102
}
330
15B
100
AcDbMaterial
  1
ByBlock
 73
     1
 78
     1
172
     1
176
     1
270
     1
274
     1
  0
MATERIAL
  5
15C
102
{ACAD_XDICTIONARY
360
1F6
102
}
102
{ACAD_REACTORS
330
15B
102
}
330
15B
100
AcDbMaterial
  1
ByLayer
 73
     1
 78
     1
172
     1
176
     1
270
     1
274
     1
  0
MATERIAL
  5
15E
102
{ACAD_XDICTIONARY
360
1FA
102
}
102
{ACAD_REACTORS
330
15B
102
}
330
15B
100
AcDbMaterial
  1
Global
 73
     1
 78
     1
172
     1
176
     1
270
     1
274
     1
  0
MLEADERSTYLE
  5
1A5
102
{ACAD_REACTORS
330
1A4
102
}
330
1A4
100
AcDbMLeaderStyle
170
     2
171
     1
172
     0
 90
        2
 40
0.0
 41
0.0
173
     1
 91
-1056964608
340
11
 92
       -2
290
     1
 42
0.09
291
     1
 43
0.36
  3
Standard
 44
0.18
300

342
17
174
     1
178
     6
175
     1
176
     0
 93
-1056964608
 45
0.18
292
     0
297
     0
 46
0.18
 94
-1056964608
 47
1.0
 49
1.0
140
1.0
293
     1
141
0.0
294
     1
177
     0
142
1.0
295
     0
296
     0
143
0.125
1001
ACAD_MLEADERVER
1070
     2
  0
MLINESTYLE
  5
1C
102
{ACAD_REACTORS
330
1B
102
}
330
1B
100
AcDbMlineStyle
  2
STANDARD
 70
     0
  3

 62
     0
 51
90.0
 52
90.0
 71
     2
 49
0.5
 62
   256
  6
BYLAYER
 49
-0.5
 62
   256
  6
BYLAYER
  0
ACDBPLACEHOLDER
  5
1D
102
{ACAD_REACTORS
330
1F
102
}
330
1F
  0
SCALE
  5
183
102
{ACAD_REACTORS
330
182
102
}
330
182
100
AcDbScale
 70
     0
300
1:1
140
1.0
141
1.0
290
     1
  0
SCALE
  5
184
102
{ACAD_REACTORS
330
182
102
}
330
182
100
AcDbScale
 70
     0
300
1:2
140
1.0
141
2.0
290
     0
  0
SCALE
  5
185
102
{ACAD_REACTORS
330
182
102
}
330
182
100
AcDbScale
 70
     0
300
1:4
140
1.0
141
4.0
290
     0
  0
SCALE
  5
186
102
{ACAD_REACTORS
330
182
102
}
330
182
100
AcDbScale
 70
     0
300
1:5
140
1.0
141
5.0
290
     0
  0
SCALE
  5
187
102
{ACAD_REACTORS
330
182
102
}
330
182
100
AcDbScale
 70
     0
300
1:8
140
1.0
141
8.0
290
     0
  0
SCALE
  5
188
102
{ACAD_REACTORS
330
182
102
}
330
182
100
AcDbScale
 70
     0
300
1:10
140
1.0
141
10.0
290
     0
  0
SCALE
  5
189
102
{ACAD_REACTORS
330
182
102
}
330
182
100
AcDbScale
 70
     0
300
1:16
140
1.0
141
16.0
290
     0
  0
SCALE
  5
18A
102
{ACAD_REACTORS
330
182
102
}
330
182
100
AcDbScale
 70
     0
300
1:20
140
1.0
141
20.0
290
     0
  0
SCALE
  5
18B
102
{ACAD_REACTORS
330
182
102
}
330
182
100
AcDbScale
 70
     0
300
1:30
140
1.0
141
30.0
290
     0
  0
SCALE
  5
18C
102
{ACAD_REACTORS
330
182
102
}
330
182
100
AcDbScale
 70
     0
300
1:40
140
1.0
141
40.0
290
     0
  0
SCALE
  5
18D
102
{ACAD_REACTORS
330
182
102
}
330
182
100
AcDbScale
 70
     0
300
1:50
140
1.0
141
50.0
290
     0
  0
SCALE
  5
18E
102
{ACAD_REACTORS
330
182
102
}
330
182
100
AcDbScale
 70
     0
300
1:100
140
1.0
141
100.0
290
     0
  0
SCALE
  5
18F
102
{ACAD_REACTORS
330
182
102
}
330
182
100
AcDbScale
 70
     0
300
2:1
140
2.0
141
1.0
290
     0
  0
SCALE
  5
190
102
{ACAD_REACTORS
330
182
102
}
330
182
100
AcDbScale
 70
     0
300
4:1
140
4.0
141
1.0
290
     0
  0
SCALE
  5
191
102
{ACAD_REACTORS
330
182
102
}
330
182
100
AcDbScale
 70
     0
300
8:1
140
8.0
141
1.0
290
     0
  0
SCALE
  5
192
102
{ACAD_REACTORS
330
182
102
}
330
182
100
AcDbScale
 70
     0
300
10:1
140
10.0
141
1.0
290
     0
  0
SCALE
  5
193
102
{ACAD_REACTORS
330
182
102
}
330
182
100
AcDbScale
 70
     0
300
100:1
140
100.0
141
1.0
290
     0
  0
SCALE
  5
194
102
{ACAD_REACTORS
330
182
102
}
330
182
100
AcDbScale
 70
     0
300
1/128" = 1'-0"
140
0.0078125
141
12.0
290
     0
  0
SCALE
  5
195
102
{ACAD_REACTORS
330
182
102
}
330
182
100
AcDbScale
 70
     0
300
1/64" = 1'-0"
140
0.015625
141
12.0
290
     0
  0
SCALE
  5
196
102
{ACAD_REACTORS
330
182
102
}
330
182
100
AcDbScale
 70
     0
300
1/32" = 1'-0"
140
0.03125
141
12.0
290
     0
  0
SCALE
  5
197
102
{ACAD_REACTORS
330
182
102
}
330
182
100
AcDbScale
 70
     0
300
1/16" = 1'-0"
140
0.0625
141
12.0
290
     0
  0
SCALE
  5
198
102
{ACAD_REACTORS
330
182
102
}
330
182
100
AcDbScale
 70
     0
300
3/32" = 1'-0"
140
0.09375
141
12.0
290
     0
  0
SCALE
  5
199
102
{ACAD_REACTORS
330
182
102
}
330
182
100
AcDbScale
 70
     0
300
1/8" = 1'-0"
140
0.125
141
12.0
290
     0
  0
SCALE
  5
19A
102
{ACAD_REACTORS
330
182
102
}
330
182
100
AcDbScale
 70
     0
300
3/16" = 1'-0"
140
0.1875
141
12.0
290
     0
  0
SCALE
  5
19B
102
{ACAD_REACTORS
330
182
102
}
330
182
100
AcDbScale
 70
     0
300
1/4" = 1'-0"
140
0.25
141
12.0
290
     0
  0
SCALE
  5
19C
102
{ACAD_REACTORS
330
182
102
}
330
182
100
AcDbScale
 70
     0
300
3/8" = 1'-0"
140
0.375
141
12.0
290
     0
  0
SCALE
  5
19D
102
{ACAD_REACTORS
330
182
102
}
330
182
100
AcDbScale
 70
     0
300
1/2" = 1'-0"
140
0.5
141
12.0
290
     0
  0
SCALE
  5
19E
102
{ACAD_REACTORS
330
182
102
}
330
182
100
AcDbScale
 70
     0
300
3/4" = 1'-0"
140
0.75
141
12.0
290
     0
  0
SCALE
  5
19F
102
{ACAD_REACTORS
330
182
102
}
330
182
100
AcDbScale
 70
     0
300
1" = 1'-0"
140
1.0
141
12.0
290
     0
  0
SCALE
  5
1A0
102
{ACAD_REACTORS
330
182
102
}
330
182
100
AcDbScale
 70
     0
300
1-1/2" = 1'-0"
140
1.5
141
12.0
290
     0
  0
SCALE
  5
1A1
102
{ACAD_REACTORS
330
182
102
}
330
182
100
AcDbScale
 70
     0
300
3" = 1'-0"
140
3.0
141
12.0
290
     0
  0
SCALE
  5
1A2
102
{ACAD_REACTORS
330
182
102
}
330
182
100
AcDbScale
 70
     0
300
6" = 1'-0"
140
6.0
141
12.0
290
     0
  0
SCALE
  5
1A3
102
{ACAD_REACTORS
330
182
102
}
330
182
100
AcDbScale
 70
     0
300
1'-0" = 1'-0"
140
12.0
141
12.0
290
     0
  0
TABLESTYLE
  5
172
102
{ACAD_XDICTIONARY
360
1F3
102
}
102
{ACAD_REACTORS
330
171
102
}
330
171
100
AcDbTableStyle
  3
Standard
 70
     0
 71
     0
 40
0.06
 41
0.06
280
     0
281
     0
  7
Standard
140
0.18
170
     2
 62
     0
 63
     7
283
     0
274
    -2
284
     1
 64
     0
275
    -2
285
     1
 65
     0
276
    -2
286
     1
 66
     0
277
    -2
287
     1
 67
     0
278
    -2
288
     1
 68
     0
279
    -2
289
     1
 69
     0
  7
Standard
140
0.25
170
     5
 62
     0
 63
     7
283
     0
274
    -2
284
     1
 64
     0
275
    -2
285
     1
 65
     0
276
    -2
286
     1
 66
     0
277
    -2
287
     1
 67
     0
278
    -2
288
     1
 68
     0
279
    -2
289
     1
 69
     0
  7
Standard
140
0.18
170
     5
 62
     0
 63
     7
283
     0
274
    -2
284
     1
 64
     0
275
    -2
285
     1
 65
     0
276
    -2
286
     1
 66
     0
277
    -2
287
     1
 67
     0
278
    -2
288
     1
 68
     0
279
    -2
289
     1
 69
     0
  0
VISUALSTYLE
  5
165
102
{ACAD_REACTORS
330
15F
102
}
330
15F
100
AcDbVisualStyle
  2
2dWireframe
 70
     4
 71
     0
 72
     2
 73
     0
 90
        0
 40
-0.6
 41
-30.0
 62
     5
 63
     7
421
 16777215
 74
     1
 91
        4
 64
     7
 65
   257
 75
     1
175
     1
 42
1.0
 92
        0
 66
   257
 43
1.0
 76
     1
 77
     6
 78
     2
 67
     7
 79
     5
170
     0
171
     0
290
     0
174
     0
 93
        1
 44
0.0
173
     0
291
     0
 45
0.0
1001
ACAD
1000
AcDbSavedByObjectVersion
1070
     0
  0
VISUALSTYLE
  5
167
102
{ACAD_REACTORS
330
15F
102
}
330
15F
100
AcDbVisualStyle
  2
3D Hidden
 70
     6
 71
     1
 72
     2
 73
     2
 90
        0
 40
-0.6
 41
-30.0
 62
     5
 63
     7
421
 16777215
 74
     2
 91
        2
 64
     7
 65
   257
 75
     2
175
     1
 42
40.0
 92
        0
 66
   257
 43
1.0
 76
     1
 77
     6
 78
     2
 67
     7
 79
     3
170
     0
171
     0
290
     0
174
     0
 93
        1
 44
0.0
173
     0
291
     0
 45
0.0
1001
ACAD
1000
AcDbSavedByObjectVersion
1070
     0
  0
VISUALSTYLE
  5
166
102
{ACAD_REACTORS
330
15F
102
}
330
15F
100
AcDbVisualStyle
  2
3dWireframe
 70
     5
 71
     0
 72
     2
 73
     0
 90
        0
 40
-0.6
 41
-30.0
 62
     5
 63
     7
421
 16777215
 74
     1
 91
        4
 64
     7
 65
   257
 75
     1
175
     1
 42
1.0
 92
        0
 66
   257
 43
1.0
 76
     1
 77
     6
 78
     2
 67
     7
 79
     5
170
     0
171
     0
290
     0
174
     0
 93
        1
 44
0.0
173
     0
291
     0
 45
0.0
1001
ACAD
1000
AcDbSavedByObjectVersion
1070
     0
  0
VISUALSTYLE
  5
164
102
{ACAD_REACTORS
330
15F
102
}
330
15F
100
AcDbVisualStyle
  2
Basic
 70
     7
 71
     1
 72
     0
 73
     1
 90
        0
 40
-0.6
 41
-30.0
 62
     5
 63
     7
421
 16777215
 74
     0
 91
        4
 64
     7
 65
   257
 75
     1
175
     1
 42
1.0
 92
        8
 66
     7
 43
1.0
 76
     1
 77
     6
 78
     2
 67
     7
 79
     5
170
     0
171
     0
290
     0
174
     0
 93
        1
 44
0.0
173
     0
291
     1
 45
0.0
1001
ACAD
1000
AcDbSavedByObjectVersion
1070
     0
  0
VISUALSTYLE
  5
16B
102
{ACAD_REACTORS
330
15F
102
}
330
15F
100
AcDbVisualStyle
  2
Brighten
 70
    12
 71
     2
 72
     2
 73
     0
 90
        0
 40
-0.6
 41
-30.0
 62
     5
 63
     7
421
 16777215
 74
     1
 91
        4
 64
     7
 65
   257
 75
     1
175
     1
 42
1.0
 92
        8
 66
     7
 43
1.0
 76
     1
 77
     6
 78
     2
 67
     7
 79
     5
170
     0
171
     0
290
     0
174
     0
 93
        1
 44
50.0
173
     0
291
     1
 45
0.0
1001
ACAD
1000
AcDbSavedByObjectVersion
1070
     0
  0
VISUALSTYLE
  5
16F
102
{ACAD_REACTORS
330
15F
102
}
330
15F
100
AcDbVisualStyle
  2
ColorChange
 70
    16
 71
     2
 72
     2
 73
     3
 90
        0
 40
-0.6
 41
-30.0
 62
     5
 63
     8
421
  8421504
 74
     1
 91
        4
 64
     7
 65
   257
 75
     1
175
     1
 42
1.0
 92
        8
 66
     8
424
  8421504
 43
1.0
 76
     1
 77
     6
 78
     2
 67
     7
 79
     5
170
     0
171
     0
290
     0
174
     0
 93
        1
 44
0.0
173
     0
291
     1
 45
0.0
1001
ACAD
1000
AcDbSavedByObjectVersion
1070
     0
  0
VISUALSTYLE
  5
168
102
{ACAD_REACTORS
330
15F
102
}
330
15F
100
AcDbVisualStyle
  2
Conceptual
 70
     9
 71
     3
 72
     2
 73
     0
 90
        0
 40
-0.6
 41
-30.0
 62
     5
 63
     7
421
 16777215
 74
     2
 91
        2
 64
     7
 65
   257
 75
     1
175
     1
 42
40.0
 92
        8
 66
     7
 43
1.0
 76
     1
 77
     6
 78
     2
 67
     7
 79
     3
170
     0
171
     0
290
     0
174
     0
 93
        1
 44
0.0
173
     0
291
     0
 45
0.0
1001
ACAD
1000
AcDbSavedByObjectVersion
1070
     0
  0
VISUALSTYLE
  5
16A
102
{ACAD_REACTORS
330
15F
102
}
330
15F
100
AcDbVisualStyle
  2
Dim
 70
    11
 71
     2
 72
     2
 73
     0
 90
        0
 40
-0.6
 41
-30.0
 62
     5
 63
     7
421
 16777215
 74
     1
 91
        4
 64
     7
 65
   257
 75
     1
175
     1
 42
1.0
 92
        8
 66
     7
 43
1.0
 76
     1
 77
     6
 78
     2
 67
     7
 79
     5
170
     0
171
     0
290
     0
174
     0
 93
        1
 44
-50.0
173
     0
291
     1
 45
0.0
1001
ACAD
1000
AcDbSavedByObjectVersion
1070
     0
  0
VISUALSTYLE
  5
16E
102
{ACAD_REACTORS
330
15F
102
}
330
15F
100
AcDbVisualStyle
  2
Facepattern
 70
    15
 71
     2
 72
     2
 73
     0
 90
        0
 40
-0.6
 41
-30.0
 62
     5
 63
     7
421
 16777215
 74
     1
 91
        4
 64
     7
 65
   257
 75
     1
175
     1
 42
1.0
 92
        8
 66
     7
 43
1.0
 76
     1
 77
     6
 78
     2
 67
     7
 79
     5
170
     0
171
     0
290
     0
174
     0
 93
        1
 44
0.0
173
     0
291
     1
 45
0.0
1001
ACAD
1000
AcDbSavedByObjectVersion
1070
     0
  0
VISUALSTYLE
  5
160
102
{ACAD_REACTORS
330
15F
102
}
330
15F
100
AcDbVisualStyle
  2
Flat
 70
     0
 71
     2
 72
     1
 73
     1
 90
        2
 40
-0.6
 41
30.0
 62
     5
 63
     7
421
 16777215
 74
     0
 91
        4
 64
     7
 65
   257
 75
     1
175
     1
 42
1.0
 92
        8
 66
     7
 43
1.0
 76
     1
 77
     6
 78
     2
 67
     7
 79
     5
170
     0
171
     0
290
     0
174
     0
 93
       13
 44
0.0
173
     0
291
     1
 45
0.0
1001
ACAD
1000
AcDbSavedByObjectVersion
1070
     0
  0
VISUALSTYLE
  5
161
102
{ACAD_REACTORS
330
15F
102
}
330
15F
100
AcDbVisualStyle
  2
FlatWithEdges
 70
     1
 71
     2
 72
     1
 73
     1
 90
        2
 40
-0.6
 41
30.0
 62
     5
 63
     7
421
 16777215
 74
     1
 91
        4
 64
     7
 65
   257
 75
     1
175
     1
 42
1.0
 92
        0
 66
   257
 43
1.0
 76
     1
 77
     6
 78
     2
 67
     7
 79
     5
170
     0
171
     0
290
     0
174
     0
 93
       13
 44
0.0
173
     0
291
     1
 45
0.0
1001
ACAD
1000
AcDbSavedByObjectVersion
1070
     0
  0
VISUALSTYLE
  5
162
102
{ACAD_REACTORS
330
15F
102
}
330
15F
100
AcDbVisualStyle
  2
Gouraud
 70
     2
 71
     2
 72
     2
 73
     1
 90
        2
 40
-0.6
 41
30.0
 62
     5
 63
     7
421
 16777215
 74
     0
 91
        4
 64
     7
 65
   257
 75
     1
175
     1
 42
1.0
 92
        0
 66
     7
 43
1.0
 76
     1
 77
     6
 78
     2
 67
     7
 79
     5
170
     0
171
     0
290
     0
174
     0
 93
       13
 44
0.0
173
     0
291
     1
 45
0.0
1001
ACAD
1000
AcDbSavedByObjectVersion
1070
     0
  0
VISUALSTYLE
  5
163
102
{ACAD_REACTORS
330
15F
102
}
330
15F
100
AcDbVisualStyle
  2
GouraudWithEdges
 70
     3
 71
     2
 72
     2
 73
     1
 90
        2
 40
-0.6
 41
30.0
 62
     5
 63
     7
421
 16777215
 74
     1
 91
        4
 64
     7
 65
   257
 75
     1
175
     1
 42
1.0
 92
        0
 66
   257
 43
1.0
 76
     1
 77
     6
 78
     2
 67
     7
 79
     5
170
     0
171
     0
290
     0
174
     0
 93
       13
 44
0.0
173
     0
291
     1
 45
0.0
1001
ACAD
1000
AcDbSavedByObjectVersion
1070
     0
  0
VISUALSTYLE
  5
16D
102
{ACAD_REACTORS
330
15F
102
}
330
15F
100
AcDbVisualStyle
  2
Linepattern
 70
    14
 71
     2
 72
     2
 73
     0
 90
        0
 40
-0.6
 41
-30.0
 62
     5
 63
     7
421
 16777215
 74
     1
 91
        4
 64
     7
 65
   257
 75
     7
175
     7
 42
1.0
 92
        8
 66
     7
 43
1.0
 76
     1
 77
     6
 78
     2
 67
     7
 79
     5
170
     0
171
     0
290
     0
174
     0
 93
        1
 44
0.0
173
     0
291
     1
 45
0.0
1001
ACAD
1000
AcDbSavedByObjectVersion
1070
     0
  0
VISUALSTYLE
  5
169
102
{ACAD_REACTORS
330
15F
102
}
330
15F
100
AcDbVisualStyle
  2
Realistic
 70
     8
 71
     2
 72
     2
 73
     0
 90
        0
 40
-0.6
 41
-30.0
 62
     5
 63
     7
421
 16777215
 74
     1
 91
        0
 64
     7
 65
   257
 75
     1
175
     1
 42
1.0
 92
        8
 66
     8
424
  7895160
 43
1.0
 76
     1
 77
     6
 78
     2
 67
     7
 79
     5
170
     0
171
     0
290
     0
174
     0
 93
       13
 44
0.0
173
     0
291
     0
 45
0.0
1001
ACAD
1000
AcDbSavedByObjectVersion
1070
     0
  0
VISUALSTYLE
  5
16C
102
{ACAD_REACTORS
330
15F
102
}
330
15F
100
AcDbVisualStyle
  2
Thicken
 70
    13
 71
     2
 72
     2
 73
     0
 90
        0
 40
-0.6
 41
-30.0
 62
     5
 63
     7
421
 16777215
 74
     1
 91
        4
 64
     7
 65
   257
 75
     1
175
     1
 42
1.0
 92
       12
 66
     7
 43
1.0
 76
     1
 77
     6
 78
     2
 67
     7
 79
     5
170
     0
171
     0
290
     0
174
     0
 93
        1
 44
0.0
173
     0
291
     1
 45
0.0
1001
ACAD
1000
AcDbSavedByObjectVersion
1070
     0
  0
DICTIONARYVAR
  5
1F2
102
{ACAD_REACTORS
330
17F
102
}
330
17F
100
DictionaryVariables
280
     0
  1
1:1
  0
DICTIONARYVAR
  5
1F1
102
{ACAD_REACTORS
330
17F
102
}
330
17F
100
DictionaryVariables
280
     0
  1
STANDARD
  0
DICTIONARYVAR
  5
180
102
{ACAD_REACTORS
330
17F
102
}
330
17F
100
DictionaryVariables
280
     0
  1
STANDARD
  0
XRECORD
  5
17E
102
{ACAD_REACTORS
330
17C
102
}
330
17C
100
AcDbXrecord
280
     1
  0
DICTIONARY
  5
1F8
330
15D
100
AcDbDictionary
280
     1
281
     1
  3
ACAD_XREC_ROUNDTRIP
360
1F9
  0
DICTIONARY
  5
1F6
330
15C
100
AcDbDictionary
280
     1
281
     1
  3
ACAD_XREC_ROUNDTRIP
360
1F7
  0
DICTIONARY
  5
1FA
330
15E
100
AcDbDictionary
280
     1
281
     1
  3
ACAD_XREC_ROUNDTRIP
360
1FB
  0
DICTIONARY
  5
1F3
330
172
100
AcDbDictionary
280
     1
281
     1
  3
ACAD_ROUNDTRIP_2008_TABLESTYLE_CELLSTYLEMAP
360
1F4
  3
ACAD_XREC_ROUNDTRIP
360
1FC
  0
XRECORD
  5
1F9
102
{ACAD_REACTORS
330
1F8
102
}
330
1F8
100
AcDbXrecord
280
     1
102
MATERIAL
148
0.0
149
0.0
149
0.0
 93
        0
 94
       63
282
     0
 72
     1
 77
     1
171
     1
175
     1
179
     1
273
     0
  0
XRECORD
  5
1F7
102
{ACAD_REACTORS
330
1F6
102
}
330
1F6
100
AcDbXrecord
280
     1
102
MATERIAL
148
0.0
149
0.0
149
0.0
 93
        0
 94
       63
282
     0
 72
     1
 77
     1
171
     1
175
     1
179
     1
273
     0
  0
XRECORD
  5
1FB
102
{ACAD_REACTORS
330
1FA
102
}
330
1FA
100
AcDbXrecord
280
     1
102
MATERIAL
148
0.0
149
0.0
149
0.0
 93
        0
 94
       63
282
     0
 72
     1
 77
     1
171
     1
175
     1
179
     1
273
     0
  0
CELLSTYLEMAP
  5
1F4
102
{ACAD_REACTORS
330
1F3
102
}
330
1F3
100
AcDbCellStyleMap
 90
        3
300
CELLSTYLE
  1
TABLEFORMAT_BEGIN
 90
        5
170
     1
 91
        0
 92
    32768
 62
   257
 93
        1
300
CONTENTFORMAT
  1
CONTENTFORMAT_BEGIN
 90
        0
 91
        0
 92
      512
 93
        0
300

 40
0.0
140
1.0
 94
        5
 62
     0
340
17
144
0.25
309
CONTENTFORMAT_END
171
     0
 94
        6
 95
        1
302
GRIDFORMAT
  1
GRIDFORMAT_BEGIN
 90
        0
 91
        1
 62
     0
 92
       -2
340
0
 93
        0
 40
0.045
309
GRIDFORMAT_END
 95
        2
302
GRIDFORMAT
  1
GRIDFORMAT_BEGIN
 90
        0
 91
        1
 62
     0
 92
       -2
340
0
 93
        0
 40
0.045
309
GRIDFORMAT_END
 95
        4
302
GRIDFORMAT
  1
GRIDFORMAT_BEGIN
 90
        0
 91
        1
 62
     0
 92
       -2
340
0
 93
        0
 40
0.045
309
GRIDFORMAT_END
 95
        8
302
GRIDFORMAT
  1
GRIDFORMAT_BEGIN
 90
        0
 91
        1
 62
     0
 92
       -2
340
0
 93
        0
 40
0.045
309
GRIDFORMAT_END
 95
       16
302
GRIDFORMAT
  1
GRIDFORMAT_BEGIN
 90
        0
 91
        1
 62
     0
 92
       -2
340
0
 93
        0
 40
0.045
309
GRIDFORMAT_END
 95
       32
302
GRIDFORMAT
  1
GRIDFORMAT_BEGIN
 90
        0
 91
        1
 62
     0
 92
       -2
340
0
 93
        0
 40
0.045
309
GRIDFORMAT_END
309
TABLEFORMAT_END
  1
CELLSTYLE_BEGIN
 90
        1
 91
        1
300
_TITLE
309
CELLSTYLE_END
300
CELLSTYLE
  1
TABLEFORMAT_BEGIN
 90
        5
170
     1
 91
        0
 92
        0
 62
   257
 93
        1
300
CONTENTFORMAT
  1
CONTENTFORMAT_BEGIN
 90
        0
 91
        0
 92
      512
 93
        0
300

 40
0.0
140
1.0
 94
        5
 62
     0
340
17
144
0.18
309
CONTENTFORMAT_END
171
     0
 94
        6
 95
        1
302
GRIDFORMAT
  1
GRIDFORMAT_BEGIN
 90
        0
 91
        1
 62
     0
 92
       -2
340
0
 93
        0
 40
0.045
309
GRIDFORMAT_END
 95
        2
302
GRIDFORMAT
  1
GRIDFORMAT_BEGIN
 90
        0
 91
        1
 62
     0
 92
       -2
340
0
 93
        0
 40
0.045
309
GRIDFORMAT_END
 95
        4
302
GRIDFORMAT
  1
GRIDFORMAT_BEGIN
 90
        0
 91
        1
 62
     0
 92
       -2
340
0
 93
        0
 40
0.045
309
GRIDFORMAT_END
 95
        8
302
GRIDFORMAT
  1
GRIDFORMAT_BEGIN
 90
        0
 91
        1
 62
     0
 92
       -2
340
0
 93
        0
 40
0.045
309
GRIDFORMAT_END
 95
       16
302
GRIDFORMAT
  1
GRIDFORMAT_BEGIN
 90
        0
 91
        1
 62
     0
 92
       -2
340
0
 93
        0
 40
0.045
309
GRIDFORMAT_END
 95
       32
302
GRIDFORMAT
  1
GRIDFORMAT_BEGIN
 90
        0
 91
        1
 62
     0
 92
       -2
340
0
 93
        0
 40
0.045
309
GRIDFORMAT_END
309
TABLEFORMAT_END
  1
CELLSTYLE_BEGIN
 90
        2
 91
        1
300
_HEADER
309
CELLSTYLE_END
300
CELLSTYLE
  1
TABLEFORMAT_BEGIN
 90
        5
170
     1
 91
        0
 92
        0
 62
   257
 93
        1
300
CONTENTFORMAT
  1
CONTENTFORMAT_BEGIN
 90
        0
 91
        0
 92
      512
 93
        0
300

 40
0.0
140
1.0
 94
        2
 62
     0
340
17
144
0.18
309
CONTENTFORMAT_END
171
     0
 94
        6
 95
        1
302
GRIDFORMAT
  1
GRIDFORMAT_BEGIN
 90
        0
 91
        1
 62
     0
 92
       -2
340
0
 93
        0
 40
0.045
309
GRIDFORMAT_END
 95
        2
302
GRIDFORMAT
  1
GRIDFORMAT_BEGIN
 90
        0
 91
        1
 62
     0
 92
       -2
340
0
 93
        0
 40
0.045
309
GRIDFORMAT_END
 95
        4
302
GRIDFORMAT
  1
GRIDFORMAT_BEGIN
 90
        0
 91
        1
 62
     0
 92
       -2
340
0
 93
        0
 40
0.045
309
GRIDFORMAT_END
 95
        8
302
GRIDFORMAT
  1
GRIDFORMAT_BEGIN
 90
        0
 91
        1
 62
     0
 92
       -2
340
0
 93
        0
 40
0.045
309
GRIDFORMAT_END
 95
       16
302
GRIDFORMAT
  1
GRIDFORMAT_BEGIN
 90
        0
 91
        1
 62
     0
 92
       -2
340
0
 93
        0
 40
0.045
309
GRIDFORMAT_END
 95
       32
302
GRIDFORMAT
  1
GRIDFORMAT_BEGIN
 90
        0
 91
        1
 62
     0
 92
       -2
340
0
 93
        0
 40
0.045
309
GRIDFORMAT_END
309
TABLEFORMAT_END
  1
CELLSTYLE_BEGIN
 90
        3
 91
        2
300
_DATA
309
CELLSTYLE_END
  0
XRECORD
  5
1FC
102
{ACAD_REACTORS
330
1F3
102
}
330
1F3
100
AcDbXrecord
280
     1
102
ACAD_ROUNDTRIP_PRE2007_TABLESTYLE
 90
      512
 91
        0
  1

 92
      512
 93
        0
  2

 94
      512
 95
        0
  3

  0
ENDSEC
  0
EOF
