  0
SECTION
  2
HEADER
  9
$ACADVER
  1
AC1018
  9
$ACADMAINTVER
 70
   104
  9
$DWGCODEPAGE
  3
ANSI_1252
  9
$LASTSAVEDBY
  1
EARL
  9
$INSBASE
 10
0.0
 20
0.0
 30
0.0
  9
$EXTMIN
 10
-8.071934849994899
 20
-0.6007149165395766
 30
0.0
  9
$EXTMAX
 10
4.27718870410424
 20
5.159266138923578
 30
0.0
  9
$LIMMIN
 10
0.0
 20
0.0
  9
$LIMMAX
 10
0.0
 20
0.0
  9
$ORTHOMODE
 70
     1
  9
$REGENMODE
 70
     1
  9
$FILLMODE
 70
     1
  9
$QTEXTMODE
 70
     0
  9
$MIRRTEXT
 70
     1
  9
$LTSCALE
 40
1.0
  9
$ATTMODE
 70
     1
  9
$TEXTSIZE
 40
0.0
  9
$TRACEWID
 40
0.05
  9
$TEXTSTYLE
  7
Standard
  9
$CLAYER
  8
0
  9
$CELTYPE
  6
Continuous
  9
$CECOLOR
 62
   256
  9
$CELTSCALE
 40
1.0
  9
$DISPSILH
 70
     0
  9
$DIMSCALE
 40
1.0
  9
$DIMASZ
 40
0.18
  9
$DIMEXO
 40
0.0625
  9
$DIMDLI
 40
0.38
  9
$DIMRND
 40
0.0
  9
$DIMDLE
 40
0.0
  9
$DIMEXE
 40
0.18
  9
$DIMTP
 40
0.0
  9
$DIMTM
 40
0.0
  9
$DIMTXT
 40
0.18
  9
$DIMCEN
 40
0.09
  9
$DIMTSZ
 40
0.0
  9
$DIMTOL
 70
     0
  9
$DIMLIM
 70
     0
  9
$DIMTIH
 70
     1
  9
$DIMTOH
 70
     1
  9
$DIMSE1
 70
     0
  9
$DIMSE2
 70
     0
  9
$DIMTAD
 70
     0
  9
$DIMZIN
 70
     0
  9
$DIMBLK
  1

  9
$DIMASO
 70
     1
  9
$DIMSHO
 70
     1
  9
$DIMPOST
  1

  9
$DIMAPOST
  1

  9
$DIMALT
 70
     0
  9
$DIMALTD
 70
     2
  9
$DIMALTF
 40
25.4
  9
$DIMLFAC
 40
1.0
  9
$DIMTOFL
 70
     0
  9
$DIMTVP
 40
0.0
  9
$DIMTIX
 70
     0
  9
$DIMSOXD
 70
     0
  9
$DIMSAH
 70
     0
  9
$DIMBLK1
  1

  9
$DIMBLK2
  1

  9
$DIMSTYLE
  2
Standard
  9
$DIMCLRD
 70
     0
  9
$DIMCLRE
 70
     0
  9
$DIMCLRT
 70
     0
  9
$DIMTFAC
 40
1.0
  9
$DIMGAP
 40
0.09
  9
$DIMJUST
 70
     0
  9
$DIMSD1
 70
     0
  9
$DIMSD2
 70
     0
  9
$DIMTOLJ
 70
     1
  9
$DIMTZIN
 70
     0
  9
$DIMALTZ
 70
     0
  9
$DIMALTTZ
 70
     0
  9
$DIMUPT
 70
     0
  9
$DIMDEC
 70
     4
  9
$DIMTDEC
 70
     4
  9
$DIMALTU
 70
     2
  9
$DIMALTTD
 70
     2
  9
$DIMTXSTY
  7
Standard
  9
$DIMAUNIT
 70
     0
  9
$DIMADEC
 70
     0
  9
$DIMALTRND
 40
0.0
  9
$DIMAZIN
 70
     0
  9
$DIMDSEP
 70
    46
  9
$DIMATFIT
 70
     0
  9
$DIMFRAC
 70
     0
  9
$DIMLDRBLK
  1

  9
$DIMLUNIT
 70
     2
  9
$DIMLWD
 70
    -2
  9
$DIMLWE
 70
    -2
  9
$DIMTMOVE
 70
     0
  9
$LUNITS
 70
     2
  9
$LUPREC
 70
     4
  9
$SKETCHINC
 40
0.1
  9
$FILLETRAD
 40
0.0
  9
$AUNITS
 70
     0
  9
$AUPREC
 70
     0
  9
$MENU
  1
acad
  9
$ELEVATION
 40
0.0
  9
$PELEVATION
 40
0.0
  9
$THICKNESS
 40
0.0
  9
$LIMCHECK
 70
     0
  9
$CHAMFERA
 40
0.0
  9
$CHAMFERB
 40
0.0
  9
$CHAMFERC
 40
0.0
  9
$CHAMFERD
 40
0.0
  9
$SKPOLY
 70
     0
  9
$TDCREATE
 40
2454842.784224537
  9
$TDUCREATE
 40
2454842.950891204
  9
$TDUPDATE
 40
2455104.566937570
  9
$TDUUPDATE
 40
2455104.733604236
  9
$TDINDWG
 40
0.0015018866
  9
$TDUSRTIMER
 40
0.0015018866
  9
$USRTIMER
 70
     1
  9
$ANGBASE
 50
0.0
  9
$ANGDIR
 70
     0
  9
$PDMODE
 70
     0
  9
$PDSIZE
 40
0.0
  9
$PLINEWID
 40
0.0
  9
$SPLFRAME
 70
     0
  9
$SPLINETYPE
 70
     6
  9
$SPLINESEGS
 70
     8
  9
$HANDSEED
  5
256
  9
$SURFTAB1
 70
     6
  9
$SURFTAB2
 70
     6
  9
$SURFTYPE
 70
     6
  9
$SURFU
 70
     6
  9
$SURFV
 70
     6
  9
$UCSBASE
  2

  9
$UCSNAME
  2

  9
$UCSORG
 10
0.0
 20
0.0
 30
0.0
  9
$UCSXDIR
 10
1.0
 20
0.0
 30
0.0
  9
$UCSYDIR
 10
0.0
 20
1.0
 30
0.0
  9
$UCSORTHOREF
  2

  9
$UCSORTHOVIEW
 70
     0
  9
$UCSORGTOP
 10
0.0
 20
0.0
 30
0.0
  9
$UCSORGBOTTOM
 10
0.0
 20
0.0
 30
0.0
  9
$UCSORGLEFT
 10
0.0
 20
0.0
 30
0.0
  9
$UCSORGRIGHT
 10
0.0
 20
0.0
 30
0.0
  9
$UCSORGFRONT
 10
0.0
 20
0.0
 30
0.0
  9
$UCSORGBACK
 10
0.0
 20
0.0
 30
0.0
  9
$PUCSBASE
  2

  9
$PUCSNAME
  2

  9
$PUCSORG
 10
0.0
 20
0.0
 30
0.0
  9
$PUCSXDIR
 10
1.0
 20
0.0
 30
0.0
  9
$PUCSYDIR
 10
0.0
 20
1.0
 30
0.0
  9
$PUCSORTHOREF
  2

  9
$PUCSORTHOVIEW
 70
     0
  9
$PUCSORGTOP
 10
0.0
 20
0.0
 30
0.0
  9
$PUCSORGBOTTOM
 10
0.0
 20
0.0
 30
0.0
  9
$PUCSORGLEFT
 10
0.0
 20
0.0
 30
0.0
  9
$PUCSORGRIGHT
 10
0.0
 20
0.0
 30
0.0
  9
$PUCSORGFRONT
 10
0.0
 20
0.0
 30
0.0
  9
$PUCSORGBACK
 10
0.0
 20
0.0
 30
0.0
  9
$USERI1
 70
     0
  9
$USERI2
 70
     0
  9
$USERI3
 70
     0
  9
$USERI4
 70
     0
  9
$USERI5
 70
     0
  9
$USERR1
 40
0.0
  9
$USERR2
 40
0.0
  9
$USERR3
 40
0.0
  9
$USERR4
 40
0.0
  9
$USERR5
 40
0.0
  9
$WORLDVIEW
 70
     1
  9
$SHADEDGE
 70
     3
  9
$SHADEDIF
 70
    70
  9
$TILEMODE
 70
     0
  9
$MAXACTVP
 70
    16
  9
$PINSBASE
 10
0.0
 20
0.0
 30
0.0
  9
$PLIMCHECK
 70
     0
  9
$PEXTMIN
 10
-0.1085505195276539
 20
-0.0960387923252242
 30
-0.0015258207003583
  9
$PEXTMAX
 10
10.48257473691361
 20
7.980361735696885
 30
0.0000000349246037
  9
$PLIMMIN
 10
-0.3306119115190196
 20
-0.2812499079328949
  9
$PLIMMAX
 10
10.66938784818509
 20
8.218749851771214
  9
$UNITMODE
 70
     0
  9
$VISRETAIN
 70
     0
  9
$PLINEGEN
 70
     1
  9
$PSLTSCALE
 70
     0
  9
$TREEDEPTH
 70
  3020
  9
$CMLSTYLE
  2
Standard
  9
$CMLJUST
 70
     0
  9
$CMLSCALE
 40
1.0
  9
$PROXYGRAPHICS
 70
     0
  9
$MEASUREMENT
 70
     0
  9
$CELWEIGHT
370
     0
  9
$ENDCAPS
280
     0
  9
$JOINSTYLE
280
     0
  9
$LWDISPLAY
290
     0
  9
$INSUNITS
 70
     0
  9
$HYPERLINKBASE
  1

  9
$STYLESHEET
  1

  9
$XEDIT
290
     1
  9
$CEPSNTYPE
380
     0
  9
$PSTYLEMODE
290
     1
  9
$FINGERPRINTGUID
  2

  9
$VERSIONGUID
  2
{217A25F8-709D-457B-B015-5CD82FBDDFA1}
  9
$EXTNAMES
290
     1
  9
$PSVPSCALE
 40
0.0
  9
$OLESTARTUP
290
     0
  9
$SORTENTS
280
   127
  9
$INDEXCTL
280
     0
  9
$HIDETEXT
280
     0
  9
$XCLIPFRAME
290
     0
  9
$HALOGAP
280
     0
  9
$OBSCOLOR
 70
   257
  9
$OBSLTYPE
280
     0
  9
$INTERSECTIONDISPLAY
280
     0
  9
$INTERSECTIONCOLOR
 70
   257
  9
$DIMASSOC
280
     1
  9
$PROJECTNAME
  1

  0
ENDSEC
  0
SECTION
  2
CLASSES
  0
CLASS
  1
IMAGE
  2
AcDbRasterImage
  3
ISM
 90
     2175
 91
        0
280
     0
281
     1
  0
CLASS
  1
DICTIONARYVAR
  2
AcDbDictionaryVar
  3
ObjectDBX Classes
 90
        0
 91
        5
280
     0
281
     0
  0
CLASS
  1
RASTERVARIABLES
  2
AcDbRasterVariables
  3
ISM
 90
        0
 91
        0
280
     0
281
     0
  0
CLASS
  1
IMAGEDEF
  2
AcDbRasterImageDef
  3
ISM
 90
        0
 91
        0
280
     0
281
     0
  0
CLASS
  1
IMAGEDEF_REACTOR
  2
AcDbRasterImageDefReactor
  3
ISM
 90
        1
 91
        0
280
     0
281
     0
  0
CLASS
  1
IDBUFFER
  2
AcDbIdBuffer
  3
ObjectDBX Classes
 90
        0
 91
        0
280
     0
281
     0
  0
CLASS
  1
SPATIAL_FILTER
  2
AcDbSpatialFilter
  3
ObjectDBX Classes
 90
        0
 91
        0
280
     0
281
     0
  0
CLASS
  1
SORTENTSTABLE
  2
AcDbSortentsTable
  3
ObjectDBX Classes
 90
        0
 91
        1
280
     0
281
     0
  0
CLASS
  1
LAYER_INDEX
  2
AcDbLayerIndex
  3
ObjectDBX Classes
 90
        0
 91
        0
280
     0
281
     0
  0
CLASS
  1
SPATIAL_INDEX
  2
AcDbSpatialIndex
  3
ObjectDBX Classes
 90
        0
 91
        0
280
     0
281
     0
  0
CLASS
  1
OBJECT_PTR
  2
CAseDLPNTableRecord
  3
ASE-LPNTableRecord
 90
        1
 91
        0
280
     0
281
     0
  0
CLASS
  1
PLOTSETTINGS
  2
AcDbPlotSettings
  3
ObjectDBX Classes
 90
        0
 91
        0
280
     0
281
     0
  0
CLASS
  1
ACDBDICTIONARYWDFLT
  2
AcDbDictionaryWithDefault
  3
ObjectDBX Classes
 90
        0
 91
        1
280
     0
281
     0
  0
CLASS
  1
WIPEOUT
  2
AcDbWipeout
  3
"WipeOut|Product Desc: Object Enabler for WipeOut entity                        |Company: Autodesk, Inc.                        |WEB Address: www.autodesk.com"
 90
     2175
 91
        0
280
     0
281
     1
  0
CLASS
  1
WIPEOUTVARIABLES
  2
AcDbWipeoutVariables
  3
"WipeOut|Product Desc:     WipeOut Dbx Application|Company:          Autodesk, Inc.|WEB Address:      www.autodesk.com"
 90
        0
 91
        1
280
     0
281
     0
  0
CLASS
  1
RTEXT
  2
RText
  3
RText|AutoCAD Express Tool|expresstools@autodesk.com
 90
     3071
 91
        0
280
     0
281
     1
  0
CLASS
  1
ARCALIGNEDTEXT
  2
AcDbArcAlignedText
  3
ATEXT|AutoCAD Express Tool|expresstools@autodesk.com
 90
        0
 91
        0
280
     0
281
     1
  0
CLASS
  1
MATERIAL
  2
AcDbMaterial
  3
ObjectDBX Classes
 90
     1153
 91
        3
280
     0
281
     0
  0
CLASS
  1
VISUALSTYLE
  2
AcDbVisualStyle
  3
ObjectDBX Classes
 90
     4095
 91
       16
280
     0
281
     0
  0
CLASS
  1
TABLESTYLE
  2
AcDbTableStyle
  3
ObjectDBX Classes
 90
     4095
 91
        1
280
     0
281
     0
  0
CLASS
  1
SCALE
  2
AcDbScale
  3
ObjectDBX Classes
 90
     1153
 91
       33
280
     0
281
     0
  0
CLASS
  1
MLEADERSTYLE
  2
AcDbMLeaderStyle
  3
ACDB_MLEADERSTYLE_CLASS
 90
     4095
 91
        1
280
     0
281
     0
  0
CLASS
  1
CELLSTYLEMAP
  2
AcDbCellStyleMap
  3
ObjectDBX Classes
 90
     1152
 91
        2
280
     0
281
     0
  0
ENDSEC
  0
SECTION
  2
TABLES
  0
TABLE
  2
VPORT
  5
7
330
0
100
AcDbSymbolTable
 70
     1
  0
VPORT
  5
15
330
7
100
AcDbSymbolTableRecord
100
AcDbViewportTableRecord
  2
*ACTIVE
 70
     0
 10
0.0
 20
0.0
 11
1.0
 21
1.0
 12
13.89621157632295
 22
4.579183999999999
 13
0.0
 23
0.0
 14
1.0
 24
1.0
 15
0.0
 25
0.0
 16
0.0
 26
0.0
 36
1.0
 17
0.0
 27
0.0
 37
0.0
 40
9.158369
 41
2.283809523809523
 42
50.0
 43
0.0
 44
0.0
 50
0.0
 51
0.0
 71
     0
 72
   100
 73
     1
 74
     1
 75
     0
 76
     0
 77
     0
 78
     0
281
     0
 65
     0
110
0.0
120
0.0
130
0.0
111
1.0
121
0.0
131
0.0
112
0.0
122
1.0
132
0.0
 79
     0
146
0.0
  0
ENDTAB
  0
TABLE
  2
LTYPE
  5
4
330
0
100
AcDbSymbolTable
 70
     5
  0
LTYPE
  5
11
330
4
100
AcDbSymbolTableRecord
100
AcDbLinetypeTableRecord
  2
ByBlock
 70
     0
  3

 72
    65
 73
     0
 40
0.0
  0
LTYPE
  5
12
330
4
100
AcDbSymbolTableRecord
100
AcDbLinetypeTableRecord
  2
ByLayer
 70
     0
  3

 72
    65
 73
     0
 40
0.0
  0
LTYPE
  5
13
330
4
100
AcDbSymbolTableRecord
100
AcDbLinetypeTableRecord
  2
Continuous
 70
     0
  3
Solid line
 72
    65
 73
     0
 40
0.0
  0
LTYPE
  5
24
330
4
100
AcDbSymbolTableRecord
100
AcDbLinetypeTableRecord
  2
solid
 70
     0
  3

 72
    65
 73
     0
 40
0.0
  0
LTYPE
  5
25
330
4
100
AcDbSymbolTableRecord
100
AcDbLinetypeTableRecord
  2
dashed
 70
     0
  3

 72
    65
 73
     0
 40
0.0
  0
LTYPE
  5
26
330
4
100
AcDbSymbolTableRecord
100
AcDbLinetypeTableRecord
  2
center
 70
     0
  3

 72
    65
 73
     0
 40
0.0
  0
ENDTAB
  0
TABLE
  2
LAYER
  5
2
330
0
100
AcDbSymbolTable
 70
     3
  0
LAYER
  5
14
102
{ACAD_XDICTIONARY
360
205
102
}
330
2
100
AcDbSymbolTableRecord
100
AcDbLayerTableRecord
  2
0
 70
     0
 62
     7
  6
Continuous
370
    -3
390
1D
  0
LAYER
  5
27
102
{ACAD_XDICTIONARY
360
207
102
}
330
2
100
AcDbSymbolTableRecord
100
AcDbLayerTableRecord
  2
1
 70
     0
 62
     1
  6
solid
370
    -3
390
1D
  0
LAYER
  5
5C
102
{ACAD_XDICTIONARY
360
209
102
}
330
2
100
AcDbSymbolTableRecord
100
AcDbLayerTableRecord
  2
0
 70
     0
 62
     1
  6
solid
370
    -3
390
1D
  0
ENDTAB
  0
TABLE
  2
STYLE
  5
3
330
0
100
AcDbSymbolTable
 70
     2
  0
STYLE
  5
17
330
3
100
AcDbSymbolTableRecord
100
AcDbTextStyleTableRecord
  2
Standard
 70
     0
 40
0.0
 41
1.0
 50
0.0
 71
     0
 42
0.0
  3
txt
  4

  0
ENDTAB
  0
TABLE
  2
VIEW
  5
5
330
0
100
AcDbSymbolTable
 70
     0
  0
ENDTAB
  0
TABLE
  2
UCS
  5
6
330
0
100
AcDbSymbolTable
 70
     0
  0
ENDTAB
  0
TABLE
  2
APPID
  5
8
330
0
100
AcDbSymbolTable
 70
     5
  0
APPID
  5
16
330
8
100
AcDbSymbolTableRecord
100
AcDbRegAppTableRecord
  2
ACAD
 70
     0
  0
APPID
  5
1D0
330
8
100
AcDbSymbolTableRecord
100
AcDbRegAppTableRecord
  2
ACAD_PSEXT
 70
     0
  0
APPID
  5
1D5
330
8
100
AcDbSymbolTableRecord
100
AcDbRegAppTableRecord
  2
DCO15
 70
     0
  0
APPID
  5
1FE
330
8
100
AcDbSymbolTableRecord
100
AcDbRegAppTableRecord
  2
ACAD_MLEADERVER
 70
     0
  0
APPID
  5
232
330
8
100
AcDbSymbolTableRecord
100
AcDbRegAppTableRecord
  2
ACAD_EXEMPT_FROM_CAD_STANDARDS
 70
     0
  0
ENDTAB
  0
TABLE
  2
DIMSTYLE
  5
9
330
0
100
AcDbSymbolTable
 70
     3
100
AcDbDimStyleTable
 71
     1
340
18
  0
DIMSTYLE
105
18
330
9
100
AcDbSymbolTableRecord
100
AcDbDimStyleTableRecord
  2
Standard
 70
     0
289
     0
340
17
  0
ENDTAB
  0
TABLE
  2
BLOCK_RECORD
  5
1
330
0
100
AcDbSymbolTable
 70
     6
  0
BLOCK_RECORD
  5
A
102
{ACAD_XDICTIONARY
360
21A
102
}
330
1
100
AcDbSymbolTableRecord
100
AcDbBlockTableRecord
  2
*MODEL_SPACE
340
20
  0
BLOCK_RECORD
  5
B
330
1
100
AcDbSymbolTableRecord
100
AcDbBlockTableRecord
  2
*PAPER_SPACE
340
21
  0
BLOCK_RECORD
  5
E6
330
1
100
AcDbSymbolTableRecord
100
AcDbBlockTableRecord
  2
*D0
340
0
  0
BLOCK_RECORD
  5
F1
330
1
100
AcDbSymbolTableRecord
100
AcDbBlockTableRecord
  2
*D1
340
0
  0
BLOCK_RECORD
  5
19C
330
1
100
AcDbSymbolTableRecord
100
AcDbBlockTableRecord
  2
*D2
340
0
  0
BLOCK_RECORD
  5
1A7
330
1
100
AcDbSymbolTableRecord
100
AcDbBlockTableRecord
  2
*D3
340
0
  0
ENDTAB
  0
ENDSEC
  0
SECTION
  2
BLOCKS
  0
BLOCK
  5
D
330
A
100
AcDbEntity
  8
0
100
AcDbBlockBegin
  2
*MODEL_SPACE
 70
     0
 10
0.0
 20
0.0
 30
0.0
  3
*MODEL_SPACE
  1

  0
ENDBLK
  5
E
330
A
100
AcDbEntity
  8
0
100
AcDbBlockEnd
  0
BLOCK
  5
F
330
B
100
AcDbEntity
 67
     1
  8
0
100
AcDbBlockBegin
  2
*PAPER_SPACE
 70
     0
 10
0.0
 20
0.0
 30
0.0
  3
*PAPER_SPACE
  1

  0
ENDBLK
  5
10
330
B
100
AcDbEntity
 67
     1
  8
0
100
AcDbBlockEnd
  0
BLOCK
  5
E7
330
E6
100
AcDbEntity
  8
0
  6
solid
 62
     7
100
AcDbBlockBegin
  2
*D0
 70
     0
 10
0.0
 20
0.0
 30
0.0
  3
*D0
  1

  0
LINE
  5
E8
330
E6
100
AcDbEntity
  8
0
  6
solid
 62
     7
100
AcDbLine
 10
-0.125
 20
0.0
 30
0.0
 11
-0.523517309556012
 21
0.0
 31
0.0
  0
LINE
  5
E9
330
E6
100
AcDbEntity
  8
0
  6
solid
 62
     7
100
AcDbLine
 10
2.591661691665649
 20
4.828767299652099
 30
0.0
 11
-0.5235173095560084
 21
4.828767299652101
 31
0.0
  0
LINE
  5
EA
330
E6
100
AcDbEntity
  8
0
  6
solid
 62
     7
100
AcDbLine
 10
-0.461017309556012
 20
0.0
 30
0.0
 11
-0.4610173095560104
 21
2.094638457518357
 31
0.0
  0
LINE
  5
EB
330
E6
100
AcDbEntity
  8
0
  6
solid
 62
     7
100
AcDbLine
 10
-0.4610173095560084
 20
4.828767299652101
 30
0.0
 11
-0.46101730955601
 21
2.734128842133742
 31
0.0
  0
MTEXT
  5
EC
330
E6
100
AcDbEntity
  8
0
  6
solid
 62
     7
100
AcDbMText
 10
-0.4610173095560102
 20
2.41438364982605
 30
0.0
 40
0.25
 41
0.0
 71
     5
 72
     1
  1
{\H0.250000;4 13/16}
 73
     1
 44
1.0
  0
SOLID
  5
ED
330
E6
100
AcDbEntity
  8
0
  6
solid
 62
     7
100
AcDbTrace
 10
-0.5235173095560118
 20
0.1250000000000001
 30
0.0
 11
-0.3985173095560117
 21
0.1249999999999999
 31
0.0
 12
-0.461017309556012
 22
0.0
 32
0.0
 13
-0.461017309556012
 23
0.0
 33
0.0
  0
SOLID
  5
EE
330
E6
100
AcDbEntity
  8
0
  6
solid
 62
     7
100
AcDbTrace
 10
-0.3985173095560085
 20
4.703767299652101
 30
0.0
 11
-0.5235173095560085
 21
4.703767299652101
 31
0.0
 12
-0.4610173095560084
 22
4.828767299652101
 32
0.0
 13
-0.4610173095560084
 23
4.828767299652101
 33
0.0
  0
ENDBLK
  5
EF
330
E6
100
AcDbEntity
  8
0
  6
solid
 62
     7
100
AcDbBlockEnd
  0
BLOCK
  5
F2
330
F1
100
AcDbEntity
  8
0
  6
solid
 62
     7
100
AcDbBlockBegin
  2
*D1
 70
     0
 10
0.0
 20
0.0
 30
0.0
  3
*D1
  1

  0
LINE
  5
F3
330
F1
100
AcDbEntity
  8
0
  6
solid
 62
     7
100
AcDbLine
 10
0.0
 20
0.125
 30
0.0
 11
0.0
 21
5.096766138923578
 31
0.0
  0
LINE
  5
F4
330
F1
100
AcDbEntity
  8
0
  6
solid
 62
     7
100
AcDbLine
 10
3.346435785293579
 20
4.953767299652099
 30
0.0
 11
3.346435785293579
 21
5.096766138923578
 31
0.0
  0
LINE
  5
F5
330
F1
100
AcDbEntity
  8
0
  6
solid
 62
     7
100
AcDbLine
 10
0.0
 20
5.034266138923578
 30
0.0
 11
1.13907083382326
 21
5.034266138923578
 31
0.0
  0
LINE
  5
F6
330
F1
100
AcDbEntity
  8
0
  6
solid
 62
     7
100
AcDbLine
 10
3.346435785293579
 20
5.034266138923578
 30
0.0
 11
2.207364951470319
 21
5.034266138923578
 31
0.0
  0
MTEXT
  5
F7
330
F1
100
AcDbEntity
  8
0
  6
solid
 62
     7
100
AcDbMText
 10
1.673217892646789
 20
5.034266138923578
 30
0.0
 40
0.25
 41
0.0
 71
     5
 72
     1
  1
{\H0.250000;3 3/8}
 73
     1
 44
1.0
  0
SOLID
  5
F8
330
F1
100
AcDbEntity
  8
0
  6
solid
 62
     7
100
AcDbTrace
 10
0.125
 20
5.096766138923578
 30
0.0
 11
0.125
 21
4.971766138923578
 31
0.0
 12
0.0
 22
5.034266138923578
 32
0.0
 13
0.0
 23
5.034266138923578
 33
0.0
  0
SOLID
  5
F9
330
F1
100
AcDbEntity
  8
0
  6
solid
 62
     7
100
AcDbTrace
 10
3.221435785293579
 20
4.971766138923578
 30
0.0
 11
3.221435785293579
 21
5.096766138923578
 31
0.0
 12
3.346435785293579
 22
5.034266138923578
 32
0.0
 13
3.346435785293579
 23
5.034266138923578
 33
0.0
  0
ENDBLK
  5
FA
330
F1
100
AcDbEntity
  8
0
  6
solid
 62
     7
100
AcDbBlockEnd
  0
BLOCK
  5
19D
330
19C
100
AcDbEntity
  8
0
  6
solid
 62
     7
100
AcDbBlockBegin
  2
*D2
 70
     0
 10
0.0
 20
0.0
 30
0.0
  3
*D2
  1

  0
LINE
  5
19E
330
19C
100
AcDbEntity
  8
0
  6
solid
 62
     7
100
AcDbLine
 10
-7.238729953765869
 20
3.084513187408447
 30
0.0
 11
-7.238729953765869
 21
2.105484742477003
 31
0.0
  0
LINE
  5
19F
330
19C
100
AcDbEntity
  8
0
  6
solid
 62
     7
100
AcDbLine
 10
-1.364049077033996
 20
3.023271322250366
 30
0.0
 11
-1.364049077033996
 21
2.105484742477003
 31
0.0
  0
LINE
  5
1A0
330
19C
100
AcDbEntity
  8
0
  6
solid
 62
     7
100
AcDbLine
 10
-7.238729953765869
 20
2.167984742477003
 30
0.0
 11
-4.301389515399932
 21
2.167984742477003
 31
0.0
  0
LINE
  5
1A1
330
19C
100
AcDbEntity
  8
0
  6
solid
 62
     7
100
AcDbLine
 10
-1.364049077033996
 20
2.167984742477003
 30
0.0
 11
-4.301389515399932
 21
2.167984742477003
 31
0.0
  0
MTEXT
  5
1A2
330
19C
100
AcDbEntity
  8
0
  6
solid
 62
     7
100
AcDbMText
 10
-4.301389515399932
 20
2.271569838630849
 30
0.0
 40
0.125
 41
0.0
 71
     5
 72
     1
  1
{\H0.125000;5 7/8}
 73
     1
 44
1.0
  0
SOLID
  5
1A3
330
19C
100
AcDbEntity
  8
0
  6
solid
 62
     7
100
AcDbTrace
 10
-7.113729953765869
 20
2.188799742477002
 30
0.0
 11
-7.113729953765869
 21
2.147169742477002
 31
0.0
 12
-7.238729953765869
 22
2.167984742477003
 32
0.0
 13
-7.238729953765869
 23
2.167984742477003
 33
0.0
  0
SOLID
  5
1A4
330
19C
100
AcDbEntity
  8
0
  6
solid
 62
     7
100
AcDbTrace
 10
-1.489049077033996
 20
2.147169742477003
 30
0.0
 11
-1.489049077033996
 21
2.188799742477002
 31
0.0
 12
-1.364049077033996
 22
2.167984742477003
 32
0.0
 13
-1.364049077033996
 23
2.167984742477003
 33
0.0
  0
ENDBLK
  5
1A5
330
19C
100
AcDbEntity
  8
0
  6
solid
 62
     7
100
AcDbBlockEnd
  0
BLOCK
  5
1A8
330
1A7
100
AcDbEntity
  8
0
  6
solid
 62
     7
100
AcDbBlockBegin
  2
*D3
 70
     0
 10
0.0
 20
0.0
 30
0.0
  3
*D3
  1

  0
LINE
  5
1A9
330
1A7
100
AcDbEntity
  8
0
  6
solid
 62
     7
100
AcDbLine
 10
-7.010422229766845
 20
2.688179492950439
 30
0.0
 11
-7.4949723499949
 21
2.688179492950439
 31
0.0
  0
LINE
  5
1AA
330
1A7
100
AcDbEntity
  8
0
  6
solid
 62
     7
100
AcDbLine
 10
-3.718047618865966
 20
3.47600769996643
 30
0.0
 11
-7.4949723499949
 21
3.476007699966432
 31
0.0
  0
LINE
  5
1AB
330
1A7
100
AcDbEntity
  8
0
  6
solid
 62
     7
100
AcDbLine
 10
-7.4324723499949
 20
2.688179492950439
 30
0.0
 11
-7.4324723499949
 21
3.082093596458436
 31
0.0
  0
LINE
  5
1AC
330
1A7
100
AcDbEntity
  8
0
  6
solid
 62
     7
100
AcDbLine
 10
-7.4324723499949
 20
3.476007699966432
 30
0.0
 11
-7.4324723499949
 21
3.082093596458436
 31
0.0
  0
MTEXT
  5
1AD
330
1A7
100
AcDbEntity
  8
0
  6
solid
 62
     7
100
AcDbMText
 10
-7.8219348499949
 20
3.082093596458435
 30
0.0
 40
0.125
 41
0.0
 71
     5
 72
     1
  1
{\H0.125000;13/16}
 73
     1
 44
1.0
  0
SOLID
  5
1AE
330
1A7
100
AcDbEntity
  8
0
  6
solid
 62
     7
100
AcDbTrace
 10
-7.4532873499949
 20
2.813179492950439
 30
0.0
 11
-7.4116573499949
 21
2.813179492950439
 31
0.0
 12
-7.4324723499949
 22
2.688179492950439
 32
0.0
 13
-7.4324723499949
 23
2.688179492950439
 33
0.0
  0
SOLID
  5
1AF
330
1A7
100
AcDbEntity
  8
0
  6
solid
 62
     7
100
AcDbTrace
 10
-7.4116573499949
 20
3.351007699966432
 30
0.0
 11
-7.4532873499949
 21
3.351007699966432
 31
0.0
 12
-7.4324723499949
 22
3.476007699966432
 32
0.0
 13
-7.4324723499949
 23
3.476007699966432
 33
0.0
  0
ENDBLK
  5
1B0
330
1A7
100
AcDbEntity
  8
0
  6
solid
 62
     7
100
AcDbBlockEnd
  0
ENDSEC
  0
SECTION
  2
ENTITIES
  0
LINE
  5
28
330
A
100
AcDbEntity
  8
1
  6
solid
 62
     7
100
AcDbLine
 10
0.0000000030697254
 20
-0.0000000083196158
 30
0.0
 11
0.0000000141774544
 21
0.8201179224154381
 31
0.0
  0
LINE
  5
29
330
A
100
AcDbEntity
  8
1
  6
solid
 62
     7
100
AcDbLine
 10
-0.0000001040323259
 20
0.8201179526172809
 30
0.0
 11
2.716661738568634
 21
4.828767217278169
 31
0.0
  0
LINE
  5
2A
330
A
100
AcDbEntity
  8
1
  6
solid
 62
     7
100
AcDbLine
 10
3.346435751811573
 20
4.487466017434049
 30
0.0
 11
3.159096767970916
 21
4.486138882010345
 31
0.0
  0
ARC
  5
2B
330
A
100
AcDbEntity
  8
1
  6
solid
 62
     7
100
AcDbCircle
 10
2.970948419302185
 20
4.372650919458667
 30
0.0
 40
0.2197256007674851
100
AcDbArc
 50
255.6099016129401
 51
391.0976926357624
  0
LINE
  5
2C
330
A
100
AcDbEntity
  8
1
  6
solid
 62
     7
100
AcDbLine
 10
2.916341665193008
 20
4.159819030694753
 30
0.0
 11
2.930367208060447
 21
3.95398763289438
 31
0.0
  0
ARC
  5
2D
330
A
100
AcDbEntity
  8
1
  6
solid
 62
     7
100
AcDbCircle
 10
3.947686205365902
 20
1.976997438207442
 30
0.0
 40
2.223382350054824
100
AcDbArc
 50
117.2294280353018
 51
126.0279404121206
  0
ARC
  5
2E
330
A
100
AcDbEntity
  8
1
  6
solid
 62
     7
100
AcDbCircle
 10
3.360659321490787
 20
2.842465956949459
 30
0.0
 40
1.178673815038852
100
AcDbArc
 50
127.6957290898298
 51
160.1628637605378
  0
ARC
  5
2F
330
A
100
AcDbEntity
  8
1
  6
solid
 62
     7
100
AcDbCircle
 10
4.262660164142812
 20
2.332410769034744
 30
0.0
 40
2.207082382652968
100
AcDbArc
 50
155.6490288462385
 51
166.9265124172857
  0
ARC
  5
30
330
A
100
AcDbEntity
  8
1
  6
solid
 62
     7
100
AcDbCircle
 10
1.25493922972256
 20
2.970636127502175
 30
0.0
 40
0.8690299045997525
100
AcDbArc
 50
283.8952436409494
 51
350.7972989009906
  0
ARC
  5
31
330
A
100
AcDbEntity
  8
1
  6
solid
 62
     7
100
AcDbCircle
 10
1.430074151806564
 20
2.076302944532208
 30
0.0
 40
0.0608296867459892
100
AcDbArc
 50
290.0806966650572
 51
416.5155076555546
  0
ARC
  5
32
330
A
100
AcDbEntity
  8
1
  6
solid
 62
     7
100
AcDbCircle
 10
1.407024295648753
 20
1.957926555763229
 30
0.0
 40
0.0753737734081508
100
AcDbArc
 50
321.5509109033309
 51
414.3452647872484
  0
ARC
  5
33
330
A
100
AcDbEntity
  8
1
  6
solid
 62
     7
100
AcDbCircle
 10
1.362612490216835
 20
1.756887159540835
 30
0.0
 40
0.185657648815077
100
AcDbArc
 50
241.9031123499433
 51
416.1401605433554
  0
ARC
  5
34
330
A
100
AcDbEntity
  8
1
  6
solid
 62
     7
100
AcDbCircle
 10
1.174265637499802
 20
1.579030557598508
 30
0.0
 40
0.1018861006999988
100
AcDbArc
 50
277.5503211390303
 51
367.9423205324608
  0
ARC
  5
35
330
A
100
AcDbEntity
  8
1
  6
solid
 62
     7
100
AcDbCircle
 10
0.4940376665046507
 20
1.477041446415442
 30
0.0
 40
0.6936162269106866
100
AcDbArc
 50
275.8562451302262
 51
360.0814830596418
  0
ARC
  5
36
330
A
100
AcDbEntity
  8
1
  6
solid
 62
     7
100
AcDbCircle
 10
0.4013611678410225
 20
0.7875462790742552
 30
0.0
 40
0.1634489321893784
100
AcDbArc
 50
310.6704038373429
 51
359.8243290851628
  0
ARC
  5
37
330
A
100
AcDbEntity
  8
1
  6
solid
 62
     7
100
AcDbCircle
 10
0.3476208020766047
 20
0.5294196080489721
 30
0.0
 40
0.2090007259961353
100
AcDbArc
 50
258.2008418283324
 51
399.9328568494273
  0
ARC
  5
38
330
A
100
AcDbEntity
  8
1
  6
solid
 62
     7
100
AcDbCircle
 10
0.2243790466693709
 20
0.2917742463766033
 30
0.0
 40
0.0870289990934436
100
AcDbArc
 50
247.7403537993474
 51
382.3263957131912
  0
ARC
  5
39
330
A
100
AcDbEntity
  8
1
  6
solid
 62
     7
100
AcDbCircle
 10
0.0687611415468554
 20
0.130032233311095
 30
0.0
 40
0.1470934271480179
100
AcDbArc
 50
242.1300370334761
 51
393.505803012538
  0
LINE
  5
3A
330
A
100
AcDbEntity
  8
1
  6
solid
 62
     7
100
AcDbLine
 10
3.346435751811573
 20
4.487466017434049
 30
0.0
 11
3.346435751811573
 21
4.828767217278168
 31
0.0
  0
LINE
  5
3B
330
A
100
AcDbEntity
  8
1
  6
solid
 62
     7
100
AcDbLine
 10
3.346435751811573
 20
4.828767217278168
 30
0.0
 11
2.716661738568634
 21
4.828767217278168
 31
0.0
  0
ARC
  5
3C
330
A
100
AcDbEntity
  8
1
  6
solid
 62
     7
100
AcDbCircle
 10
3.725370506674925
 20
3.788997196756014
 30
0.0
 40
0.2197256007674851
100
AcDbArc
 50
255.6099016129401
 51
391.0976926357624
  0
LINE
  5
3D
330
A
100
AcDbEntity
  8
1
  6
solid
 62
     7
100
AcDbLine
 10
3.670763752565749
 20
3.576165307992099
 30
0.0
 11
3.684789295433186
 21
3.370333910191726
 31
0.0
  0
ARC
  5
3E
330
A
100
AcDbEntity
  8
1
  6
solid
 62
     7
100
AcDbCircle
 10
4.702108292738642
 20
1.393343715504788
 30
0.0
 40
2.223382350054824
100
AcDbArc
 50
117.2294280353018
 51
126.0279404121206
  0
ARC
  5
3F
330
A
100
AcDbEntity
  8
1
  6
solid
 62
     7
100
AcDbCircle
 10
4.115081408863527
 20
2.258812234246805
 30
0.0
 40
1.178673815038852
100
AcDbArc
 50
127.6957290898298
 51
160.1628637605378
  0
ARC
  5
40
330
A
100
AcDbEntity
  8
1
  6
solid
 62
     7
100
AcDbCircle
 10
5.017082251515551
 20
1.74875704633209
 30
0.0
 40
2.207082382652968
100
AcDbArc
 50
155.6490288462385
 51
166.9265124172857
  0
ARC
  5
41
330
A
100
AcDbEntity
  8
1
  6
solid
 62
     7
100
AcDbCircle
 10
2.009361317095299
 20
2.386982404799521
 30
0.0
 40
0.8690299045997525
100
AcDbArc
 50
283.8952436409494
 51
350.7972989009906
  0
ARC
  5
42
330
A
100
AcDbEntity
  8
1
  6
solid
 62
     7
100
AcDbCircle
 10
2.184496239179305
 20
1.492649221829555
 30
0.0
 40
0.0608296867459892
100
AcDbArc
 50
290.0806966650572
 51
416.5155076555546
  0
ARC
  5
43
330
A
100
AcDbEntity
  8
1
  6
solid
 62
     7
100
AcDbCircle
 10
2.161446383021493
 20
1.374272833060575
 30
0.0
 40
0.0753737734081508
100
AcDbArc
 50
321.5509109033309
 51
414.3452647872484
  0
ARC
  5
44
330
A
100
AcDbEntity
  8
1
  6
solid
 62
     7
100
AcDbCircle
 10
2.117034577589576
 20
1.173233436838182
 30
0.0
 40
0.185657648815077
100
AcDbArc
 50
241.9031123499433
 51
416.1401605433554
  0
ARC
  5
45
330
A
100
AcDbEntity
  8
1
  6
solid
 62
     7
100
AcDbCircle
 10
1.928687724872542
 20
0.995376834895854
 30
0.0
 40
0.1018861006999988
100
AcDbArc
 50
277.5503211390303
 51
367.9423205324608
  0
ARC
  5
46
330
A
100
AcDbEntity
  8
1
  6
solid
 62
     7
100
AcDbCircle
 10
1.248459753877389
 20
0.8933877237127891
 30
0.0
 40
0.6936162269106866
100
AcDbArc
 50
275.8562451302262
 51
360.0814830596418
  0
ARC
  5
47
330
A
100
AcDbEntity
  8
1
  6
solid
 62
     7
100
AcDbCircle
 10
1.155783255213761
 20
0.2038925563716019
 30
0.0
 40
0.1634489321893784
100
AcDbArc
 50
310.6704038373429
 51
359.8243290851628
  0
ARC
  5
48
330
A
100
AcDbEntity
  8
1
  6
solid
 62
     7
100
AcDbCircle
 10
1.102042889449343
 20
-0.0542341146536812
 30
0.0
 40
0.2090007259961353
100
AcDbArc
 50
258.2008418283324
 51
399.9328568494273
  0
ARC
  5
49
330
A
100
AcDbEntity
  8
1
  6
solid
 62
     7
100
AcDbCircle
 10
0.9788011340421098
 20
-0.2918794763260504
 30
0.0
 40
0.0870289990934436
100
AcDbArc
 50
247.7403537993474
 51
382.3263957131912
  0
ARC
  5
4A
330
A
100
AcDbEntity
  8
1
  6
solid
 62
     7
100
AcDbCircle
 10
0.8231832289195939
 20
-0.4536214893915587
 30
0.0
 40
0.1470934271480179
100
AcDbArc
 50
242.1300370334761
 51
393.505803012538
  0
LINE
  5
4B
330
A
100
AcDbEntity
  8
1
  6
solid
 62
     7
100
AcDbLine
 10
4.100857839184311
 20
3.903812294731394
 30
0.0
 11
4.100857839184311
 21
4.245113494575516
 31
0.0
  0
LINE
  5
4C
330
A
100
AcDbEntity
  8
1
  6
solid
 62
     7
100
AcDbLine
 10
4.100857839184311
 20
3.903812294731394
 30
0.0
 11
3.913518855343657
 21
3.902485159307691
 31
0.0
  0
LINE
  5
4D
330
A
100
AcDbEntity
  8
1
  6
solid
 62
     7
100
AcDbLine
 10
3.346435695886611
 20
4.48746582865715
 30
0.0
 11
4.100857645273207
 21
3.903812378644943
 31
0.0
  0
LINE
  5
4E
330
A
100
AcDbEntity
  8
1
  6
solid
 62
     7
100
AcDbLine
 10
3.159096866846083
 20
4.48613879084587
 30
0.0
 11
3.913518816232681
 21
3.902485340833663
 31
0.0
  0
LINE
  5
4F
330
A
100
AcDbEntity
  8
1
  6
solid
 62
     7
100
AcDbLine
 10
2.916341692209242
 20
4.159819096326827
 30
0.0
 11
3.670763880014418
 21
3.576165169477461
 31
0.0
  0
LINE
  5
50
330
A
100
AcDbEntity
  8
1
  6
solid
 62
     7
100
AcDbLine
 10
2.930367141962051
 20
3.953987568616866
 30
0.0
 11
3.684789091348648
 21
3.370334118604659
 31
0.0
  0
LINE
  5
51
330
A
100
AcDbEntity
  8
1
  6
solid
 62
     7
100
AcDbLine
 10
1.463634520769118
 20
2.1270372569561
 30
0.0
 11
2.218056589365005
 21
1.543383330106735
 31
0.0
  0
LINE
  5
52
330
A
100
AcDbEntity
  8
1
  6
solid
 62
     7
100
AcDbLine
 10
1.450959593057631
 20
2.019171208143234
 30
0.0
 11
2.205381780862807
 21
1.435517400503158
 31
0.0
  0
LINE
  5
53
330
A
100
AcDbEntity
  8
1
  6
solid
 62
     7
100
AcDbLine
 10
1.46605411171913
 20
1.911057919263839
 30
0.0
 11
2.220476299524306
 21
1.327403992414474
 31
0.0
  0
LINE
  5
54
330
A
100
AcDbEntity
  8
1
  6
solid
 62
     7
100
AcDbLine
 10
1.275174409151076
 20
1.593108862638473
 30
0.0
 11
2.029596477746963
 21
1.009455054998397
 31
0.0
  0
LINE
  5
55
330
A
100
AcDbEntity
  8
1
  6
solid
 62
     7
100
AcDbLine
 10
1.187653213739394
 20
1.478027790784835
 30
0.0
 11
1.94207516312599
 21
0.8943741023540493
 31
0.0
  0
LINE
  5
56
330
A
100
AcDbEntity
  8
1
  6
solid
 62
     7
100
AcDbLine
 10
0.5648093521595
 20
0.7870450913906091
 30
0.0
 11
1.319231420755385
 21
0.2033914625644685
 31
0.0
  0
LINE
  5
57
330
A
100
AcDbEntity
  8
1
  6
solid
 62
     7
100
AcDbLine
 10
0.5078819692134857
 20
0.6635750234127043
 30
0.0
 11
1.262304097414015
 21
0.0799212753772737
 31
0.0
  0
LINE
  5
58
330
A
100
AcDbEntity
  8
1
  6
solid
 62
     7
100
AcDbLine
 10
0.3114080727100372
 20
0.2917742431163789
 30
0.0
 11
1.059306055307387
 21
-0.2588187307119369
 31
0.0
  0
LINE
  5
59
330
A
100
AcDbEntity
  8
1
  6
solid
 62
     7
100
AcDbLine
 10
0.1914120614528656
 20
0.2112309038639069
 30
0.0
 11
0.9458341896533958
 21
-0.3724227920174599
 31
0.0
  0
LINE
  5
5A
330
A
100
AcDbEntity
  8
1
  6
solid
 62
     7
100
AcDbLine
 10
0.0000000003683011
 20
-0.0000000002849336
 30
0.0
 11
0.7544219791889189
 21
-0.583653673529625
 31
0.0
  0
LINE
  5
5B
330
A
100
AcDbEntity
  8
1
  6
solid
 62
     7
100
AcDbLine
 10
4.100857645273207
 20
4.245113343000411
 30
0.0
 11
3.346435695886611
 21
4.828767269849777
 31
0.0
  0
LINE
  5
5D
330
A
100
AcDbEntity
  8
0
  6
solid
 62
     7
100
AcDbLine
 10
2.465922224672002
 20
4.292744147929805
 30
0.0
 11
2.465922224672002
 21
4.297373777559434
 31
0.0
  0
SPLINE
  5
5E
330
A
100
AcDbEntity
  8
0
  6
solid
 62
     7
100
AcDbSpline
210
0.0
220
0.0
230
1.0
 70
     8
 71
     2
 72
     6
 73
     3
 74
     0
 42
0.0000000001
 43
0.0000000001
 40
0.0
 40
0.0
 40
0.0
 40
1.0
 40
1.0
 40
1.0
 10
2.465922224672002
 20
4.297373777559434
 30
0.0
 10
2.476092595042372
 20
4.297373777559434
 30
0.0
 10
2.480595804918915
 20
4.3020192096582
 30
0.0
  0
SPLINE
  5
5F
330
A
100
AcDbEntity
  8
0
  6
solid
 62
     7
100
AcDbSpline
210
0.0
220
0.0
230
1.0
 70
     8
 71
     2
 72
     7
 73
     4
 74
     0
 42
0.0000000001
 43
0.0000000001
 40
0.0
 40
0.0
 40
0.0
 40
1.0
 40
2.0
 40
2.0
 40
2.0
 10
2.480595804918915
 20
4.3020192096582
 30
0.0
 10
2.482739508622619
 20
4.304241925707582
 30
0.0
 10
2.485067409857187
 20
4.312932296077953
 30
0.0
 10
2.485067409857187
 20
4.321470073855731
 30
0.0
  0
LINE
  5
60
330
A
100
AcDbEntity
  8
0
  6
solid
 62
     7
100
AcDbLine
 10
2.485067409857187
 20
4.321470073855731
 30
0.0
 11
2.485067409857187
 21
4.388423160275483
 31
0.0
  0
SPLINE
  5
61
330
A
100
AcDbEntity
  8
0
  6
solid
 62
     7
100
AcDbSpline
210
0.0
220
0.0
230
1.0
 70
     8
 71
     2
 72
     7
 73
     4
 74
     0
 42
0.0000000001
 43
0.0000000001
 40
0.0
 40
0.0
 40
0.0
 40
1.0
 40
2.0
 40
2.0
 40
2.0
 10
2.485067409857187
 20
4.388423160275483
 30
0.0
 10
2.485067409857187
 20
4.397682419534743
 30
0.0
 10
2.482644693807804
 20
4.405967357806348
 30
0.0
 10
2.479811113560891
 20
4.408721925707583
 30
0.0
  0
SPLINE
  5
62
330
A
100
AcDbEntity
  8
0
  6
solid
 62
     7
100
AcDbSpline
210
0.0
220
0.0
230
1.0
 70
     8
 71
     2
 72
     7
 73
     4
 74
     0
 42
0.0000000001
 43
0.0000000001
 40
0.0
 40
0.0
 40
0.0
 40
1.0
 40
2.0
 40
2.0
 40
2.0
 10
2.479811113560891
 20
4.408721925707583
 30
0.0
 10
2.477809632079409
 20
4.410628592374249
 30
0.0
 10
2.471968644425088
 20
4.412472049164373
 30
0.0
 10
2.465922224672002
 20
4.413146123238447
 30
0.0
  0
LINE
  5
63
330
A
100
AcDbEntity
  8
0
  6
solid
 62
     7
100
AcDbLine
 10
2.465922224672002
 20
4.413146123238447
 30
0.0
 11
2.465922224672002
 21
4.417744147929805
 31
0.0
  0
LINE
  5
64
330
A
100
AcDbEntity
  8
0
  6
solid
 62
     7
100
AcDbLine
 10
2.465922224672002
 20
4.417744147929805
 30
0.0
 11
2.526986916030026
 21
4.417744147929805
 31
0.0
  0
LINE
  5
65
330
A
100
AcDbEntity
  8
0
  6
solid
 62
     7
100
AcDbLine
 10
2.526986916030026
 20
4.417744147929805
 30
0.0
 11
2.526986916030026
 21
4.413225135584125
 31
0.0
  0
SPLINE
  5
66
330
A
100
AcDbEntity
  8
0
  6
solid
 62
     7
100
AcDbSpline
210
0.0
220
0.0
230
1.0
 70
     8
 71
     2
 72
     7
 73
     4
 74
     0
 42
0.0000000001
 43
0.0000000001
 40
0.0
 40
0.0
 40
0.0
 40
1.0
 40
2.0
 40
2.0
 40
2.0
 10
2.526986916030026
 20
4.413225135584125
 30
0.0
 10
2.51965012590657
 20
4.412440444226101
 30
0.0
 10
2.514751854301632
 20
4.410770814596471
 30
0.0
 10
2.512076298746076
 20
4.408658715831039
 30
0.0
  0
SPLINE
  5
67
330
A
100
AcDbEntity
  8
0
  6
solid
 62
     7
100
AcDbSpline
210
0.0
220
0.0
230
1.0
 70
     8
 71
     2
 72
     7
 73
     4
 74
     0
 42
0.0000000001
 43
0.0000000001
 40
0.0
 40
0.0
 40
0.0
 40
1.0
 40
2.0
 40
2.0
 40
2.0
 10
2.512076298746076
 20
4.408658715831039
 30
0.0
 10
2.510122224672002
 20
4.406204394843385
 30
0.0
 10
2.508215558005335
 20
4.397761431880422
 30
0.0
 10
2.508215558005335
 20
4.387796493608817
 30
0.0
  0
LINE
  5
68
330
A
100
AcDbEntity
  8
0
  6
solid
 62
     7
100
AcDbLine
 10
2.508215558005335
 20
4.387796493608817
 30
0.0
 11
2.508215558005335
 21
4.33596982694215
 31
0.0
  0
SPLINE
  5
69
330
A
100
AcDbEntity
  8
0
  6
solid
 62
     7
100
AcDbSpline
210
0.0
220
0.0
230
1.0
 70
     8
 71
     2
 72
     7
 73
     4
 74
     0
 42
0.0000000001
 43
0.0000000001
 40
0.0
 40
0.0
 40
0.0
 40
1.0
 40
2.0
 40
2.0
 40
2.0
 10
2.508215558005335
 20
4.33596982694215
 30
0.0
 10
2.508215558005335
 20
4.323608345460669
 30
0.0
 10
2.509021483931261
 20
4.311847357806348
 30
0.0
 10
2.510533088869533
 20
4.308760938053262
 30
0.0
  0
SPLINE
  5
6A
330
A
100
AcDbEntity
  8
0
  6
solid
 62
     7
100
AcDbSpline
210
0.0
220
0.0
230
1.0
 70
     8
 71
     2
 72
     7
 73
     4
 74
     0
 42
0.0000000001
 43
0.0000000001
 40
0.0
 40
0.0
 40
0.0
 40
1.0
 40
2.0
 40
2.0
 40
2.0
 10
2.510533088869533
 20
4.308760938053262
 30
0.0
 10
2.513635311091755
 20
4.302398468917459
 30
0.0
 10
2.524374570351014
 20
4.297373777559434
 30
0.0
 10
2.533649632079409
 20
4.297373777559434
 30
0.0
  0
SPLINE
  5
6B
330
A
100
AcDbEntity
  8
0
  6
solid
 62
     7
100
AcDbSpline
210
0.0
220
0.0
230
1.0
 70
     8
 71
     2
 72
     7
 73
     4
 74
     0
 42
0.0000000001
 43
0.0000000001
 40
0.0
 40
0.0
 40
0.0
 40
1.0
 40
2.0
 40
2.0
 40
2.0
 10
2.533649632079409
 20
4.297373777559434
 30
0.0
 10
2.544215064178175
 20
4.297373777559434
 30
0.0
 10
2.558151360474471
 20
4.302524888670546
 30
0.0
 10
2.562654570351014
 20
4.308365876324867
 30
0.0
  0
SPLINE
  5
6C
330
A
100
AcDbEntity
  8
0
  6
solid
 62
     7
100
AcDbSpline
210
0.0
220
0.0
230
1.0
 70
     8
 71
     2
 72
     7
 73
     4
 74
     0
 42
0.0000000001
 43
0.0000000001
 40
0.0
 40
0.0
 40
0.0
 40
1.0
 40
2.0
 40
2.0
 40
2.0
 10
2.562654570351014
 20
4.308365876324867
 30
0.0
 10
2.565693582696693
 20
4.311973777559434
 30
0.0
 10
2.569333088869532
 20
4.322238962744619
 30
0.0
 10
2.571676792573236
 20
4.331703654102645
 30
0.0
  0
LINE
  5
6D
330
A
100
AcDbEntity
  8
0
  6
solid
 62
     7
100
AcDbLine
 10
2.571676792573236
 20
4.331703654102645
 30
0.0
 11
2.57766000244978
 21
4.331371802250792
 31
0.0
  0
LINE
  5
6E
330
A
100
AcDbEntity
  8
0
  6
solid
 62
     7
100
AcDbLine
 10
2.57766000244978
 20
4.331371802250792
 30
0.0
 11
2.57766000244978
 21
4.292744147929805
 31
0.0
  0
LINE
  5
6F
330
A
100
AcDbEntity
  8
0
  6
solid
 62
     7
100
AcDbLine
 10
2.465922224672002
 20
4.292744147929805
 30
0.0
 11
2.57766000244978
 21
4.292744147929805
 31
0.0
  0
SPLINE
  5
70
330
A
100
AcDbEntity
  8
0
  6
solid
 62
     7
100
AcDbSpline
210
0.0
220
0.0
230
1.0
 70
     8
 71
     2
 72
     7
 73
     4
 74
     0
 42
0.0000000001
 43
0.0000000001
 40
0.0
 40
0.0
 40
0.0
 40
1.0
 40
2.0
 40
2.0
 40
2.0
 10
2.587063335783113
 20
4.296778715831039
 30
0.0
 10
2.593894446894224
 20
4.297515999781657
 30
0.0
 10
2.599203582696693
 20
4.299454271386595
 30
0.0
 10
2.601736916030026
 20
4.302066617065607
 30
0.0
  0
SPLINE
  5
71
330
A
100
AcDbEntity
  8
0
  6
solid
 62
     7
100
AcDbSpline
210
0.0
220
0.0
230
1.0
 70
     8
 71
     2
 72
     7
 73
     4
 74
     0
 42
0.0000000001
 43
0.0000000001
 40
0.0
 40
0.0
 40
0.0
 40
1.0
 40
2.0
 40
2.0
 40
2.0
 10
2.601736916030026
 20
4.302066617065607
 30
0.0
 10
2.60388061973373
 20
4.304305135584126
 30
0.0
 10
2.606208520968298
 20
4.31297970348536
 30
0.0
 10
2.606208520968298
 20
4.321517481263138
 30
0.0
  0
LINE
  5
72
330
A
100
AcDbEntity
  8
0
  6
solid
 62
     7
100
AcDbLine
 10
2.606208520968298
 20
4.321517481263138
 30
0.0
 11
2.606208520968298
 21
4.388438962744619
 31
0.0
  0
SPLINE
  5
73
330
A
100
AcDbEntity
  8
0
  6
solid
 62
     7
100
AcDbSpline
210
0.0
220
0.0
230
1.0
 70
     8
 71
     2
 72
     7
 73
     4
 74
     0
 42
0.0000000001
 43
0.0000000001
 40
0.0
 40
0.0
 40
0.0
 40
1.0
 40
2.0
 40
2.0
 40
2.0
 10
2.606208520968298
 20
4.388438962744619
 30
0.0
 10
2.606208520968298
 20
4.397982666448323
 30
0.0
 10
2.603690990104101
 20
4.406235999781657
 30
0.0
 10
2.600588767881878
 20
4.409037975090298
 30
0.0
  0
SPLINE
  5
74
330
A
100
AcDbEntity
  8
0
  6
solid
 62
     7
100
AcDbSpline
210
0.0
220
0.0
230
1.0
 70
     8
 71
     2
 72
     6
 73
     3
 74
     0
 42
0.0000000001
 43
0.0000000001
 40
0.0
 40
0.0
 40
0.0
 40
1.0
 40
1.0
 40
1.0
 10
2.600588767881878
 20
4.409037975090298
 30
0.0
 10
2.596401607388051
 20
4.412298222003879
 30
0.0
 10
2.587063335783113
 20
4.413161925707583
 30
0.0
  0
LINE
  5
75
330
A
100
AcDbEntity
  8
0
  6
solid
 62
     7
100
AcDbLine
 10
2.587063335783113
 20
4.413161925707583
 30
0.0
 11
2.587063335783113
 21
4.417744147929805
 31
0.0
  0
LINE
  5
76
330
A
100
AcDbEntity
  8
0
  6
solid
 62
     7
100
AcDbLine
 10
2.587063335783113
 20
4.417744147929805
 30
0.0
 11
2.637467780227557
 21
4.417744147929805
 31
0.0
  0
SPLINE
  5
77
330
A
100
AcDbEntity
  8
0
  6
solid
 62
     7
100
AcDbSpline
210
0.0
220
0.0
230
1.0
 70
     8
 71
     2
 72
     6
 73
     3
 74
     0
 42
0.0000000001
 43
0.0000000001
 40
0.0
 40
0.0
 40
0.0
 40
1.0
 40
1.0
 40
1.0
 10
2.637467780227557
 20
4.417744147929805
 30
0.0
 10
2.653437162943607
 20
4.417196493608817
 30
0.0
 10
2.657971977758422
 20
4.41695945657178
 30
0.0
  0
SPLINE
  5
78
330
A
100
AcDbEntity
  8
0
  6
solid
 62
     7
100
AcDbSpline
210
0.0
220
0.0
230
1.0
 70
     8
 71
     2
 72
     6
 73
     3
 74
     0
 42
0.0000000001
 43
0.0000000001
 40
0.0
 40
0.0
 40
0.0
 40
1.0
 40
1.0
 40
1.0
 10
2.657971977758422
 20
4.41695945657178
 30
0.0
 10
2.677923088869533
 20
4.415432049164373
 30
0.0
 10
2.691353706153483
 20
4.406030567682891
 30
0.0
  0
SPLINE
  5
79
330
A
100
AcDbEntity
  8
0
  6
solid
 62
     7
100
AcDbSpline
210
0.0
220
0.0
230
1.0
 70
     8
 71
     2
 72
     7
 73
     4
 74
     0
 42
0.0000000001
 43
0.0000000001
 40
0.0
 40
0.0
 40
0.0
 40
1.0
 40
2.0
 40
2.0
 40
2.0
 10
2.691353706153483
 20
4.406030567682891
 30
0.0
 10
2.704378891338668
 20
4.396534271386594
 30
0.0
 10
2.718862841955953
 20
4.367308098547089
 30
0.0
 10
2.718862841955953
 20
4.350427604719929
 30
0.0
  0
SPLINE
  5
7A
330
A
100
AcDbEntity
  8
0
  6
solid
 62
     7
100
AcDbSpline
210
0.0
220
0.0
230
1.0
 70
     8
 71
     2
 72
     7
 73
     4
 74
     0
 42
0.0000000001
 43
0.0000000001
 40
0.0
 40
0.0
 40
0.0
 40
1.0
 40
2.0
 40
2.0
 40
2.0
 10
2.718862841955953
 20
4.350427604719929
 30
0.0
 10
2.718862841955953
 20
4.338097728176718
 30
0.0
 10
2.710472718499162
 20
4.316113530645854
 30
0.0
 10
2.702756669116446
 20
4.308192049164373
 30
0.0
  0
SPLINE
  5
7B
330
A
100
AcDbEntity
  8
0
  6
solid
 62
     7
100
AcDbSpline
210
0.0
220
0.0
230
1.0
 70
     8
 71
     2
 72
     6
 73
     3
 74
     0
 42
0.0000000001
 43
0.0000000001
 40
0.0
 40
0.0
 40
0.0
 40
1.0
 40
1.0
 40
1.0
 10
2.702756669116446
 20
4.308192049164373
 30
0.0
 10
2.69307074319052
 20
4.297705629411286
 30
0.0
 10
2.676616916030027
 20
4.294635012127336
 30
0.0
  0
SPLINE
  5
7C
330
A
100
AcDbEntity
  8
0
  6
solid
 62
     7
100
AcDbSpline
210
0.0
220
0.0
230
1.0
 70
     8
 71
     2
 72
     6
 73
     3
 74
     0
 42
0.0000000001
 43
0.0000000001
 40
0.0
 40
0.0
 40
0.0
 40
1.0
 40
1.0
 40
1.0
 10
2.676616916030027
 20
4.294635012127336
 30
0.0
 10
2.66564061973373
 20
4.292744147929805
 30
0.0
 10
2.654221854301631
 20
4.292744147929805
 30
0.0
  0
LINE
  5
7D
330
A
100
AcDbEntity
  8
0
  6
solid
 62
     7
100
AcDbLine
 10
2.654221854301631
 20
4.292744147929805
 30
0.0
 11
2.587063335783113
 21
4.292744147929805
 31
0.0
  0
LINE
  5
7E
330
A
100
AcDbEntity
  8
0
  6
solid
 62
     7
100
AcDbLine
 10
2.587063335783113
 20
4.296778715831039
 30
0.0
 11
2.587063335783113
 21
4.292744147929805
 31
0.0
  0
LINE
  5
7F
330
A
100
AcDbEntity
  8
0
  6
solid
 62
     7
100
AcDbLine
 10
2.629356669116446
 20
4.411571308423632
 30
0.0
 11
2.629356669116446
 21
4.323861184966841
 31
0.0
  0
SPLINE
  5
80
330
A
100
AcDbEntity
  8
0
  6
solid
 62
     7
100
AcDbSpline
210
0.0
220
0.0
230
1.0
 70
     8
 71
     2
 72
     7
 73
     4
 74
     0
 42
0.0000000001
 43
0.0000000001
 40
0.0
 40
0.0
 40
0.0
 40
1.0
 40
2.0
 40
2.0
 40
2.0
 10
2.629356669116446
 20
4.323861184966841
 30
0.0
 10
2.629356669116446
 20
4.314823160275484
 30
0.0
 10
2.631168520968298
 20
4.305816740522398
 30
0.0
 10
2.633027780227557
 20
4.303704641756965
 30
0.0
  0
SPLINE
  5
81
330
A
100
AcDbEntity
  8
0
  6
solid
 62
     7
100
AcDbSpline
210
0.0
220
0.0
230
1.0
 70
     8
 71
     2
 72
     6
 73
     3
 74
     0
 42
0.0000000001
 43
0.0000000001
 40
0.0
 40
0.0
 40
0.0
 40
1.0
 40
1.0
 40
1.0
 10
2.633027780227557
 20
4.303704641756965
 30
0.0
 10
2.638647533313977
 20
4.297373777559434
 30
0.0
 10
2.649702841955952
 20
4.297373777559434
 30
0.0
  0
SPLINE
  5
82
330
A
100
AcDbEntity
  8
0
  6
solid
 62
     7
100
AcDbSpline
210
0.0
220
0.0
230
1.0
 70
     8
 71
     2
 72
     7
 73
     4
 74
     0
 42
0.0000000001
 43
0.0000000001
 40
0.0
 40
0.0
 40
0.0
 40
1.0
 40
2.0
 40
2.0
 40
2.0
 10
2.649702841955952
 20
4.297373777559434
 30
0.0
 10
2.660505311091755
 20
4.297373777559434
 30
0.0
 10
2.675810990104101
 20
4.304068098547088
 30
0.0
 10
2.681857409857187
 20
4.311863160275484
 30
0.0
  0
SPLINE
  5
83
330
A
100
AcDbEntity
  8
0
  6
solid
 62
     7
100
AcDbSpline
210
0.0
220
0.0
230
1.0
 70
     8
 71
     2
 72
     7
 73
     4
 74
     0
 42
0.0000000001
 43
0.0000000001
 40
0.0
 40
0.0
 40
0.0
 40
1.0
 40
2.0
 40
2.0
 40
2.0
 10
2.681857409857187
 20
4.311863160275484
 30
0.0
 10
2.687371977758421
 20
4.319563407189064
 30
0.0
 10
2.694171483931261
 20
4.339546123238447
 30
0.0
 10
2.694171483931261
 20
4.350585629411286
 30
0.0
  0
SPLINE
  5
84
330
A
100
AcDbEntity
  8
0
  6
solid
 62
     7
100
AcDbSpline
210
0.0
220
0.0
230
1.0
 70
     8
 71
     2
 72
     7
 73
     4
 74
     0
 42
0.0000000001
 43
0.0000000001
 40
0.0
 40
0.0
 40
0.0
 40
1.0
 40
2.0
 40
2.0
 40
2.0
 10
2.694171483931261
 20
4.350585629411286
 30
0.0
 10
2.694171483931261
 20
4.362994518300175
 30
0.0
 10
2.686518644425088
 20
4.38570019731252
 30
0.0
 10
2.679229261709039
 20
4.393842913361903
 30
0.0
  0
SPLINE
  5
85
330
A
100
AcDbEntity
  8
0
  6
solid
 62
     7
100
AcDbSpline
210
0.0
220
0.0
230
1.0
 70
     8
 71
     2
 72
     6
 73
     3
 74
     0
 42
0.0000000001
 43
0.0000000001
 40
0.0
 40
0.0
 40
0.0
 40
1.0
 40
1.0
 40
1.0
 10
2.679229261709039
 20
4.393842913361903
 30
0.0
 10
2.669638150597928
 20
4.405682913361903
 30
0.0
 10
2.656017903684348
 20
4.409180197312521
 30
0.0
  0
SPLINE
  5
86
330
A
100
AcDbEntity
  8
0
  6
solid
 62
     7
100
AcDbSpline
210
0.0
220
0.0
230
1.0
 70
     8
 71
     2
 72
     6
 73
     3
 74
     0
 42
0.0000000001
 43
0.0000000001
 40
0.0
 40
0.0
 40
0.0
 40
1.0
 40
1.0
 40
1.0
 10
2.656017903684348
 20
4.409180197312521
 30
0.0
 10
2.648459878992989
 20
4.411571308423632
 30
0.0
 10
2.637183335783113
 20
4.411571308423632
 30
0.0
  0
LINE
  5
87
330
A
100
AcDbEntity
  8
0
  6
solid
 62
     7
100
AcDbLine
 10
2.629356669116446
 20
4.411571308423632
 30
0.0
 11
2.637183335783113
 21
4.411571308423632
 31
0.0
  0
SPLINE
  5
88
330
A
100
AcDbEntity
  8
0
  6
solid
 62
     7
100
AcDbSpline
210
0.0
220
0.0
230
1.0
 70
     8
 71
     2
 72
     6
 73
     3
 74
     0
 42
0.0000000001
 43
0.0000000001
 40
0.0
 40
0.0
 40
0.0
 40
1.0
 40
1.0
 40
1.0
 10
2.782025681462125
 20
4.358380691139681
 30
0.0
 10
2.810682965412743
 20
4.351970814596471
 30
0.0
 10
2.810682965412743
 20
4.328727851633509
 30
0.0
  0
SPLINE
  5
89
330
A
100
AcDbEntity
  8
0
  6
solid
 62
     7
100
AcDbSpline
210
0.0
220
0.0
230
1.0
 70
     8
 71
     2
 72
     6
 73
     3
 74
     0
 42
0.0000000001
 43
0.0000000001
 40
0.0
 40
0.0
 40
0.0
 40
1.0
 40
1.0
 40
1.0
 10
2.810682965412743
 20
4.328727851633509
 30
0.0
 10
2.810682965412743
 20
4.320964394843385
 30
0.0
 10
2.80659061973373
 20
4.313200938053261
 30
0.0
  0
SPLINE
  5
8A
330
A
100
AcDbEntity
  8
0
  6
solid
 62
     7
100
AcDbSpline
210
0.0
220
0.0
230
1.0
 70
     8
 71
     2
 72
     7
 73
     4
 74
     0
 42
0.0000000001
 43
0.0000000001
 40
0.0
 40
0.0
 40
0.0
 40
1.0
 40
2.0
 40
2.0
 40
2.0
 10
2.80659061973373
 20
4.313200938053261
 30
0.0
 10
2.801771360474471
 20
4.302888345460669
 30
0.0
 10
2.779097286400397
 20
4.291200938053261
 30
0.0
 10
2.764639508622619
 20
4.291200938053261
 30
0.0
  0
SPLINE
  5
8B
330
A
100
AcDbEntity
  8
0
  6
solid
 62
     7
100
AcDbSpline
210
0.0
220
0.0
230
1.0
 70
     8
 71
     2
 72
     7
 73
     4
 74
     0
 42
0.0000000001
 43
0.0000000001
 40
0.0
 40
0.0
 40
0.0
 40
1.0
 40
2.0
 40
2.0
 40
2.0
 10
2.764639508622619
 20
4.291200938053261
 30
0.0
 10
2.755885928375706
 20
4.291200938053261
 30
0.0
 10
2.741380743190521
 20
4.295941184966841
 30
0.0
 10
2.736719508622619
 20
4.299786123238447
 30
0.0
  0
SPLINE
  5
8C
330
A
100
AcDbEntity
  8
0
  6
solid
 62
     7
100
AcDbSpline
210
0.0
220
0.0
230
1.0
 70
     8
 71
     2
 72
     7
 73
     4
 74
     0
 42
0.0000000001
 43
0.0000000001
 40
0.0
 40
0.0
 40
0.0
 40
1.0
 40
2.0
 40
2.0
 40
2.0
 10
2.736719508622619
 20
4.299786123238447
 30
0.0
 10
2.73269037282015
 20
4.303594024473015
 30
0.0
 10
2.728892841955953
 20
4.312837481263138
 30
0.0
 10
2.728892841955953
 20
4.317577728176718
 30
0.0
  0
SPLINE
  5
8D
330
A
100
AcDbEntity
  8
0
  6
solid
 62
     7
100
AcDbSpline
210
0.0
220
0.0
230
1.0
 70
     8
 71
     2
 72
     7
 73
     4
 74
     0
 42
0.0000000001
 43
0.0000000001
 40
0.0
 40
0.0
 40
0.0
 40
1.0
 40
2.0
 40
2.0
 40
2.0
 10
2.728892841955953
 20
4.317577728176718
 30
0.0
 10
2.728892841955953
 20
4.325673036818693
 30
0.0
 10
2.740106175289286
 20
4.337497234349558
 30
0.0
 10
2.751035064178175
 20
4.337497234349558
 30
0.0
  0
LINE
  5
8E
330
A
100
AcDbEntity
  8
0
  6
solid
 62
     7
100
AcDbLine
 10
2.751035064178175
 20
4.337497234349558
 30
0.0
 11
2.7520409901041
 21
4.333657728176718
 31
0.0
  0
SPLINE
  5
8F
330
A
100
AcDbEntity
  8
0
  6
solid
 62
     7
100
AcDbSpline
210
0.0
220
0.0
230
1.0
 70
     8
 71
     2
 72
     7
 73
     4
 74
     0
 42
0.0000000001
 43
0.0000000001
 40
0.0
 40
0.0
 40
0.0
 40
1.0
 40
2.0
 40
2.0
 40
2.0
 10
2.7520409901041
 20
4.333657728176718
 30
0.0
 10
2.747537780227558
 20
4.330176246695237
 30
0.0
 10
2.744324940721384
 20
4.323608345460669
 30
0.0
 10
2.744324940721384
 20
4.318083407189064
 30
0.0
  0
SPLINE
  5
90
330
A
100
AcDbEntity
  8
0
  6
solid
 62
     7
100
AcDbSpline
210
0.0
220
0.0
230
1.0
 70
     8
 71
     2
 72
     6
 73
     3
 74
     0
 42
0.0000000001
 43
0.0000000001
 40
0.0
 40
0.0
 40
0.0
 40
1.0
 40
1.0
 40
1.0
 10
2.744324940721384
 20
4.318083407189064
 30
0.0
 10
2.744324940721384
 20
4.310335752868076
 30
0.0
 10
2.747885434548545
 20
4.305184641756965
 30
0.0
  0
SPLINE
  5
91
330
A
100
AcDbEntity
  8
0
  6
solid
 62
     7
100
AcDbSpline
210
0.0
220
0.0
230
1.0
 70
     8
 71
     2
 72
     7
 73
     4
 74
     0
 42
0.0000000001
 43
0.0000000001
 40
0.0
 40
0.0
 40
0.0
 40
1.0
 40
2.0
 40
2.0
 40
2.0
 10
2.747885434548545
 20
4.305184641756965
 30
0.0
 10
2.751161483931261
 20
4.299801925707583
 30
0.0
 10
2.760167903684348
 20
4.295830567682891
 30
0.0
 10
2.765113582696693
 20
4.295830567682891
 30
0.0
  0
SPLINE
  5
92
330
A
100
AcDbEntity
  8
0
  6
solid
 62
     7
100
AcDbSpline
210
0.0
220
0.0
230
1.0
 70
     8
 71
     2
 72
     6
 73
     3
 74
     0
 42
0.0000000001
 43
0.0000000001
 40
0.0
 40
0.0
 40
0.0
 40
1.0
 40
1.0
 40
1.0
 10
2.765113582696693
 20
4.295830567682891
 30
0.0
 10
2.776732348128792
 20
4.295830567682891
 30
0.0
 10
2.783268644425088
 20
4.30421032076931
 30
0.0
  0
SPLINE
  5
93
330
A
100
AcDbEntity
  8
0
  6
solid
 62
     7
100
AcDbSpline
210
0.0
220
0.0
230
1.0
 70
     8
 71
     2
 72
     7
 73
     4
 74
     0
 42
0.0000000001
 43
0.0000000001
 40
0.0
 40
0.0
 40
0.0
 40
1.0
 40
2.0
 40
2.0
 40
2.0
 10
2.783268644425088
 20
4.30421032076931
 30
0.0
 10
2.786513088869533
 20
4.308618715831039
 30
0.0
 10
2.790621237017681
 20
4.320727357806348
 30
0.0
 10
2.790621237017681
 20
4.326852789905113
 30
0.0
  0
SPLINE
  5
94
330
A
100
AcDbEntity
  8
0
  6
solid
 62
     7
100
AcDbSpline
210
0.0
220
0.0
230
1.0
 70
     8
 71
     2
 72
     7
 73
     4
 74
     0
 42
0.0000000001
 43
0.0000000001
 40
0.0
 40
0.0
 40
0.0
 40
1.0
 40
2.0
 40
2.0
 40
2.0
 10
2.790621237017681
 20
4.326852789905113
 30
0.0
 10
2.790621237017681
 20
4.333420691139681
 30
0.0
 10
2.785412348128792
 20
4.346145629411286
 30
0.0
 10
2.781899261709039
 20
4.350111555337212
 30
0.0
  0
SPLINE
  5
95
330
A
100
AcDbEntity
  8
0
  6
solid
 62
     7
100
AcDbSpline
210
0.0
220
0.0
230
1.0
 70
     8
 71
     2
 72
     6
 73
     3
 74
     0
 42
0.0000000001
 43
0.0000000001
 40
0.0
 40
0.0
 40
0.0
 40
1.0
 40
1.0
 40
1.0
 10
2.781899261709039
 20
4.350111555337212
 30
0.0
 10
2.777443459239903
 20
4.354472542991533
 30
0.0
 10
2.772592595042372
 20
4.354472542991533
 30
0.0
  0
SPLINE
  5
96
330
A
100
AcDbEntity
  8
0
  6
solid
 62
     7
100
AcDbSpline
210
0.0
220
0.0
230
1.0
 70
     8
 71
     2
 72
     7
 73
     4
 74
     0
 42
0.0000000001
 43
0.0000000001
 40
0.0
 40
0.0
 40
0.0
 40
1.0
 40
2.0
 40
2.0
 40
2.0
 10
2.772592595042372
 20
4.354472542991533
 30
0.0
 10
2.77215012590657
 20
4.354472542991533
 30
0.0
 10
2.769932841955953
 20
4.353482419534743
 30
0.0
 10
2.767678520968298
 20
4.351686370152027
 30
0.0
  0
SPLINE
  5
97
330
A
100
AcDbEntity
  8
0
  6
solid
 62
     7
100
AcDbSpline
210
0.0
220
0.0
230
1.0
 70
     8
 71
     2
 72
     6
 73
     3
 74
     0
 42
0.0000000001
 43
0.0000000001
 40
0.0
 40
0.0
 40
0.0
 40
1.0
 40
1.0
 40
1.0
 10
2.767678520968298
 20
4.351686370152027
 30
0.0
 10
2.762843459239903
 20
4.34829970348536
 30
0.0
 10
2.757602965412742
 20
4.34829970348536
 30
0.0
  0
SPLINE
  5
98
330
A
100
AcDbEntity
  8
0
  6
solid
 62
     7
100
AcDbSpline
210
0.0
220
0.0
230
1.0
 70
     8
 71
     2
 72
     7
 73
     4
 74
     0
 42
0.0000000001
 43
0.0000000001
 40
0.0
 40
0.0
 40
0.0
 40
1.0
 40
2.0
 40
2.0
 40
2.0
 10
2.757602965412742
 20
4.34829970348536
 30
0.0
 10
2.754469138252249
 20
4.34829970348536
 30
0.0
 10
2.750497780227557
 20
4.35174958002857
 30
0.0
 10
2.750497780227557
 20
4.354725382497706
 30
0.0
  0
SPLINE
  5
99
330
A
100
AcDbEntity
  8
0
  6
solid
 62
     7
100
AcDbSpline
210
0.0
220
0.0
230
1.0
 70
     8
 71
     2
 72
     7
 73
     4
 74
     0
 42
0.0000000001
 43
0.0000000001
 40
0.0
 40
0.0
 40
0.0
 40
1.0
 40
2.0
 40
2.0
 40
2.0
 10
2.750497780227557
 20
4.354725382497706
 30
0.0
 10
2.750497780227557
 20
4.357954024473015
 30
0.0
 10
2.755617286400397
 20
4.362188592374249
 30
0.0
 10
2.759757039486817
 20
4.362188592374249
 30
0.0
  0
SPLINE
  5
9A
330
A
100
AcDbEntity
  8
0
  6
solid
 62
     7
100
AcDbSpline
210
0.0
220
0.0
230
1.0
 70
     8
 71
     2
 72
     6
 73
     3
 74
     0
 42
0.0000000001
 43
0.0000000001
 40
0.0
 40
0.0
 40
0.0
 40
1.0
 40
1.0
 40
1.0
 10
2.759757039486817
 20
4.362188592374249
 30
0.0
 10
2.761616298746076
 20
4.361640938053262
 30
0.0
 10
2.76327012590657
 20
4.36141970348536
 30
0.0
  0
LINE
  5
9B
330
A
100
AcDbEntity
  8
0
  6
solid
 62
     7
100
AcDbLine
 10
2.76327012590657
 20
4.36141970348536
 30
0.0
 11
2.766561977758422
 21
4.360882419534743
 31
0.0
  0
SPLINE
  5
9C
330
A
100
AcDbEntity
  8
0
  6
solid
 62
     7
100
AcDbSpline
210
0.0
220
0.0
230
1.0
 70
     8
 71
     2
 72
     6
 73
     3
 74
     0
 42
0.0000000001
 43
0.0000000001
 40
0.0
 40
0.0
 40
0.0
 40
1.0
 40
1.0
 40
1.0
 10
2.766561977758422
 20
4.360882419534743
 30
0.0
 10
2.768041977758421
 20
4.360645382497706
 30
0.0
 10
2.769411360474471
 20
4.360645382497706
 30
0.0
  0
SPLINE
  5
9D
330
A
100
AcDbEntity
  8
0
  6
solid
 62
     7
100
AcDbSpline
210
0.0
220
0.0
230
1.0
 70
     8
 71
     2
 72
     6
 73
     3
 74
     0
 42
0.0000000001
 43
0.0000000001
 40
0.0
 40
0.0
 40
0.0
 40
1.0
 40
1.0
 40
1.0
 10
2.769411360474471
 20
4.360645382497706
 30
0.0
 10
2.774578274054718
 20
4.360645382497706
 30
0.0
 10
2.780087409857187
 20
4.365780691139681
 30
0.0
  0
SPLINE
  5
9E
330
A
100
AcDbEntity
  8
0
  6
solid
 62
     7
100
AcDbSpline
210
0.0
220
0.0
230
1.0
 70
     8
 71
     2
 72
     6
 73
     3
 74
     0
 42
0.0000000001
 43
0.0000000001
 40
0.0
 40
0.0
 40
0.0
 40
1.0
 40
1.0
 40
1.0
 10
2.780087409857187
 20
4.365780691139681
 30
0.0
 10
2.787534817264595
 20
4.373496740522397
 30
0.0
 10
2.787534817264595
 20
4.386237481263138
 30
0.0
  0
SPLINE
  5
9F
330
A
100
AcDbEntity
  8
0
  6
solid
 62
     7
100
AcDbSpline
210
0.0
220
0.0
230
1.0
 70
     8
 71
     2
 72
     7
 73
     4
 74
     0
 42
0.0000000001
 43
0.0000000001
 40
0.0
 40
0.0
 40
0.0
 40
1.0
 40
2.0
 40
2.0
 40
2.0
 10
2.787534817264595
 20
4.386237481263138
 30
0.0
 10
2.787534817264595
 20
4.39248933311499
 30
0.0
 10
2.783458274054718
 20
4.404408345460669
 30
0.0
 10
2.780134817264594
 20
4.408800938053262
 30
0.0
  0
SPLINE
  5
A0
330
A
100
AcDbEntity
  8
0
  6
solid
 62
     7
100
AcDbSpline
210
0.0
220
0.0
230
1.0
 70
     8
 71
     2
 72
     6
 73
     3
 74
     0
 42
0.0000000001
 43
0.0000000001
 40
0.0
 40
0.0
 40
0.0
 40
1.0
 40
1.0
 40
1.0
 10
2.780134817264594
 20
4.408800938053262
 30
0.0
 10
2.77423061973373
 20
4.416200938053261
 30
0.0
 10
2.766119508622619
 20
4.416200938053261
 30
0.0
  0
SPLINE
  5
A1
330
A
100
AcDbEntity
  8
0
  6
solid
 62
     7
100
AcDbSpline
210
0.0
220
0.0
230
1.0
 70
     8
 71
     2
 72
     7
 73
     4
 74
     0
 42
0.0000000001
 43
0.0000000001
 40
0.0
 40
0.0
 40
0.0
 40
1.0
 40
2.0
 40
2.0
 40
2.0
 10
2.766119508622619
 20
4.416200938053261
 30
0.0
 10
2.760152101215212
 20
4.416200938053261
 30
0.0
 10
2.7520409901041
 20
4.407763407189064
 30
0.0
 10
2.7520409901041
 20
4.400942666448323
 30
0.0
  0
SPLINE
  5
A2
330
A
100
AcDbEntity
  8
0
  6
solid
 62
     7
100
AcDbSpline
210
0.0
220
0.0
230
1.0
 70
     8
 71
     2
 72
     7
 73
     4
 74
     0
 42
0.0000000001
 43
0.0000000001
 40
0.0
 40
0.0
 40
0.0
 40
1.0
 40
2.0
 40
2.0
 40
2.0
 10
2.7520409901041
 20
4.400942666448323
 30
0.0
 10
2.7520409901041
 20
4.39525970348536
 30
0.0
 10
2.755917533313977
 20
4.388691802250792
 30
0.0
 10
2.760515558005335
 20
4.387306617065608
 30
0.0
  0
LINE
  5
A3
330
A
100
AcDbEntity
  8
0
  6
solid
 62
     7
100
AcDbLine
 10
2.760515558005335
 20
4.387306617065608
 30
0.0
 11
2.76130024936336
 21
4.384188592374249
 31
0.0
  0
SPLINE
  5
A4
330
A
100
AcDbEntity
  8
0
  6
solid
 62
     7
100
AcDbSpline
210
0.0
220
0.0
230
1.0
 70
     8
 71
     2
 72
     6
 73
     3
 74
     0
 42
0.0000000001
 43
0.0000000001
 40
0.0
 40
0.0
 40
0.0
 40
1.0
 40
1.0
 40
1.0
 10
2.76130024936336
 20
4.384188592374249
 30
0.0
 10
2.755617286400397
 20
4.382250320769311
 30
0.0
 10
2.752056792573236
 20
4.382250320769311
 30
0.0
  0
SPLINE
  5
A5
330
A
100
AcDbEntity
  8
0
  6
solid
 62
     7
100
AcDbSpline
210
0.0
220
0.0
230
1.0
 70
     8
 71
     2
 72
     7
 73
     4
 74
     0
 42
0.0000000001
 43
0.0000000001
 40
0.0
 40
0.0
 40
0.0
 40
1.0
 40
2.0
 40
2.0
 40
2.0
 10
2.752056792573236
 20
4.382250320769311
 30
0.0
 10
2.744893829610274
 20
4.382250320769311
 30
0.0
 10
2.736608891338669
 20
4.390472049164372
 30
0.0
 10
2.736608891338669
 20
4.397024147929805
 30
0.0
  0
SPLINE
  5
A6
330
A
100
AcDbEntity
  8
0
  6
solid
 62
     7
100
AcDbSpline
210
0.0
220
0.0
230
1.0
 70
     8
 71
     2
 72
     7
 73
     4
 74
     0
 42
0.0000000001
 43
0.0000000001
 40
0.0
 40
0.0
 40
0.0
 40
1.0
 40
2.0
 40
2.0
 40
2.0
 10
2.736608891338669
 20
4.397024147929805
 30
0.0
 10
2.736608891338669
 20
4.407147110892768
 30
0.0
 10
2.754437533313977
 20
4.420830567682891
 30
0.0
 10
2.767567903684347
 20
4.420830567682891
 30
0.0
  0
SPLINE
  5
A7
330
A
100
AcDbEntity
  8
0
  6
solid
 62
     7
100
AcDbSpline
210
0.0
220
0.0
230
1.0
 70
     8
 71
     2
 72
     7
 73
     4
 74
     0
 42
0.0000000001
 43
0.0000000001
 40
0.0
 40
0.0
 40
0.0
 40
1.0
 40
2.0
 40
2.0
 40
2.0
 10
2.767567903684347
 20
4.420830567682891
 30
0.0
 10
2.775520990104101
 20
4.420830567682891
 30
0.0
 10
2.790684446894224
 20
4.415258222003878
 30
0.0
 10
2.795361483931261
 20
4.410897234349557
 30
0.0
  0
SPLINE
  5
A8
330
A
100
AcDbEntity
  8
0
  6
solid
 62
     7
100
AcDbSpline
210
0.0
220
0.0
230
1.0
 70
     8
 71
     2
 72
     7
 73
     4
 74
     0
 42
0.0000000001
 43
0.0000000001
 40
0.0
 40
0.0
 40
0.0
 40
1.0
 40
2.0
 40
2.0
 40
2.0
 10
2.795361483931261
 20
4.410897234349557
 30
0.0
 10
2.80056000244978
 20
4.406062172621163
 30
0.0
 10
2.806053335783113
 20
4.394675012127335
 30
0.0
 10
2.806053335783113
 20
4.388423160275483
 30
0.0
  0
SPLINE
  5
A9
330
A
100
AcDbEntity
  8
0
  6
solid
 62
     7
100
AcDbSpline
210
0.0
220
0.0
230
1.0
 70
     8
 71
     2
 72
     6
 73
     3
 74
     0
 42
0.0000000001
 43
0.0000000001
 40
0.0
 40
0.0
 40
0.0
 40
1.0
 40
1.0
 40
1.0
 10
2.806053335783113
 20
4.388423160275483
 30
0.0
 10
2.806053335783113
 20
4.374660691139681
 30
0.0
 10
2.794434570351014
 20
4.364600938053261
 30
0.0
  0
SPLINE
  5
AA
330
A
100
AcDbEntity
  8
0
  6
solid
 62
     7
100
AcDbSpline
210
0.0
220
0.0
230
1.0
 70
     8
 71
     2
 72
     6
 73
     3
 74
     0
 42
0.0000000001
 43
0.0000000001
 40
0.0
 40
0.0
 40
0.0
 40
1.0
 40
1.0
 40
1.0
 10
2.794434570351014
 20
4.364600938053261
 30
0.0
 10
2.789804940721384
 20
4.36092982694215
 30
0.0
 10
2.782025681462125
 20
4.358380691139681
 30
0.0
  0
SPLINE
  5
AB
330
A
100
AcDbEntity
  8
0
  6
solid
 62
     7
100
AcDbSpline
210
0.0
220
0.0
230
1.0
 70
     8
 71
     2
 72
     6
 73
     3
 74
     0
 42
0.0000000001
 43
0.0000000001
 40
0.0
 40
0.0
 40
0.0
 40
1.0
 40
1.0
 40
1.0
 10
2.860836422202866
 20
4.420830567682891
 30
0.0
 10
2.871923335783113
 20
4.420830567682891
 30
0.0
 10
2.880239878992989
 20
4.411697728176719
 30
0.0
  0
SPLINE
  5
AC
330
A
100
AcDbEntity
  8
0
  6
solid
 62
     7
100
AcDbSpline
210
0.0
220
0.0
230
1.0
 70
     8
 71
     2
 72
     7
 73
     4
 74
     0
 42
0.0000000001
 43
0.0000000001
 40
0.0
 40
0.0
 40
0.0
 40
1.0
 40
2.0
 40
2.0
 40
2.0
 10
2.880239878992989
 20
4.411697728176719
 30
0.0
 10
2.88498012590657
 20
4.406330814596471
 30
0.0
 10
2.893401854301631
 20
4.393242419534743
 30
0.0
 10
2.895671977758421
 20
4.386284888670545
 30
0.0
  0
SPLINE
  5
AD
330
A
100
AcDbEntity
  8
0
  6
solid
 62
     7
100
AcDbSpline
210
0.0
220
0.0
230
1.0
 70
     8
 71
     2
 72
     6
 73
     3
 74
     0
 42
0.0000000001
 43
0.0000000001
 40
0.0
 40
0.0
 40
0.0
 40
1.0
 40
1.0
 40
1.0
 10
2.895671977758421
 20
4.386284888670545
 30
0.0
 10
2.902503088869532
 20
4.370141678794002
 30
0.0
 10
2.902503088869532
 20
4.356047357806348
 30
0.0
  0
SPLINE
  5
AE
330
A
100
AcDbEntity
  8
0
  6
solid
 62
     7
100
AcDbSpline
210
0.0
220
0.0
230
1.0
 70
     8
 71
     2
 72
     6
 73
     3
 74
     0
 42
0.0000000001
 43
0.0000000001
 40
0.0
 40
0.0
 40
0.0
 40
1.0
 40
1.0
 40
1.0
 10
2.902503088869532
 20
4.356047357806348
 30
0.0
 10
2.902503088869532
 20
4.341421184966842
 30
0.0
 10
2.895671977758421
 20
4.32519896274462
 30
0.0
  0
SPLINE
  5
AF
330
A
100
AcDbEntity
  8
0
  6
solid
 62
     7
100
AcDbSpline
210
0.0
220
0.0
230
1.0
 70
     8
 71
     2
 72
     7
 73
     4
 74
     0
 42
0.0000000001
 43
0.0000000001
 40
0.0
 40
0.0
 40
0.0
 40
1.0
 40
2.0
 40
2.0
 40
2.0
 10
2.895671977758421
 20
4.32519896274462
 30
0.0
 10
2.893433459239903
 20
4.318241431880422
 30
0.0
 10
2.884916916030027
 20
4.305153036818693
 30
0.0
 10
2.880239878992989
 20
4.29984933311499
 30
0.0
  0
SPLINE
  5
B0
330
A
100
AcDbEntity
  8
0
  6
solid
 62
     7
100
AcDbSpline
210
0.0
220
0.0
230
1.0
 70
     8
 71
     2
 72
     6
 73
     3
 74
     0
 42
0.0000000001
 43
0.0000000001
 40
0.0
 40
0.0
 40
0.0
 40
1.0
 40
1.0
 40
1.0
 10
2.880239878992989
 20
4.29984933311499
 30
0.0
 10
2.871875928375705
 20
4.291200938053261
 30
0.0
 10
2.860836422202866
 20
4.291200938053261
 30
0.0
  0
SPLINE
  5
B1
330
A
100
AcDbEntity
  8
0
  6
solid
 62
     7
100
AcDbSpline
210
0.0
220
0.0
230
1.0
 70
     8
 71
     2
 72
     6
 73
     3
 74
     0
 42
0.0000000001
 43
0.0000000001
 40
0.0
 40
0.0
 40
0.0
 40
1.0
 40
1.0
 40
1.0
 10
2.860836422202866
 20
4.291200938053261
 30
0.0
 10
2.85057123701768
 20
4.291200938053261
 30
0.0
 10
2.841596422202866
 20
4.29984933311499
 30
0.0
  0
SPLINE
  5
B2
330
A
100
AcDbEntity
  8
0
  6
solid
 62
     7
100
AcDbSpline
210
0.0
220
0.0
230
1.0
 70
     8
 71
     2
 72
     7
 73
     4
 74
     0
 42
0.0000000001
 43
0.0000000001
 40
0.0
 40
0.0
 40
0.0
 40
1.0
 40
2.0
 40
2.0
 40
2.0
 10
2.841596422202866
 20
4.29984933311499
 30
0.0
 10
2.837877903684347
 20
4.304241925707582
 30
0.0
 10
2.829329755536199
 20
4.317798962744619
 30
0.0
 10
2.82698061973373
 20
4.32519896274462
 30
0.0
  0
SPLINE
  5
B3
330
A
100
AcDbEntity
  8
0
  6
solid
 62
     7
100
AcDbSpline
210
0.0
220
0.0
230
1.0
 70
     8
 71
     2
 72
     6
 73
     3
 74
     0
 42
0.0000000001
 43
0.0000000001
 40
0.0
 40
0.0
 40
0.0
 40
1.0
 40
1.0
 40
1.0
 10
2.82698061973373
 20
4.32519896274462
 30
0.0
 10
2.820712965412742
 20
4.341231555337212
 30
0.0
 10
2.820712965412742
 20
4.356047357806348
 30
0.0
  0
SPLINE
  5
B4
330
A
100
AcDbEntity
  8
0
  6
solid
 62
     7
100
AcDbSpline
210
0.0
220
0.0
230
1.0
 70
     8
 71
     2
 72
     6
 73
     3
 74
     0
 42
0.0000000001
 43
0.0000000001
 40
0.0
 40
0.0
 40
0.0
 40
1.0
 40
1.0
 40
1.0
 10
2.820712965412742
 20
4.356047357806348
 30
0.0
 10
2.820712965412742
 20
4.370394518300175
 30
0.0
 10
2.82698061973373
 20
4.386284888670545
 30
0.0
  0
SPLINE
  5
B5
330
A
100
AcDbEntity
  8
0
  6
solid
 62
     7
100
AcDbSpline
210
0.0
220
0.0
230
1.0
 70
     8
 71
     2
 72
     7
 73
     4
 74
     0
 42
0.0000000001
 43
0.0000000001
 40
0.0
 40
0.0
 40
0.0
 40
1.0
 40
2.0
 40
2.0
 40
2.0
 10
2.82698061973373
 20
4.386284888670545
 30
0.0
 10
2.829313953067063
 20
4.393558468917459
 30
0.0
 10
2.837893706153483
 20
4.407336740522397
 30
0.0
 10
2.841596422202866
 20
4.411697728176719
 30
0.0
  0
SPLINE
  5
B6
330
A
100
AcDbEntity
  8
0
  6
solid
 62
     7
100
AcDbSpline
210
0.0
220
0.0
230
1.0
 70
     8
 71
     2
 72
     6
 73
     3
 74
     0
 42
0.0000000001
 43
0.0000000001
 40
0.0
 40
0.0
 40
0.0
 40
1.0
 40
1.0
 40
1.0
 10
2.841596422202866
 20
4.411697728176719
 30
0.0
 10
2.850523829610273
 20
4.420830567682891
 30
0.0
 10
2.860836422202866
 20
4.420830567682891
 30
0.0
  0
SPLINE
  5
B7
330
A
100
AcDbEntity
  8
0
  6
solid
 62
     7
100
AcDbSpline
210
0.0
220
0.0
230
1.0
 70
     8
 71
     2
 72
     7
 73
     4
 74
     0
 42
0.0000000001
 43
0.0000000001
 40
0.0
 40
0.0
 40
0.0
 40
1.0
 40
2.0
 40
2.0
 40
2.0
 10
2.860272965412742
 20
4.416200938053261
 30
0.0
 10
2.858429508622619
 20
4.416200938053261
 30
0.0
 10
2.853294199980643
 20
4.411666123238447
 30
0.0
 10
2.850397409857187
 20
4.40610958002857
 30
0.0
  0
SPLINE
  5
B8
330
A
100
AcDbEntity
  8
0
  6
solid
 62
     7
100
AcDbSpline
210
0.0
220
0.0
230
1.0
 70
     8
 71
     2
 72
     7
 73
     4
 74
     0
 42
0.0000000001
 43
0.0000000001
 40
0.0
 40
0.0
 40
0.0
 40
1.0
 40
2.0
 40
2.0
 40
2.0
 10
2.850397409857187
 20
4.40610958002857
 30
0.0
 10
2.848711977758421
 20
4.402912542991533
 30
0.0
 10
2.84454061973373
 20
4.390582666448323
 30
0.0
 10
2.843092224672002
 20
4.384093777559434
 30
0.0
  0
SPLINE
  5
B9
330
A
100
AcDbEntity
  8
0
  6
solid
 62
     7
100
AcDbSpline
210
0.0
220
0.0
230
1.0
 70
     8
 71
     2
 72
     6
 73
     3
 74
     0
 42
0.0000000001
 43
0.0000000001
 40
0.0
 40
0.0
 40
0.0
 40
1.0
 40
1.0
 40
1.0
 10
2.843092224672002
 20
4.384093777559434
 30
0.0
 10
2.840774693807804
 20
4.370220691139682
 30
0.0
 10
2.840774693807804
 20
4.356015752868076
 30
0.0
  0
SPLINE
  5
BA
330
A
100
AcDbEntity
  8
0
  6
solid
 62
     7
100
AcDbSpline
210
0.0
220
0.0
230
1.0
 70
     8
 71
     2
 72
     6
 73
     3
 74
     0
 42
0.0000000001
 43
0.0000000001
 40
0.0
 40
0.0
 40
0.0
 40
1.0
 40
1.0
 40
1.0
 10
2.840774693807804
 20
4.356015752868076
 30
0.0
 10
2.840774693807804
 20
4.341231555337212
 30
0.0
 10
2.843092224672002
 20
4.327374271386595
 30
0.0
  0
SPLINE
  5
BB
330
A
100
AcDbEntity
  8
0
  6
solid
 62
     7
100
AcDbSpline
210
0.0
220
0.0
230
1.0
 70
     8
 71
     2
 72
     7
 73
     4
 74
     0
 42
0.0000000001
 43
0.0000000001
 40
0.0
 40
0.0
 40
0.0
 40
1.0
 40
2.0
 40
2.0
 40
2.0
 10
2.843092224672002
 20
4.327374271386595
 30
0.0
 10
2.84454061973373
 20
4.320758962744619
 30
0.0
 10
2.848727780227557
 20
4.308429086201409
 30
0.0
 10
2.850381607388051
 20
4.305374271386595
 30
0.0
  0
SPLINE
  5
BC
330
A
100
AcDbEntity
  8
0
  6
solid
 62
     7
100
AcDbSpline
210
0.0
220
0.0
230
1.0
 70
     8
 71
     2
 72
     7
 73
     4
 74
     0
 42
0.0000000001
 43
0.0000000001
 40
0.0
 40
0.0
 40
0.0
 40
1.0
 40
2.0
 40
2.0
 40
2.0
 10
2.850381607388051
 20
4.305374271386595
 30
0.0
 10
2.853341607388051
 20
4.299691308423632
 30
0.0
 10
2.858445311091755
 20
4.295830567682891
 30
0.0
 10
2.860978644425088
 20
4.295830567682891
 30
0.0
  0
SPLINE
  5
BD
330
A
100
AcDbEntity
  8
0
  6
solid
 62
     7
100
AcDbSpline
210
0.0
220
0.0
230
1.0
 70
     8
 71
     2
 72
     7
 73
     4
 74
     0
 42
0.0000000001
 43
0.0000000001
 40
0.0
 40
0.0
 40
0.0
 40
1.0
 40
2.0
 40
2.0
 40
2.0
 10
2.860978644425088
 20
4.295830567682891
 30
0.0
 10
2.86328037282015
 20
4.295830567682891
 30
0.0
 10
2.869453212326323
 20
4.300713036818693
 30
0.0
 10
2.872144570351014
 20
4.305374271386595
 30
0.0
  0
SPLINE
  5
BE
330
A
100
AcDbEntity
  8
0
  6
solid
 62
     7
100
AcDbSpline
210
0.0
220
0.0
230
1.0
 70
     8
 71
     2
 72
     7
 73
     4
 74
     0
 42
0.0000000001
 43
0.0000000001
 40
0.0
 40
0.0
 40
0.0
 40
1.0
 40
2.0
 40
2.0
 40
2.0
 10
2.872144570351014
 20
4.305374271386595
 30
0.0
 10
2.87394061973373
 20
4.308808345460669
 30
0.0
 10
2.878159385165829
 20
4.3210592096582
 30
0.0
 10
2.879497162943607
 20
4.327374271386595
 30
0.0
  0
SPLINE
  5
BF
330
A
100
AcDbEntity
  8
0
  6
solid
 62
     7
100
AcDbSpline
210
0.0
220
0.0
230
1.0
 70
     8
 71
     2
 72
     6
 73
     3
 74
     0
 42
0.0000000001
 43
0.0000000001
 40
0.0
 40
0.0
 40
0.0
 40
1.0
 40
1.0
 40
1.0
 10
2.879497162943607
 20
4.327374271386595
 30
0.0
 10
2.882441360474471
 20
4.34150019731252
 30
0.0
 10
2.882441360474471
 20
4.356015752868076
 30
0.0
  0
SPLINE
  5
C0
330
A
100
AcDbEntity
  8
0
  6
solid
 62
     7
100
AcDbSpline
210
0.0
220
0.0
230
1.0
 70
     8
 71
     2
 72
     6
 73
     3
 74
     0
 42
0.0000000001
 43
0.0000000001
 40
0.0
 40
0.0
 40
0.0
 40
1.0
 40
1.0
 40
1.0
 10
2.882441360474471
 20
4.356015752868076
 30
0.0
 10
2.882441360474471
 20
4.369952049164373
 30
0.0
 10
2.879497162943607
 20
4.38410958002857
 30
0.0
  0
SPLINE
  5
C1
330
A
100
AcDbEntity
  8
0
  6
solid
 62
     7
100
AcDbSpline
210
0.0
220
0.0
230
1.0
 70
     8
 71
     2
 72
     7
 73
     4
 74
     0
 42
0.0000000001
 43
0.0000000001
 40
0.0
 40
0.0
 40
0.0
 40
1.0
 40
2.0
 40
2.0
 40
2.0
 10
2.879497162943607
 20
4.38410958002857
 30
0.0
 10
2.878143582696693
 20
4.39032982694215
 30
0.0
 10
2.873909014795458
 20
4.402691308423632
 30
0.0
 10
2.872144570351014
 20
4.40610958002857
 30
0.0
  0
SPLINE
  5
C2
330
A
100
AcDbEntity
  8
0
  6
solid
 62
     7
100
AcDbSpline
210
0.0
220
0.0
230
1.0
 70
     8
 71
     2
 72
     7
 73
     4
 74
     0
 42
0.0000000001
 43
0.0000000001
 40
0.0
 40
0.0
 40
0.0
 40
1.0
 40
2.0
 40
2.0
 40
2.0
 10
2.872144570351014
 20
4.40610958002857
 30
0.0
 10
2.869437409857187
 20
4.410786617065607
 30
0.0
 10
2.863327780227557
 20
4.416200938053261
 30
0.0
 10
2.860272965412742
 20
4.416200938053261
 30
0.0
  0
SPLINE
  5
C3
330
A
100
AcDbEntity
  8
0
  6
solid
 62
     7
100
AcDbSpline
210
0.0
220
0.0
230
1.0
 70
     8
 71
     2
 72
     6
 73
     3
 74
     0
 42
0.0000000001
 43
0.0000000001
 40
0.0
 40
0.0
 40
0.0
 40
1.0
 40
1.0
 40
1.0
 10
2.965665928375705
 20
4.358380691139681
 30
0.0
 10
2.994323212326322
 20
4.351970814596471
 30
0.0
 10
2.994323212326322
 20
4.328727851633509
 30
0.0
  0
SPLINE
  5
C4
330
A
100
AcDbEntity
  8
0
  6
solid
 62
     7
100
AcDbSpline
210
0.0
220
0.0
230
1.0
 70
     8
 71
     2
 72
     6
 73
     3
 74
     0
 42
0.0000000001
 43
0.0000000001
 40
0.0
 40
0.0
 40
0.0
 40
1.0
 40
1.0
 40
1.0
 10
2.994323212326322
 20
4.328727851633509
 30
0.0
 10
2.994323212326322
 20
4.320964394843385
 30
0.0
 10
2.99023086664731
 20
4.313200938053261
 30
0.0
  0
SPLINE
  5
C5
330
A
100
AcDbEntity
  8
0
  6
solid
 62
     7
100
AcDbSpline
210
0.0
220
0.0
230
1.0
 70
     8
 71
     2
 72
     7
 73
     4
 74
     0
 42
0.0000000001
 43
0.0000000001
 40
0.0
 40
0.0
 40
0.0
 40
1.0
 40
2.0
 40
2.0
 40
2.0
 10
2.99023086664731
 20
4.313200938053261
 30
0.0
 10
2.985411607388051
 20
4.302888345460669
 30
0.0
 10
2.962737533313977
 20
4.291200938053261
 30
0.0
 10
2.948279755536199
 20
4.291200938053261
 30
0.0
  0
SPLINE
  5
C6
330
A
100
AcDbEntity
  8
0
  6
solid
 62
     7
100
AcDbSpline
210
0.0
220
0.0
230
1.0
 70
     8
 71
     2
 72
     7
 73
     4
 74
     0
 42
0.0000000001
 43
0.0000000001
 40
0.0
 40
0.0
 40
0.0
 40
1.0
 40
2.0
 40
2.0
 40
2.0
 10
2.948279755536199
 20
4.291200938053261
 30
0.0
 10
2.939526175289286
 20
4.291200938053261
 30
0.0
 10
2.9250209901041
 20
4.295941184966841
 30
0.0
 10
2.920359755536199
 20
4.299786123238447
 30
0.0
  0
SPLINE
  5
C7
330
A
100
AcDbEntity
  8
0
  6
solid
 62
     7
100
AcDbSpline
210
0.0
220
0.0
230
1.0
 70
     8
 71
     2
 72
     7
 73
     4
 74
     0
 42
0.0000000001
 43
0.0000000001
 40
0.0
 40
0.0
 40
0.0
 40
1.0
 40
2.0
 40
2.0
 40
2.0
 10
2.920359755536199
 20
4.299786123238447
 30
0.0
 10
2.91633061973373
 20
4.303594024473015
 30
0.0
 10
2.912533088869532
 20
4.312837481263138
 30
0.0
 10
2.912533088869532
 20
4.317577728176718
 30
0.0
  0
SPLINE
  5
C8
330
A
100
AcDbEntity
  8
0
  6
solid
 62
     7
100
AcDbSpline
210
0.0
220
0.0
230
1.0
 70
     8
 71
     2
 72
     7
 73
     4
 74
     0
 42
0.0000000001
 43
0.0000000001
 40
0.0
 40
0.0
 40
0.0
 40
1.0
 40
2.0
 40
2.0
 40
2.0
 10
2.912533088869532
 20
4.317577728176718
 30
0.0
 10
2.912533088869532
 20
4.325673036818693
 30
0.0
 10
2.923746422202866
 20
4.337497234349558
 30
0.0
 10
2.934675311091755
 20
4.337497234349558
 30
0.0
  0
LINE
  5
C9
330
A
100
AcDbEntity
  8
0
  6
solid
 62
     7
100
AcDbLine
 10
2.934675311091755
 20
4.337497234349558
 30
0.0
 11
2.93568123701768
 21
4.333657728176718
 31
0.0
  0
SPLINE
  5
CA
330
A
100
AcDbEntity
  8
0
  6
solid
 62
     7
100
AcDbSpline
210
0.0
220
0.0
230
1.0
 70
     8
 71
     2
 72
     7
 73
     4
 74
     0
 42
0.0000000001
 43
0.0000000001
 40
0.0
 40
0.0
 40
0.0
 40
1.0
 40
2.0
 40
2.0
 40
2.0
 10
2.93568123701768
 20
4.333657728176718
 30
0.0
 10
2.931178027141137
 20
4.330176246695237
 30
0.0
 10
2.927965187634964
 20
4.323608345460669
 30
0.0
 10
2.927965187634964
 20
4.318083407189064
 30
0.0
  0
SPLINE
  5
CB
330
A
100
AcDbEntity
  8
0
  6
solid
 62
     7
100
AcDbSpline
210
0.0
220
0.0
230
1.0
 70
     8
 71
     2
 72
     6
 73
     3
 74
     0
 42
0.0000000001
 43
0.0000000001
 40
0.0
 40
0.0
 40
0.0
 40
1.0
 40
1.0
 40
1.0
 10
2.927965187634964
 20
4.318083407189064
 30
0.0
 10
2.927965187634964
 20
4.310335752868076
 30
0.0
 10
2.931525681462125
 20
4.305184641756965
 30
0.0
  0
SPLINE
  5
CC
330
A
100
AcDbEntity
  8
0
  6
solid
 62
     7
100
AcDbSpline
210
0.0
220
0.0
230
1.0
 70
     8
 71
     2
 72
     7
 73
     4
 74
     0
 42
0.0000000001
 43
0.0000000001
 40
0.0
 40
0.0
 40
0.0
 40
1.0
 40
2.0
 40
2.0
 40
2.0
 10
2.931525681462125
 20
4.305184641756965
 30
0.0
 10
2.934801730844841
 20
4.299801925707583
 30
0.0
 10
2.943808150597928
 20
4.295830567682891
 30
0.0
 10
2.948753829610273
 20
4.295830567682891
 30
0.0
  0
SPLINE
  5
CD
330
A
100
AcDbEntity
  8
0
  6
solid
 62
     7
100
AcDbSpline
210
0.0
220
0.0
230
1.0
 70
     8
 71
     2
 72
     6
 73
     3
 74
     0
 42
0.0000000001
 43
0.0000000001
 40
0.0
 40
0.0
 40
0.0
 40
1.0
 40
1.0
 40
1.0
 10
2.948753829610273
 20
4.295830567682891
 30
0.0
 10
2.960372595042372
 20
4.295830567682891
 30
0.0
 10
2.966908891338668
 20
4.30421032076931
 30
0.0
  0
SPLINE
  5
CE
330
A
100
AcDbEntity
  8
0
  6
solid
 62
     7
100
AcDbSpline
210
0.0
220
0.0
230
1.0
 70
     8
 71
     2
 72
     7
 73
     4
 74
     0
 42
0.0000000001
 43
0.0000000001
 40
0.0
 40
0.0
 40
0.0
 40
1.0
 40
2.0
 40
2.0
 40
2.0
 10
2.966908891338668
 20
4.30421032076931
 30
0.0
 10
2.970153335783113
 20
4.308618715831039
 30
0.0
 10
2.974261483931261
 20
4.320727357806348
 30
0.0
 10
2.974261483931261
 20
4.326852789905113
 30
0.0
  0
SPLINE
  5
CF
330
A
100
AcDbEntity
  8
0
  6
solid
 62
     7
100
AcDbSpline
210
0.0
220
0.0
230
1.0
 70
     8
 71
     2
 72
     7
 73
     4
 74
     0
 42
0.0000000001
 43
0.0000000001
 40
0.0
 40
0.0
 40
0.0
 40
1.0
 40
2.0
 40
2.0
 40
2.0
 10
2.974261483931261
 20
4.326852789905113
 30
0.0
 10
2.974261483931261
 20
4.333420691139681
 30
0.0
 10
2.969052595042372
 20
4.346145629411286
 30
0.0
 10
2.965539508622619
 20
4.350111555337212
 30
0.0
  0
SPLINE
  5
D0
330
A
100
AcDbEntity
  8
0
  6
solid
 62
     7
100
AcDbSpline
210
0.0
220
0.0
230
1.0
 70
     8
 71
     2
 72
     6
 73
     3
 74
     0
 42
0.0000000001
 43
0.0000000001
 40
0.0
 40
0.0
 40
0.0
 40
1.0
 40
1.0
 40
1.0
 10
2.965539508622619
 20
4.350111555337212
 30
0.0
 10
2.961083706153483
 20
4.354472542991533
 30
0.0
 10
2.956232841955952
 20
4.354472542991533
 30
0.0
  0
SPLINE
  5
D1
330
A
100
AcDbEntity
  8
0
  6
solid
 62
     7
100
AcDbSpline
210
0.0
220
0.0
230
1.0
 70
     8
 71
     2
 72
     7
 73
     4
 74
     0
 42
0.0000000001
 43
0.0000000001
 40
0.0
 40
0.0
 40
0.0
 40
1.0
 40
2.0
 40
2.0
 40
2.0
 10
2.956232841955952
 20
4.354472542991533
 30
0.0
 10
2.95579037282015
 20
4.354472542991533
 30
0.0
 10
2.953573088869532
 20
4.353482419534743
 30
0.0
 10
2.951318767881878
 20
4.351686370152027
 30
0.0
  0
SPLINE
  5
D2
330
A
100
AcDbEntity
  8
0
  6
solid
 62
     7
100
AcDbSpline
210
0.0
220
0.0
230
1.0
 70
     8
 71
     2
 72
     6
 73
     3
 74
     0
 42
0.0000000001
 43
0.0000000001
 40
0.0
 40
0.0
 40
0.0
 40
1.0
 40
1.0
 40
1.0
 10
2.951318767881878
 20
4.351686370152027
 30
0.0
 10
2.946483706153483
 20
4.34829970348536
 30
0.0
 10
2.941243212326322
 20
4.34829970348536
 30
0.0
  0
SPLINE
  5
D3
330
A
100
AcDbEntity
  8
0
  6
solid
 62
     7
100
AcDbSpline
210
0.0
220
0.0
230
1.0
 70
     8
 71
     2
 72
     7
 73
     4
 74
     0
 42
0.0000000001
 43
0.0000000001
 40
0.0
 40
0.0
 40
0.0
 40
1.0
 40
2.0
 40
2.0
 40
2.0
 10
2.941243212326322
 20
4.34829970348536
 30
0.0
 10
2.938109385165829
 20
4.34829970348536
 30
0.0
 10
2.934138027141137
 20
4.35174958002857
 30
0.0
 10
2.934138027141137
 20
4.354725382497706
 30
0.0
  0
SPLINE
  5
D4
330
A
100
AcDbEntity
  8
0
  6
solid
 62
     7
100
AcDbSpline
210
0.0
220
0.0
230
1.0
 70
     8
 71
     2
 72
     7
 73
     4
 74
     0
 42
0.0000000001
 43
0.0000000001
 40
0.0
 40
0.0
 40
0.0
 40
1.0
 40
2.0
 40
2.0
 40
2.0
 10
2.934138027141137
 20
4.354725382497706
 30
0.0
 10
2.934138027141137
 20
4.357954024473015
 30
0.0
 10
2.939257533313977
 20
4.362188592374249
 30
0.0
 10
2.943397286400397
 20
4.362188592374249
 30
0.0
  0
SPLINE
  5
D5
330
A
100
AcDbEntity
  8
0
  6
solid
 62
     7
100
AcDbSpline
210
0.0
220
0.0
230
1.0
 70
     8
 71
     2
 72
     6
 73
     3
 74
     0
 42
0.0000000001
 43
0.0000000001
 40
0.0
 40
0.0
 40
0.0
 40
1.0
 40
1.0
 40
1.0
 10
2.943397286400397
 20
4.362188592374249
 30
0.0
 10
2.945256545659656
 20
4.361640938053262
 30
0.0
 10
2.94691037282015
 20
4.36141970348536
 30
0.0
  0
LINE
  5
D6
330
A
100
AcDbEntity
  8
0
  6
solid
 62
     7
100
AcDbLine
 10
2.94691037282015
 20
4.36141970348536
 30
0.0
 11
2.950202224672001
 21
4.360882419534743
 31
0.0
  0
SPLINE
  5
D7
330
A
100
AcDbEntity
  8
0
  6
solid
 62
     7
100
AcDbSpline
210
0.0
220
0.0
230
1.0
 70
     8
 71
     2
 72
     6
 73
     3
 74
     0
 42
0.0000000001
 43
0.0000000001
 40
0.0
 40
0.0
 40
0.0
 40
1.0
 40
1.0
 40
1.0
 10
2.950202224672001
 20
4.360882419534743
 30
0.0
 10
2.951682224672001
 20
4.360645382497706
 30
0.0
 10
2.953051607388051
 20
4.360645382497706
 30
0.0
  0
SPLINE
  5
D8
330
A
100
AcDbEntity
  8
0
  6
solid
 62
     7
100
AcDbSpline
210
0.0
220
0.0
230
1.0
 70
     8
 71
     2
 72
     6
 73
     3
 74
     0
 42
0.0000000001
 43
0.0000000001
 40
0.0
 40
0.0
 40
0.0
 40
1.0
 40
1.0
 40
1.0
 10
2.953051607388051
 20
4.360645382497706
 30
0.0
 10
2.958218520968298
 20
4.360645382497706
 30
0.0
 10
2.963727656770767
 20
4.365780691139681
 30
0.0
  0
SPLINE
  5
D9
330
A
100
AcDbEntity
  8
0
  6
solid
 62
     7
100
AcDbSpline
210
0.0
220
0.0
230
1.0
 70
     8
 71
     2
 72
     6
 73
     3
 74
     0
 42
0.0000000001
 43
0.0000000001
 40
0.0
 40
0.0
 40
0.0
 40
1.0
 40
1.0
 40
1.0
 10
2.963727656770767
 20
4.365780691139681
 30
0.0
 10
2.971175064178174
 20
4.373496740522397
 30
0.0
 10
2.971175064178174
 20
4.386237481263138
 30
0.0
  0
SPLINE
  5
DA
330
A
100
AcDbEntity
  8
0
  6
solid
 62
     7
100
AcDbSpline
210
0.0
220
0.0
230
1.0
 70
     8
 71
     2
 72
     7
 73
     4
 74
     0
 42
0.0000000001
 43
0.0000000001
 40
0.0
 40
0.0
 40
0.0
 40
1.0
 40
2.0
 40
2.0
 40
2.0
 10
2.971175064178174
 20
4.386237481263138
 30
0.0
 10
2.971175064178174
 20
4.39248933311499
 30
0.0
 10
2.967098520968298
 20
4.404408345460669
 30
0.0
 10
2.963775064178174
 20
4.408800938053262
 30
0.0
  0
SPLINE
  5
DB
330
A
100
AcDbEntity
  8
0
  6
solid
 62
     7
100
AcDbSpline
210
0.0
220
0.0
230
1.0
 70
     8
 71
     2
 72
     6
 73
     3
 74
     0
 42
0.0000000001
 43
0.0000000001
 40
0.0
 40
0.0
 40
0.0
 40
1.0
 40
1.0
 40
1.0
 10
2.963775064178174
 20
4.408800938053262
 30
0.0
 10
2.95787086664731
 20
4.416200938053261
 30
0.0
 10
2.949759755536199
 20
4.416200938053261
 30
0.0
  0
SPLINE
  5
DC
330
A
100
AcDbEntity
  8
0
  6
solid
 62
     7
100
AcDbSpline
210
0.0
220
0.0
230
1.0
 70
     8
 71
     2
 72
     7
 73
     4
 74
     0
 42
0.0000000001
 43
0.0000000001
 40
0.0
 40
0.0
 40
0.0
 40
1.0
 40
2.0
 40
2.0
 40
2.0
 10
2.949759755536199
 20
4.416200938053261
 30
0.0
 10
2.943792348128792
 20
4.416200938053261
 30
0.0
 10
2.93568123701768
 20
4.407763407189064
 30
0.0
 10
2.93568123701768
 20
4.400942666448323
 30
0.0
  0
SPLINE
  5
DD
330
A
100
AcDbEntity
  8
0
  6
solid
 62
     7
100
AcDbSpline
210
0.0
220
0.0
230
1.0
 70
     8
 71
     2
 72
     7
 73
     4
 74
     0
 42
0.0000000001
 43
0.0000000001
 40
0.0
 40
0.0
 40
0.0
 40
1.0
 40
2.0
 40
2.0
 40
2.0
 10
2.93568123701768
 20
4.400942666448323
 30
0.0
 10
2.93568123701768
 20
4.39525970348536
 30
0.0
 10
2.939557780227557
 20
4.388691802250792
 30
0.0
 10
2.944155804918915
 20
4.387306617065608
 30
0.0
  0
LINE
  5
DE
330
A
100
AcDbEntity
  8
0
  6
solid
 62
     7
100
AcDbLine
 10
2.944155804918915
 20
4.387306617065608
 30
0.0
 11
2.94494049627694
 21
4.384188592374249
 31
0.0
  0
SPLINE
  5
DF
330
A
100
AcDbEntity
  8
0
  6
solid
 62
     7
100
AcDbSpline
210
0.0
220
0.0
230
1.0
 70
     8
 71
     2
 72
     6
 73
     3
 74
     0
 42
0.0000000001
 43
0.0000000001
 40
0.0
 40
0.0
 40
0.0
 40
1.0
 40
1.0
 40
1.0
 10
2.94494049627694
 20
4.384188592374249
 30
0.0
 10
2.939257533313977
 20
4.382250320769311
 30
0.0
 10
2.935697039486816
 20
4.382250320769311
 30
0.0
  0
SPLINE
  5
E0
330
A
100
AcDbEntity
  8
0
  6
solid
 62
     7
100
AcDbSpline
210
0.0
220
0.0
230
1.0
 70
     8
 71
     2
 72
     7
 73
     4
 74
     0
 42
0.0000000001
 43
0.0000000001
 40
0.0
 40
0.0
 40
0.0
 40
1.0
 40
2.0
 40
2.0
 40
2.0
 10
2.935697039486816
 20
4.382250320769311
 30
0.0
 10
2.928534076523853
 20
4.382250320769311
 30
0.0
 10
2.920249138252248
 20
4.390472049164372
 30
0.0
 10
2.920249138252248
 20
4.397024147929805
 30
0.0
  0
SPLINE
  5
E1
330
A
100
AcDbEntity
  8
0
  6
solid
 62
     7
100
AcDbSpline
210
0.0
220
0.0
230
1.0
 70
     8
 71
     2
 72
     7
 73
     4
 74
     0
 42
0.0000000001
 43
0.0000000001
 40
0.0
 40
0.0
 40
0.0
 40
1.0
 40
2.0
 40
2.0
 40
2.0
 10
2.920249138252248
 20
4.397024147929805
 30
0.0
 10
2.920249138252248
 20
4.407147110892768
 30
0.0
 10
2.938077780227557
 20
4.420830567682891
 30
0.0
 10
2.951208150597927
 20
4.420830567682891
 30
0.0
  0
SPLINE
  5
E2
330
A
100
AcDbEntity
  8
0
  6
solid
 62
     7
100
AcDbSpline
210
0.0
220
0.0
230
1.0
 70
     8
 71
     2
 72
     7
 73
     4
 74
     0
 42
0.0000000001
 43
0.0000000001
 40
0.0
 40
0.0
 40
0.0
 40
1.0
 40
2.0
 40
2.0
 40
2.0
 10
2.951208150597927
 20
4.420830567682891
 30
0.0
 10
2.95916123701768
 20
4.420830567682891
 30
0.0
 10
2.974324693807804
 20
4.415258222003878
 30
0.0
 10
2.979001730844841
 20
4.410897234349557
 30
0.0
  0
SPLINE
  5
E3
330
A
100
AcDbEntity
  8
0
  6
solid
 62
     7
100
AcDbSpline
210
0.0
220
0.0
230
1.0
 70
     8
 71
     2
 72
     7
 73
     4
 74
     0
 42
0.0000000001
 43
0.0000000001
 40
0.0
 40
0.0
 40
0.0
 40
1.0
 40
2.0
 40
2.0
 40
2.0
 10
2.979001730844841
 20
4.410897234349557
 30
0.0
 10
2.98420024936336
 20
4.406062172621163
 30
0.0
 10
2.989693582696693
 20
4.394675012127335
 30
0.0
 10
2.989693582696693
 20
4.388423160275483
 30
0.0
  0
SPLINE
  5
E4
330
A
100
AcDbEntity
  8
0
  6
solid
 62
     7
100
AcDbSpline
210
0.0
220
0.0
230
1.0
 70
     8
 71
     2
 72
     6
 73
     3
 74
     0
 42
0.0000000001
 43
0.0000000001
 40
0.0
 40
0.0
 40
0.0
 40
1.0
 40
1.0
 40
1.0
 10
2.989693582696693
 20
4.388423160275483
 30
0.0
 10
2.989693582696693
 20
4.374660691139681
 30
0.0
 10
2.978074817264594
 20
4.364600938053261
 30
0.0
  0
SPLINE
  5
E5
330
A
100
AcDbEntity
  8
0
  6
solid
 62
     7
100
AcDbSpline
210
0.0
220
0.0
230
1.0
 70
     8
 71
     2
 72
     6
 73
     3
 74
     0
 42
0.0000000001
 43
0.0000000001
 40
0.0
 40
0.0
 40
0.0
 40
1.0
 40
1.0
 40
1.0
 10
2.978074817264594
 20
4.364600938053261
 30
0.0
 10
2.973445187634964
 20
4.36092982694215
 30
0.0
 10
2.965665928375705
 20
4.358380691139681
 30
0.0
  0
LINE
  5
FC
330
A
100
AcDbEntity
  8
0
  6
solid
 62
     7
100
AcDbLine
 10
2.274346906351431
 20
0.1786492284546807
 30
0.0
 11
2.274346906351431
 21
0.3215049587917593
 31
0.0
  0
SPLINE
  5
FD
330
A
100
AcDbEntity
  8
0
  6
solid
 62
     7
100
AcDbSpline
210
0.0
220
0.0
230
1.0
 70
     8
 71
     2
 72
     6
 73
     3
 74
     0
 42
0.0000000001
 43
0.0000000001
 40
0.0
 40
0.0
 40
0.0
 40
1.0
 40
1.0
 40
1.0
 10
2.274346906351431
 20
0.3215049587917593
 30
0.0
 10
2.238405333317723
 20
0.290606082387265
 30
0.0
 10
2.22152263668851
 20
0.290606082387265
 30
0.0
  0
SPLINE
  5
FE
330
A
100
AcDbEntity
  8
0
  6
solid
 62
     7
100
AcDbSpline
210
0.0
220
0.0
230
1.0
 70
     8
 71
     2
 72
     7
 73
     4
 74
     0
 42
0.0000000001
 43
0.0000000001
 40
0.0
 40
0.0
 40
0.0
 40
1.0
 40
2.0
 40
2.0
 40
2.0
 10
2.22152263668851
 20
0.290606082387265
 30
0.0
 10
2.213325782755926
 20
0.290606082387265
 30
0.0
 10
2.201572074890757
 20
0.3026761947468155
 30
0.0
 10
2.201572074890757
 20
0.3110456329490627
 30
0.0
  0
SPLINE
  5
FF
330
A
100
AcDbEntity
  8
0
  6
solid
 62
     7
100
AcDbSpline
210
0.0
220
0.0
230
1.0
 70
     8
 71
     2
 72
     7
 73
     4
 74
     0
 42
0.0000000001
 43
0.0000000001
 40
0.0
 40
0.0
 40
0.0
 40
1.0
 40
2.0
 40
2.0
 40
2.0
 10
2.201572074890757
 20
0.3110456329490627
 30
0.0
 10
2.201572074890757
 20
0.3202779924996245
 30
0.0
 10
2.213066906351431
 20
0.3289350711513099
 30
0.0
 10
2.226680389497499
 20
0.3359525992411976
 30
0.0
  0
SPLINE
  5
100
330
A
100
AcDbEntity
  8
0
  6
solid
 62
     7
100
AcDbSpline
210
0.0
220
0.0
230
1.0
 70
     8
 71
     2
 72
     9
 73
     6
 74
     0
 42
0.0000000001
 43
0.0000000001
 40
0.0
 40
0.0
 40
0.0
 40
1.0
 40
2.0
 40
3.0
 40
4.0
 40
4.0
 40
4.0
 10
2.226680389497499
 20
0.3359525992411976
 30
0.0
 10
2.245058816463791
 20
0.3447822621625459
 30
0.0
 10
2.268901513093004
 20
0.3647615880052425
 30
0.0
 10
2.286733423205363
 20
0.390042486881647
 30
0.0
 10
2.292897917587386
 20
0.3973476554209728
 30
0.0
 10
2.302666906351431
 20
0.3973476554209728
 30
0.0
  0
SPLINE
  5
101
330
A
100
AcDbEntity
  8
0
  6
solid
 62
     7
100
AcDbSpline
210
0.0
220
0.0
230
1.0
 70
     8
 71
     2
 72
     7
 73
     4
 74
     0
 42
0.0000000001
 43
0.0000000001
 40
0.0
 40
0.0
 40
0.0
 40
1.0
 40
2.0
 40
2.0
 40
2.0
 10
2.302666906351431
 20
0.3973476554209728
 30
0.0
 10
2.314535670396375
 20
0.3973476554209728
 30
0.0
 10
2.327717692868285
 20
0.3811265318254672
 30
0.0
 10
2.327717692868285
 20
0.3695741722749054
 30
0.0
  0
LINE
  5
102
330
A
100
AcDbEntity
  8
0
  6
solid
 62
     7
100
AcDbLine
 10
2.327717692868285
 20
0.3695741722749054
 30
0.0
 11
2.327717692868285
 21
0.184842486881647
 31
0.0
  0
SPLINE
  5
103
330
A
100
AcDbEntity
  8
0
  6
solid
 62
     7
100
AcDbSpline
210
0.0
220
0.0
230
1.0
 70
     8
 71
     2
 72
     6
 73
     3
 74
     0
 42
0.0000000001
 43
0.0000000001
 40
0.0
 40
0.0
 40
0.0
 40
1.0
 40
1.0
 40
1.0
 10
2.327717692868285
 20
0.184842486881647
 30
0.0
 10
2.327717692868285
 20
0.1501566441850178
 30
0.0
 10
2.29854465916042
 20
0.1501566441850178
 30
0.0
  0
SPLINE
  5
104
330
A
100
AcDbEntity
  8
0
  6
solid
 62
     7
100
AcDbSpline
210
0.0
220
0.0
230
1.0
 70
     8
 71
     2
 72
     7
 73
     4
 74
     0
 42
0.0000000001
 43
0.0000000001
 40
0.0
 40
0.0
 40
0.0
 40
1.0
 40
2.0
 40
2.0
 40
2.0
 10
2.29854465916042
 20
0.1501566441850178
 30
0.0
 10
2.287279940059296
 20
0.1501566441850178
 30
0.0
 10
2.274346906351431
 20
0.1646905767692874
 30
0.0
 10
2.274346906351431
 20
0.1786492284546807
 30
0.0
  0
SPLINE
  5
105
330
A
100
AcDbEntity
  8
0
  6
solid
 62
     7
100
AcDbSpline
210
0.0
220
0.0
230
1.0
 70
     8
 71
     2
 72
     7
 73
     4
 74
     0
 42
0.0000000001
 43
0.0000000001
 40
0.0
 40
0.0
 40
0.0
 40
1.0
 40
2.0
 40
2.0
 40
2.0
 10
2.441911962531206
 20
0.3018420374434447
 30
0.0
 10
2.455841850171656
 20
0.3018420374434447
 30
0.0
 10
2.475533535564915
 20
0.3172101273310852
 30
0.0
 10
2.475533535564915
 20
0.3329422621625459
 30
0.0
  0
SPLINE
  5
106
330
A
100
AcDbEntity
  8
0
  6
solid
 62
     7
100
AcDbSpline
210
0.0
220
0.0
230
1.0
 70
     8
 71
     2
 72
     7
 73
     4
 74
     0
 42
0.0000000001
 43
0.0000000001
 40
0.0
 40
0.0
 40
0.0
 40
1.0
 40
2.0
 40
2.0
 40
2.0
 10
2.475533535564915
 20
0.3329422621625459
 30
0.0
 10
2.475533535564915
 20
0.3442645093535571
 30
0.0
 10
2.459542524328959
 20
0.3608308014883886
 30
0.0
 10
2.446925895115476
 20
0.3608308014883886
 30
0.0
  0
SPLINE
  5
107
330
A
100
AcDbEntity
  8
0
  6
solid
 62
     7
100
AcDbSpline
210
0.0
220
0.0
230
1.0
 70
     8
 71
     2
 72
     9
 73
     6
 74
     0
 42
0.0000000001
 43
0.0000000001
 40
0.0
 40
0.0
 40
0.0
 40
1.0
 40
2.0
 40
3.0
 40
4.0
 40
4.0
 40
4.0
 10
2.446925895115476
 20
0.3608308014883886
 30
0.0
 10
2.438729041182892
 20
0.3608308014883886
 30
0.0
 10
2.428212187250308
 20
0.3559319250838941
 30
0.0
 10
2.422047692868285
 20
0.3476487790164784
 30
0.0
 10
2.41459870410424
 20
0.3316577677805234
 30
0.0
 10
2.411732187250308
 20
0.325320689128838
 30
0.0
  0
SPLINE
  5
108
330
A
100
AcDbEntity
  8
0
  6
solid
 62
     7
100
AcDbSpline
210
0.0
220
0.0
230
1.0
 70
     8
 71
     2
 72
     7
 73
     4
 74
     0
 42
0.0000000001
 43
0.0000000001
 40
0.0
 40
0.0
 40
0.0
 40
1.0
 40
2.0
 40
2.0
 40
2.0
 10
2.411732187250308
 20
0.325320689128838
 30
0.0
 10
2.410495333317724
 20
0.3222528239602987
 30
0.0
 10
2.398061176014353
 20
0.3173251835108605
 30
0.0
 10
2.391493985003117
 20
0.3173251835108605
 30
0.0
  0
SPLINE
  5
109
330
A
100
AcDbEntity
  8
0
  6
solid
 62
     7
100
AcDbSpline
210
0.0
220
0.0
230
1.0
 70
     8
 71
     2
 72
     7
 73
     4
 74
     0
 42
0.0000000001
 43
0.0000000001
 40
0.0
 40
0.0
 40
0.0
 40
1.0
 40
2.0
 40
2.0
 40
2.0
 10
2.391493985003117
 20
0.3173251835108605
 30
0.0
 10
2.383556007475027
 20
0.3173251835108605
 30
0.0
 10
2.37151465916042
 20
0.3301620374434448
 30
0.0
 10
2.37151465916042
 20
0.3395957453086132
 30
0.0
  0
SPLINE
  5
10A
330
A
100
AcDbEntity
  8
0
  6
solid
 62
     7
100
AcDbSpline
210
0.0
220
0.0
230
1.0
 70
     8
 71
     2
 72
     9
 73
     6
 74
     0
 42
0.0000000001
 43
0.0000000001
 40
0.0
 40
0.0
 40
0.0
 40
1.0
 40
2.0
 40
3.0
 40
4.0
 40
4.0
 40
4.0
 10
2.37151465916042
 20
0.3395957453086132
 30
0.0
 10
2.37151465916042
 20
0.3485117003647931
 30
0.0
 10
2.382462973767162
 20
0.3682033857580515
 30
0.0
 10
2.402614883879521
 20
0.3865719250838941
 30
0.0
 10
2.432967243430083
 20
0.3973476554209728
 30
0.0
 10
2.45085668163233
 20
0.3973476554209728
 30
0.0
  0
SPLINE
  5
10B
330
A
100
AcDbEntity
  8
0
  6
solid
 62
     7
100
AcDbSpline
210
0.0
220
0.0
230
1.0
 70
     8
 71
     2
 72
     9
 73
     6
 74
     0
 42
0.0000000001
 43
0.0000000001
 40
0.0
 40
0.0
 40
0.0
 40
1.0
 40
2.0
 40
3.0
 40
4.0
 40
4.0
 40
4.0
 10
2.45085668163233
 20
0.3973476554209728
 30
0.0
 10
2.467768142306487
 20
0.3973476554209728
 30
0.0
 10
2.496174434441319
 20
0.3872622621625459
 30
0.0
 10
2.517553310845813
 20
0.3699193408142313
 30
0.0
 10
2.527102074890757
 20
0.3476487790164784
 30
0.0
 10
2.527102074890757
 20
0.3356649587917594
 30
0.0
  0
SPLINE
  5
10C
330
A
100
AcDbEntity
  8
0
  6
solid
 62
     7
100
AcDbSpline
210
0.0
220
0.0
230
1.0
 70
     8
 71
     2
 72
     7
 73
     4
 74
     0
 42
0.0000000001
 43
0.0000000001
 40
0.0
 40
0.0
 40
0.0
 40
1.0
 40
2.0
 40
2.0
 40
2.0
 10
2.527102074890757
 20
0.3356649587917594
 30
0.0
 10
2.527102074890757
 20
0.3191561947468156
 30
0.0
 10
2.512596906351431
 20
0.2946231610389503
 30
0.0
 10
2.500325445677274
 20
0.2852757453086134
 30
0.0
  0
SPLINE
  5
10D
330
A
100
AcDbEntity
  8
0
  6
solid
 62
     7
100
AcDbSpline
210
0.0
220
0.0
230
1.0
 70
     8
 71
     2
 72
     8
 73
     5
 74
     0
 42
0.0000000001
 43
0.0000000001
 40
0.0
 40
0.0
 40
0.0
 40
1.0
 40
2.0
 40
3.0
 40
3.0
 40
3.0
 10
2.500325445677274
 20
0.2852757453086134
 30
0.0
 10
2.511733985003117
 20
0.2796865318254672
 30
0.0
 10
2.529680951295251
 20
0.2609440599153548
 30
0.0
 10
2.539564996239072
 20
0.2389899026119841
 30
0.0
 10
2.539564996239072
 20
0.2272937228367032
 30
0.0
  0
SPLINE
  5
10E
330
A
100
AcDbEntity
  8
0
  6
solid
 62
     7
100
AcDbSpline
210
0.0
220
0.0
230
1.0
 70
     8
 71
     2
 72
     9
 73
     6
 74
     0
 42
0.0000000001
 43
0.0000000001
 40
0.0
 40
0.0
 40
0.0
 40
1.0
 40
2.0
 40
3.0
 40
4.0
 40
4.0
 40
4.0
 10
2.539564996239072
 20
0.2272937228367032
 30
0.0
 10
2.539564996239072
 20
0.2129323745220964
 30
0.0
 10
2.526641850171656
 20
0.1849287790164785
 30
0.0
 10
2.50187870410424
 20
0.1625143969940066
 30
0.0
 10
2.467825670396375
 20
0.1501566441850178
 30
0.0
 10
2.44755870410424
 20
0.1501566441850178
 30
0.0
  0
SPLINE
  5
10F
330
A
100
AcDbEntity
  8
0
  6
solid
 62
     7
100
AcDbSpline
210
0.0
220
0.0
230
1.0
 70
     8
 71
     2
 72
     9
 73
     6
 74
     0
 42
0.0000000001
 43
0.0000000001
 40
0.0
 40
0.0
 40
0.0
 40
1.0
 40
2.0
 40
3.0
 40
4.0
 40
4.0
 40
4.0
 10
2.44755870410424
 20
0.1501566441850178
 30
0.0
 10
2.427608142306488
 20
0.1501566441850178
 30
0.0
 10
2.395223423205364
 20
0.1632047340726582
 30
0.0
 10
2.374927692868285
 20
0.1847849587917594
 30
0.0
 10
2.364065670396375
 20
0.2074582172187256
 30
0.0
 10
2.364065670396375
 20
0.2154537228367032
 30
0.0
  0
SPLINE
  5
110
330
A
100
AcDbEntity
  8
0
  6
solid
 62
     7
100
AcDbSpline
210
0.0
220
0.0
230
1.0
 70
     8
 71
     2
 72
     7
 73
     4
 74
     0
 42
0.0000000001
 43
0.0000000001
 40
0.0
 40
0.0
 40
0.0
 40
1.0
 40
2.0
 40
2.0
 40
2.0
 10
2.364065670396375
 20
0.2154537228367032
 30
0.0
 10
2.364065670396375
 20
0.2261719250838942
 30
0.0
 10
2.377938029946937
 20
0.2383858576681638
 30
0.0
 10
2.388512411969409
 20
0.2383858576681638
 30
0.0
  0
SPLINE
  5
111
330
A
100
AcDbEntity
  8
0
  6
solid
 62
     7
100
AcDbSpline
210
0.0
220
0.0
230
1.0
 70
     8
 71
     2
 72
     7
 73
     4
 74
     0
 42
0.0000000001
 43
0.0000000001
 40
0.0
 40
0.0
 40
0.0
 40
1.0
 40
2.0
 40
2.0
 40
2.0
 10
2.388512411969409
 20
0.2383858576681638
 30
0.0
 10
2.394619378261544
 20
0.2383858576681638
 30
0.0
 10
2.406114209722218
 20
0.2326240599153549
 30
0.0
 10
2.408290389497499
 20
0.2277539475558043
 30
0.0
  0
SPLINE
  5
112
330
A
100
AcDbEntity
  8
0
  6
solid
 62
     7
100
AcDbSpline
210
0.0
220
0.0
230
1.0
 70
     8
 71
     2
 72
     7
 73
     4
 74
     0
 42
0.0000000001
 43
0.0000000001
 40
0.0
 40
0.0
 40
0.0
 40
1.0
 40
2.0
 40
2.0
 40
2.0
 10
2.408290389497499
 20
0.2277539475558043
 30
0.0
 10
2.416573535564914
 20
0.2073431610389504
 30
0.0
 10
2.433571288373903
 20
0.189482486881647
 30
0.0
 10
2.447760052418847
 20
0.189482486881647
 30
0.0
  0
SPLINE
  5
113
330
A
100
AcDbEntity
  8
0
  6
solid
 62
     7
100
AcDbSpline
210
0.0
220
0.0
230
1.0
 70
     8
 71
     2
 72
     8
 73
     5
 74
     0
 42
0.0000000001
 43
0.0000000001
 40
0.0
 40
0.0
 40
0.0
 40
1.0
 40
2.0
 40
3.0
 40
3.0
 40
3.0
 10
2.447760052418847
 20
0.189482486881647
 30
0.0
 10
2.456819827699746
 20
0.189482486881647
 30
0.0
 10
2.473961400733454
 20
0.1980820374434448
 30
0.0
 10
2.486194209722218
 20
0.2152236104771526
 30
0.0
 10
2.486194209722218
 20
0.2265170936232201
 30
0.0
  0
SPLINE
  5
114
330
A
100
AcDbEntity
  8
0
  6
solid
 62
     7
100
AcDbSpline
210
0.0
220
0.0
230
1.0
 70
     8
 71
     2
 72
     7
 73
     4
 74
     0
 42
0.0000000001
 43
0.0000000001
 40
0.0
 40
0.0
 40
0.0
 40
1.0
 40
2.0
 40
2.0
 40
2.0
 10
2.486194209722218
 20
0.2265170936232201
 30
0.0
 10
2.486194209722218
 20
0.2433422621625459
 30
0.0
 10
2.466876456913229
 20
0.2625161947468155
 30
0.0
 10
2.449792411969409
 20
0.2625161947468155
 30
0.0
  0
SPLINE
  5
115
330
A
100
AcDbEntity
  8
0
  6
solid
 62
     7
100
AcDbSpline
210
0.0
220
0.0
230
1.0
 70
     8
 71
     2
 72
     7
 73
     4
 74
     0
 42
0.0000000001
 43
0.0000000001
 40
0.0
 40
0.0
 40
0.0
 40
1.0
 40
2.0
 40
2.0
 40
2.0
 10
2.449792411969409
 20
0.2625161947468155
 30
0.0
 10
2.446983423205364
 20
0.2625161947468155
 30
0.0
 10
2.433111063654802
 20
0.2607139475558044
 30
0.0
 10
2.43070477151997
 20
0.2607139475558044
 30
0.0
  0
SPLINE
  5
116
330
A
100
AcDbEntity
  8
0
  6
solid
 62
     7
100
AcDbSpline
210
0.0
220
0.0
230
1.0
 70
     8
 71
     2
 72
     7
 73
     4
 74
     0
 42
0.0000000001
 43
0.0000000001
 40
0.0
 40
0.0
 40
0.0
 40
1.0
 40
2.0
 40
2.0
 40
2.0
 10
2.43070477151997
 20
0.2607139475558044
 30
0.0
 10
2.420245445677274
 20
0.2607139475558044
 30
0.0
 10
2.408923198486263
 20
0.2716047340726582
 30
0.0
 10
2.408923198486263
 20
0.2806357453086133
 30
0.0
  0
SPLINE
  5
117
330
A
100
AcDbEntity
  8
0
  6
solid
 62
     7
100
AcDbSpline
210
0.0
220
0.0
230
1.0
 70
     8
 71
     2
 72
     7
 73
     4
 74
     0
 42
0.0000000001
 43
0.0000000001
 40
0.0
 40
0.0
 40
0.0
 40
1.0
 40
2.0
 40
2.0
 40
2.0
 10
2.408923198486263
 20
0.2806357453086133
 30
0.0
 10
2.408923198486263
 20
0.290606082387265
 30
0.0
 10
2.422565445677274
 20
0.3018420374434447
 30
0.0
 10
2.435632411969409
 20
0.3018420374434447
 30
0.0
  0
LINE
  5
118
330
A
100
AcDbEntity
  8
0
  6
solid
 62
     7
100
AcDbLine
 10
2.441911962531206
 20
0.3018420374434447
 30
0.0
 11
2.435632411969409
 21
0.3018420374434447
 31
0.0
  0
LINE
  5
119
330
A
100
AcDbEntity
  8
0
  6
solid
 62
     7
100
AcDbLine
 10
2.665685558036824
 20
0.3638123745220965
 30
0.0
 11
2.620569153542442
 21
0.1771633857580515
 31
0.0
  0
SPLINE
  5
11A
330
A
100
AcDbEntity
  8
0
  6
solid
 62
     7
100
AcDbSpline
210
0.0
220
0.0
230
1.0
 70
     8
 71
     2
 72
     8
 73
     5
 74
     0
 42
0.0000000001
 43
0.0000000001
 40
0.0
 40
0.0
 40
0.0
 40
1.0
 40
2.0
 40
3.0
 40
3.0
 40
3.0
 10
2.620569153542442
 20
0.1771633857580515
 30
0.0
 10
2.618220389497498
 20
0.1703085542973773
 30
0.0
 10
2.614864883879521
 20
0.1574141722749054
 30
0.0
 10
2.605776344553678
 20
0.1501566441850178
 30
0.0
 10
2.595690951295251
 20
0.1501566441850178
 30
0.0
  0
SPLINE
  5
11B
330
A
100
AcDbEntity
  8
0
  6
solid
 62
     7
100
AcDbSpline
210
0.0
220
0.0
230
1.0
 70
     8
 71
     2
 72
     6
 73
     3
 74
     0
 42
0.0000000001
 43
0.0000000001
 40
0.0
 40
0.0
 40
0.0
 40
1.0
 40
1.0
 40
1.0
 10
2.595690951295251
 20
0.1501566441850178
 30
0.0
 10
2.577254996239072
 20
0.1501566441850178
 30
0.0
 10
2.577254996239072
 20
0.1670968689041189
 30
0.0
  0
SPLINE
  5
11C
330
A
100
AcDbEntity
  8
0
  6
solid
 62
     7
100
AcDbSpline
210
0.0
220
0.0
230
1.0
 70
     8
 71
     2
 72
     6
 73
     3
 74
     0
 42
0.0000000001
 43
0.0000000001
 40
0.0
 40
0.0
 40
0.0
 40
1.0
 40
1.0
 40
1.0
 10
2.577254996239072
 20
0.1670968689041189
 30
0.0
 10
2.577254996239072
 20
0.1707400149715347
 30
0.0
 10
2.580380389497499
 20
0.1855040599153549
 30
0.0
  0
LINE
  5
11D
330
A
100
AcDbEntity
  8
0
  6
solid
 62
     7
100
AcDbLine
 10
2.580380389497499
 20
0.1855040599153549
 30
0.0
 11
2.625381737812105
 21
0.372124284634456
 31
0.0
  0
SPLINE
  5
11E
330
A
100
AcDbEntity
  8
0
  6
solid
 62
     7
100
AcDbSpline
210
0.0
220
0.0
230
1.0
 70
     8
 71
     2
 72
     7
 73
     4
 74
     0
 42
0.0000000001
 43
0.0000000001
 40
0.0
 40
0.0
 40
0.0
 40
1.0
 40
2.0
 40
2.0
 40
2.0
 10
2.625381737812105
 20
0.372124284634456
 30
0.0
 10
2.628737243430083
 20
0.3869458576681639
 30
0.0
 10
2.636560164778397
 20
0.4001566441850179
 30
0.0
 10
2.647623535564914
 20
0.4001566441850179
 30
0.0
  0
SPLINE
  5
11F
330
A
100
AcDbEntity
  8
0
  6
solid
 62
     7
100
AcDbSpline
210
0.0
220
0.0
230
1.0
 70
     8
 71
     2
 72
     7
 73
     4
 74
     0
 42
0.0000000001
 43
0.0000000001
 40
0.0
 40
0.0
 40
0.0
 40
1.0
 40
2.0
 40
2.0
 40
2.0
 10
2.647623535564914
 20
0.4001566441850179
 30
0.0
 10
2.657690052418847
 20
0.4001566441850179
 30
0.0
 10
2.669951625452555
 20
0.3895822621625459
 30
0.0
 10
2.669951625452555
 20
0.3820182172187256
 30
0.0
  0
SPLINE
  5
120
330
A
100
AcDbEntity
  8
0
  6
solid
 62
     7
100
AcDbSpline
210
0.0
220
0.0
230
1.0
 70
     8
 71
     2
 72
     6
 73
     3
 74
     0
 42
0.0000000001
 43
0.0000000001
 40
0.0
 40
0.0
 40
0.0
 40
1.0
 40
1.0
 40
1.0
 10
2.669951625452555
 20
0.3820182172187256
 30
0.0
 10
2.669951625452555
 20
0.3777997902524335
 30
0.0
 10
2.665685558036824
 20
0.3638123745220965
 30
0.0
  0
LINE
  5
121
330
A
100
AcDbEntity
  8
0
  6
solid
 62
     7
100
AcDbLine
 10
2.780675333317723
 20
0.1786492284546807
 30
0.0
 11
2.780675333317723
 21
0.3215049587917593
 31
0.0
  0
SPLINE
  5
122
330
A
100
AcDbEntity
  8
0
  6
solid
 62
     7
100
AcDbSpline
210
0.0
220
0.0
230
1.0
 70
     8
 71
     2
 72
     6
 73
     3
 74
     0
 42
0.0000000001
 43
0.0000000001
 40
0.0
 40
0.0
 40
0.0
 40
1.0
 40
1.0
 40
1.0
 10
2.780675333317723
 20
0.3215049587917593
 30
0.0
 10
2.744733760284015
 20
0.290606082387265
 30
0.0
 10
2.727851063654802
 20
0.290606082387265
 30
0.0
  0
SPLINE
  5
123
330
A
100
AcDbEntity
  8
0
  6
solid
 62
     7
100
AcDbSpline
210
0.0
220
0.0
230
1.0
 70
     8
 71
     2
 72
     7
 73
     4
 74
     0
 42
0.0000000001
 43
0.0000000001
 40
0.0
 40
0.0
 40
0.0
 40
1.0
 40
2.0
 40
2.0
 40
2.0
 10
2.727851063654802
 20
0.290606082387265
 30
0.0
 10
2.719654209722218
 20
0.290606082387265
 30
0.0
 10
2.707900501857049
 20
0.3026761947468155
 30
0.0
 10
2.707900501857049
 20
0.3110456329490627
 30
0.0
  0
SPLINE
  5
124
330
A
100
AcDbEntity
  8
0
  6
solid
 62
     7
100
AcDbSpline
210
0.0
220
0.0
230
1.0
 70
     8
 71
     2
 72
     7
 73
     4
 74
     0
 42
0.0000000001
 43
0.0000000001
 40
0.0
 40
0.0
 40
0.0
 40
1.0
 40
2.0
 40
2.0
 40
2.0
 10
2.707900501857049
 20
0.3110456329490627
 30
0.0
 10
2.707900501857049
 20
0.3202779924996245
 30
0.0
 10
2.719395333317723
 20
0.3289350711513099
 30
0.0
 10
2.733008816463791
 20
0.3359525992411976
 30
0.0
  0
SPLINE
  5
125
330
A
100
AcDbEntity
  8
0
  6
solid
 62
     7
100
AcDbSpline
210
0.0
220
0.0
230
1.0
 70
     8
 71
     2
 72
     9
 73
     6
 74
     0
 42
0.0000000001
 43
0.0000000001
 40
0.0
 40
0.0
 40
0.0
 40
1.0
 40
2.0
 40
3.0
 40
4.0
 40
4.0
 40
4.0
 10
2.733008816463791
 20
0.3359525992411976
 30
0.0
 10
2.751387243430083
 20
0.3447822621625459
 30
0.0
 10
2.775229940059296
 20
0.3647615880052425
 30
0.0
 10
2.793061850171655
 20
0.390042486881647
 30
0.0
 10
2.799226344553678
 20
0.3973476554209728
 30
0.0
 10
2.808995333317723
 20
0.3973476554209728
 30
0.0
  0
SPLINE
  5
126
330
A
100
AcDbEntity
  8
0
  6
solid
 62
     7
100
AcDbSpline
210
0.0
220
0.0
230
1.0
 70
     8
 71
     2
 72
     7
 73
     4
 74
     0
 42
0.0000000001
 43
0.0000000001
 40
0.0
 40
0.0
 40
0.0
 40
1.0
 40
2.0
 40
2.0
 40
2.0
 10
2.808995333317723
 20
0.3973476554209728
 30
0.0
 10
2.820864097362667
 20
0.3973476554209728
 30
0.0
 10
2.834046119834577
 20
0.3811265318254672
 30
0.0
 10
2.834046119834577
 20
0.3695741722749054
 30
0.0
  0
LINE
  5
127
330
A
100
AcDbEntity
  8
0
  6
solid
 62
     7
100
AcDbLine
 10
2.834046119834577
 20
0.3695741722749054
 30
0.0
 11
2.834046119834577
 21
0.184842486881647
 31
0.0
  0
SPLINE
  5
128
330
A
100
AcDbEntity
  8
0
  6
solid
 62
     7
100
AcDbSpline
210
0.0
220
0.0
230
1.0
 70
     8
 71
     2
 72
     6
 73
     3
 74
     0
 42
0.0000000001
 43
0.0000000001
 40
0.0
 40
0.0
 40
0.0
 40
1.0
 40
1.0
 40
1.0
 10
2.834046119834577
 20
0.184842486881647
 30
0.0
 10
2.834046119834577
 20
0.1501566441850178
 30
0.0
 10
2.804873086126712
 20
0.1501566441850178
 30
0.0
  0
SPLINE
  5
129
330
A
100
AcDbEntity
  8
0
  6
solid
 62
     7
100
AcDbSpline
210
0.0
220
0.0
230
1.0
 70
     8
 71
     2
 72
     7
 73
     4
 74
     0
 42
0.0000000001
 43
0.0000000001
 40
0.0
 40
0.0
 40
0.0
 40
1.0
 40
2.0
 40
2.0
 40
2.0
 10
2.804873086126712
 20
0.1501566441850178
 30
0.0
 10
2.793608367025588
 20
0.1501566441850178
 30
0.0
 10
2.780675333317723
 20
0.1646905767692874
 30
0.0
 10
2.780675333317723
 20
0.1786492284546807
 30
0.0
  0
SPLINE
  5
12A
330
A
100
AcDbEntity
  8
0
  6
solid
 62
     7
100
AcDbSpline
210
0.0
220
0.0
230
1.0
 70
     8
 71
     2
 72
     7
 73
     4
 74
     0
 42
0.0000000001
 43
0.0000000001
 40
0.0
 40
0.0
 40
0.0
 40
1.0
 40
2.0
 40
2.0
 40
2.0
 10
2.923477243430083
 20
0.2864550711513099
 30
0.0
 10
2.926746456913229
 20
0.2995220374434448
 30
0.0
 10
2.954232299609858
 20
0.3130779924996245
 30
0.0
 10
2.970942411969409
 20
0.3130779924996245
 30
0.0
  0
SPLINE
  5
12B
330
A
100
AcDbEntity
  8
0
  6
solid
 62
     7
100
AcDbSpline
210
0.0
220
0.0
230
1.0
 70
     8
 71
     2
 72
     9
 73
     6
 74
     0
 42
0.0000000001
 43
0.0000000001
 40
0.0
 40
0.0
 40
0.0
 40
1.0
 40
2.0
 40
3.0
 40
4.0
 40
4.0
 40
4.0
 10
2.970942411969409
 20
0.3130779924996245
 30
0.0
 10
2.987853872643566
 20
0.3130779924996245
 30
0.0
 10
3.016375220958173
 20
0.3000110262074897
 30
0.0
 10
3.037696569272779
 20
0.2775966441850178
 30
0.0
 10
3.048702411969409
 20
0.2487301273310852
 30
0.0
 10
3.048702411969409
 20
0.2328254082299616
 30
0.0
  0
SPLINE
  5
12C
330
A
100
AcDbEntity
  8
0
  6
solid
 62
     7
100
AcDbSpline
210
0.0
220
0.0
230
1.0
 70
     8
 71
     2
 72
     8
 73
     5
 74
     0
 42
0.0000000001
 43
0.0000000001
 40
0.0
 40
0.0
 40
0.0
 40
1.0
 40
2.0
 40
3.0
 40
3.0
 40
3.0
 10
3.048702411969409
 20
0.2328254082299616
 30
0.0
 10
3.048702411969409
 20
0.2102096778928829
 30
0.0
 10
3.026920838935701
 20
0.1715741722749054
 30
0.0
 10
2.98713477151997
 20
0.1501566441850178
 30
0.0
 10
2.961623760284016
 20
0.1501566441850178
 30
0.0
  0
SPLINE
  5
12D
330
A
100
AcDbEntity
  8
0
  6
solid
 62
     7
100
AcDbSpline
210
0.0
220
0.0
230
1.0
 70
     8
 71
     2
 72
     8
 73
     5
 74
     0
 42
0.0000000001
 43
0.0000000001
 40
0.0
 40
0.0
 40
0.0
 40
1.0
 40
2.0
 40
3.0
 40
3.0
 40
3.0
 10
2.961623760284016
 20
0.1501566441850178
 30
0.0
 10
2.933620164778398
 20
0.1501566441850178
 30
0.0
 10
2.892463310845813
 20
0.1767894531737818
 30
0.0
 10
2.871736119834577
 20
0.2298725992411976
 30
0.0
 10
2.871736119834577
 20
0.2683355205895121
 30
0.0
  0
SPLINE
  5
12E
330
A
100
AcDbEntity
  8
0
  6
solid
 62
     7
100
AcDbSpline
210
0.0
220
0.0
230
1.0
 70
     8
 71
     2
 72
     9
 73
     6
 74
     0
 42
0.0000000001
 43
0.0000000001
 40
0.0
 40
0.0
 40
0.0
 40
1.0
 40
2.0
 40
3.0
 40
4.0
 40
4.0
 40
4.0
 10
2.871736119834577
 20
0.2683355205895121
 30
0.0
 10
2.871736119834577
 20
0.2991481048591751
 30
0.0
 10
2.884007580508734
 20
0.3477063071063661
 30
0.0
 10
2.9085406142166
 20
0.3805800149715346
 30
0.0
 10
2.943053872643566
 20
0.3973476554209728
 30
0.0
 10
2.965209378261544
 20
0.3973476554209728
 30
0.0
  0
SPLINE
  5
12F
330
A
100
AcDbEntity
  8
0
  6
solid
 62
     7
100
AcDbSpline
210
0.0
220
0.0
230
1.0
 70
     8
 71
     2
 72
     8
 73
     5
 74
     0
 42
0.0000000001
 43
0.0000000001
 40
0.0
 40
0.0
 40
0.0
 40
1.0
 40
2.0
 40
3.0
 40
3.0
 40
3.0
 10
2.965209378261544
 20
0.3973476554209728
 30
0.0
 10
2.987681288373903
 20
0.3973476554209728
 30
0.0
 10
3.0218206142166
 20
0.379007880140074
 30
0.0
 10
3.038617018710982
 20
0.3538708014883886
 30
0.0
 10
3.038617018710982
 20
0.3428074307018717
 30
0.0
  0
SPLINE
  5
130
330
A
100
AcDbEntity
  8
0
  6
solid
 62
     7
100
AcDbSpline
210
0.0
220
0.0
230
1.0
 70
     8
 71
     2
 72
     7
 73
     4
 74
     0
 42
0.0000000001
 43
0.0000000001
 40
0.0
 40
0.0
 40
0.0
 40
1.0
 40
2.0
 40
2.0
 40
2.0
 10
3.038617018710982
 20
0.3428074307018717
 30
0.0
 10
3.038617018710982
 20
0.336355295870411
 30
0.0
 10
3.026805782755926
 20
0.3227993408142312
 30
0.0
 10
3.015742411969409
 20
0.3227993408142312
 30
0.0
  0
SPLINE
  5
131
330
A
100
AcDbEntity
  8
0
  6
solid
 62
     7
100
AcDbSpline
210
0.0
220
0.0
230
1.0
 70
     8
 71
     2
 72
     7
 73
     4
 74
     0
 42
0.0000000001
 43
0.0000000001
 40
0.0
 40
0.0
 40
0.0
 40
1.0
 40
2.0
 40
2.0
 40
2.0
 10
3.015742411969409
 20
0.3227993408142312
 30
0.0
 10
3.007833198486263
 20
0.3227993408142312
 30
0.0
 10
2.995561737812105
 20
0.3328847340726582
 30
0.0
 10
2.992637692868285
 20
0.3412254082299616
 30
0.0
  0
SPLINE
  5
132
330
A
100
AcDbEntity
  8
0
  6
solid
 62
     7
100
AcDbSpline
210
0.0
220
0.0
230
1.0
 70
     8
 71
     2
 72
     7
 73
     4
 74
     0
 42
0.0000000001
 43
0.0000000001
 40
0.0
 40
0.0
 40
0.0
 40
1.0
 40
2.0
 40
2.0
 40
2.0
 10
2.992637692868285
 20
0.3412254082299616
 30
0.0
 10
2.988457917587386
 20
0.3499112509265908
 30
0.0
 10
2.973780164778398
 20
0.3608308014883886
 30
0.0
 10
2.963435895115476
 20
0.3608308014883886
 30
0.0
  0
SPLINE
  5
133
330
A
100
AcDbEntity
  8
0
  6
solid
 62
     7
100
AcDbSpline
210
0.0
220
0.0
230
1.0
 70
     8
 71
     2
 72
     7
 73
     4
 74
     0
 42
0.0000000001
 43
0.0000000001
 40
0.0
 40
0.0
 40
0.0
 40
1.0
 40
2.0
 40
2.0
 40
2.0
 10
2.963435895115476
 20
0.3608308014883886
 30
0.0
 10
2.957185108598622
 20
0.3608308014883886
 30
0.0
 10
2.942852524328959
 20
0.3524901273310852
 30
0.0
 10
2.9368606142166
 20
0.3428937228367031
 30
0.0
  0
SPLINE
  5
134
330
A
100
AcDbEntity
  8
0
  6
solid
 62
     7
100
AcDbSpline
210
0.0
220
0.0
230
1.0
 70
     8
 71
     2
 72
     6
 73
     3
 74
     0
 42
0.0000000001
 43
0.0000000001
 40
0.0
 40
0.0
 40
0.0
 40
1.0
 40
1.0
 40
1.0
 10
2.9368606142166
 20
0.3428937228367031
 30
0.0
 10
2.925797243430083
 20
0.3277269812636695
 30
0.0
 10
2.923477243430083
 20
0.2864550711513099
 30
0.0
  0
SPLINE
  5
135
330
A
100
AcDbEntity
  8
0
  6
solid
 62
     7
100
AcDbSpline
210
0.0
220
0.0
230
1.0
 70
     8
 71
     2
 72
     7
 73
     4
 74
     0
 42
0.0000000001
 43
0.0000000001
 40
0.0
 40
0.0
 40
0.0
 40
1.0
 40
2.0
 40
2.0
 40
2.0
 10
2.962314097362667
 20
0.189482486881647
 30
0.0
 10
2.977135670396375
 20
0.189482486881647
 30
0.0
 10
2.9981406142166
 20
0.2130761947468156
 30
0.0
 10
2.9981406142166
 20
0.2329404644097369
 30
0.0
  0
SPLINE
  5
136
330
A
100
AcDbEntity
  8
0
  6
solid
 62
     7
100
AcDbSpline
210
0.0
220
0.0
230
1.0
 70
     8
 71
     2
 72
     8
 73
     5
 74
     0
 42
0.0000000001
 43
0.0000000001
 40
0.0
 40
0.0
 40
0.0
 40
1.0
 40
2.0
 40
3.0
 40
3.0
 40
3.0
 10
2.9981406142166
 20
0.2329404644097369
 30
0.0
 10
2.9981406142166
 20
0.2466690037355796
 30
0.0
 10
2.987997692868285
 20
0.2661305767692875
 30
0.0
 10
2.971431400733454
 20
0.2765611385670402
 30
0.0
 10
2.96211274904806
 20
0.2765611385670402
 30
0.0
  0
SPLINE
  5
137
330
A
100
AcDbEntity
  8
0
  6
solid
 62
     7
100
AcDbSpline
210
0.0
220
0.0
230
1.0
 70
     8
 71
     2
 72
     8
 73
     5
 74
     0
 42
0.0000000001
 43
0.0000000001
 40
0.0
 40
0.0
 40
0.0
 40
1.0
 40
2.0
 40
3.0
 40
3.0
 40
3.0
 10
2.96211274904806
 20
0.2765611385670402
 30
0.0
 10
2.953915895115476
 20
0.2765611385670402
 30
0.0
 10
2.937809827699746
 20
0.2669359700277144
 30
0.0
 10
2.927915895115476
 20
0.2490465318254672
 30
0.0
 10
2.927915895115476
 20
0.2355768689041189
 30
0.0
  0
SPLINE
  5
138
330
A
100
AcDbEntity
  8
0
  6
solid
 62
     7
100
AcDbSpline
210
0.0
220
0.0
230
1.0
 70
     8
 71
     2
 72
     7
 73
     4
 74
     0
 42
0.0000000001
 43
0.0000000001
 40
0.0
 40
0.0
 40
0.0
 40
1.0
 40
2.0
 40
2.0
 40
2.0
 10
2.927915895115476
 20
0.2355768689041189
 30
0.0
 10
2.927915895115476
 20
0.2149647340726582
 30
0.0
 10
2.94832668163233
 20
0.189482486881647
 30
0.0
 10
2.962314097362667
 20
0.189482486881647
 30
0.0
  0
LINE
  5
139
330
A
100
AcDbEntity
  8
0
  6
solid
 62
     7
100
AcDbLine
 10
3.138846456913229
 20
0.2037000149715346
 30
0.0
 11
3.191757018710982
 21
0.2777692284546807
 31
0.0
  0
LINE
  5
13A
330
A
100
AcDbEntity
  8
0
  6
solid
 62
     7
100
AcDbLine
 10
3.191757018710982
 20
0.2777692284546807
 30
0.0
 11
3.147215895115476
 21
0.3456451835108605
 31
0.0
  0
SPLINE
  5
13B
330
A
100
AcDbEntity
  8
0
  6
solid
 62
     7
100
AcDbSpline
210
0.0
220
0.0
230
1.0
 70
     8
 71
     2
 72
     7
 73
     4
 74
     0
 42
0.0000000001
 43
0.0000000001
 40
0.0
 40
0.0
 40
0.0
 40
1.0
 40
2.0
 40
2.0
 40
2.0
 10
3.147215895115476
 20
0.3456451835108605
 30
0.0
 10
3.141080164778397
 20
0.35627709362322
 30
0.0
 10
3.133832524328959
 20
0.372124284634456
 30
0.0
 10
3.133832524328959
 20
0.3788640599153549
 30
0.0
  0
SPLINE
  5
13C
330
A
100
AcDbEntity
  8
0
  6
solid
 62
     7
100
AcDbSpline
210
0.0
220
0.0
230
1.0
 70
     8
 71
     2
 72
     7
 73
     4
 74
     0
 42
0.0000000001
 43
0.0000000001
 40
0.0
 40
0.0
 40
0.0
 40
1.0
 40
2.0
 40
2.0
 40
2.0
 10
3.133832524328959
 20
0.3788640599153549
 30
0.0
 10
3.133832524328959
 20
0.3870896778928829
 30
0.0
 10
3.147791176014352
 20
0.4001566441850179
 30
0.0
 10
3.158077917587386
 20
0.4001566441850179
 30
0.0
  0
SPLINE
  5
13D
330
A
100
AcDbEntity
  8
0
  6
solid
 62
     7
100
AcDbSpline
210
0.0
220
0.0
230
1.0
 70
     8
 71
     2
 72
     7
 73
     4
 74
     0
 42
0.0000000001
 43
0.0000000001
 40
0.0
 40
0.0
 40
0.0
 40
1.0
 40
2.0
 40
2.0
 40
2.0
 10
3.158077917587386
 20
0.4001566441850179
 30
0.0
 10
3.170608254666038
 20
0.4001566441850179
 30
0.0
 10
3.184192973767161
 20
0.3849422621625459
 30
0.0
 10
3.193195220958172
 20
0.3700343969940065
 30
0.0
  0
LINE
  5
13E
330
A
100
AcDbEntity
  8
0
  6
solid
 62
     7
100
AcDbLine
 10
3.193195220958172
 20
0.3700343969940065
 30
0.0
 11
3.225925108598622
 21
0.3130779924996245
 31
0.0
  0
LINE
  5
13F
330
A
100
AcDbEntity
  8
0
  6
solid
 62
     7
100
AcDbLine
 10
3.225925108598622
 20
0.3130779924996245
 30
0.0
 11
3.260093198486262
 21
0.3700631610389504
 31
0.0
  0
SPLINE
  5
140
330
A
100
AcDbEntity
  8
0
  6
solid
 62
     7
100
AcDbSpline
210
0.0
220
0.0
230
1.0
 70
     8
 71
     2
 72
     9
 73
     6
 74
     0
 42
0.0000000001
 43
0.0000000001
 40
0.0
 40
0.0
 40
0.0
 40
1.0
 40
2.0
 40
3.0
 40
4.0
 40
4.0
 40
4.0
 10
3.260093198486262
 20
0.3700631610389504
 30
0.0
 10
3.265107131070532
 20
0.3778285542973773
 30
0.0
 10
3.271415445677273
 20
0.3876361947468156
 30
0.0
 10
3.278806906351431
 20
0.3956317003647931
 30
0.0
 10
3.287435220958172
 20
0.4001566441850179
 30
0.0
 10
3.293053198486262
 20
0.4001566441850179
 30
0.0
  0
SPLINE
  5
141
330
A
100
AcDbEntity
  8
0
  6
solid
 62
     7
100
AcDbSpline
210
0.0
220
0.0
230
1.0
 70
     8
 71
     2
 72
     7
 73
     4
 74
     0
 42
0.0000000001
 43
0.0000000001
 40
0.0
 40
0.0
 40
0.0
 40
1.0
 40
2.0
 40
2.0
 40
2.0
 10
3.293053198486262
 20
0.4001566441850179
 30
0.0
 10
3.304864434441319
 20
0.4001566441850179
 30
0.0
 10
3.318938142306487
 20
0.3865143969940066
 30
0.0
 10
3.318938142306487
 20
0.3784325992411976
 30
0.0
  0
SPLINE
  5
142
330
A
100
AcDbEntity
  8
0
  6
solid
 62
     7
100
AcDbSpline
210
0.0
220
0.0
230
1.0
 70
     8
 71
     2
 72
     6
 73
     3
 74
     0
 42
0.0000000001
 43
0.0000000001
 40
0.0
 40
0.0
 40
0.0
 40
1.0
 40
1.0
 40
1.0
 10
3.318938142306487
 20
0.3784325992411976
 30
0.0
 10
3.318938142306487
 20
0.367311700364793
 30
0.0
 10
3.305295895115476
 20
0.3472460823872649
 30
0.0
  0
LINE
  5
143
330
A
100
AcDbEntity
  8
0
  6
solid
 62
     7
100
AcDbLine
 10
3.305295895115476
 20
0.3472460823872649
 30
0.0
 11
3.259719265901993
 21
0.2777117003647931
 31
0.0
  0
LINE
  5
144
330
A
100
AcDbEntity
  8
0
  6
solid
 62
     7
100
AcDbLine
 10
3.259719265901993
 20
0.2777117003647931
 30
0.0
 11
3.309533198486263
 21
0.2036712509265908
 31
0.0
  0
SPLINE
  5
145
330
A
100
AcDbEntity
  8
0
  6
solid
 62
     7
100
AcDbSpline
210
0.0
220
0.0
230
1.0
 70
     8
 71
     2
 72
     7
 73
     4
 74
     0
 42
0.0000000001
 43
0.0000000001
 40
0.0
 40
0.0
 40
0.0
 40
1.0
 40
2.0
 40
2.0
 40
2.0
 10
3.309533198486263
 20
0.2036712509265908
 30
0.0
 10
3.316503086126712
 20
0.1923490037355796
 30
0.0
 10
3.3235206142166
 20
0.1787067565445684
 30
0.0
 10
3.3235206142166
 20
0.1729737228367032
 30
0.0
  0
SPLINE
  5
146
330
A
100
AcDbEntity
  8
0
  6
solid
 62
     7
100
AcDbSpline
210
0.0
220
0.0
230
1.0
 70
     8
 71
     2
 72
     8
 73
     5
 74
     0
 42
0.0000000001
 43
0.0000000001
 40
0.0
 40
0.0
 40
0.0
 40
1.0
 40
2.0
 40
3.0
 40
3.0
 40
3.0
 10
3.3235206142166
 20
0.1729737228367032
 30
0.0
 10
3.3235206142166
 20
0.1673845093535571
 30
0.0
 10
3.316474322081768
 20
0.1566087790164785
 30
0.0
 10
3.304202861407611
 20
0.1501566441850178
 30
0.0
 10
3.29580465916042
 20
0.1501566441850178
 30
0.0
  0
SPLINE
  5
147
330
A
100
AcDbEntity
  8
0
  6
solid
 62
     7
100
AcDbSpline
210
0.0
220
0.0
230
1.0
 70
     8
 71
     2
 72
     8
 73
     5
 74
     0
 42
0.0000000001
 43
0.0000000001
 40
0.0
 40
0.0
 40
0.0
 40
1.0
 40
2.0
 40
3.0
 40
3.0
 40
3.0
 10
3.29580465916042
 20
0.1501566441850178
 30
0.0
 10
3.287895445677273
 20
0.1501566441850178
 30
0.0
 10
3.277119715340195
 20
0.1561485542973773
 30
0.0
 10
3.271099041182892
 20
0.1648056329490627
 30
0.0
 10
3.264934546800869
 20
0.1756676554209728
 30
0.0
  0
LINE
  5
148
330
A
100
AcDbEntity
  8
0
  6
solid
 62
     7
100
AcDbLine
 10
3.264934546800869
 20
0.1756676554209728
 30
0.0
 11
3.225263535564914
 21
0.240044284634456
 31
0.0
  0
LINE
  5
149
330
A
100
AcDbEntity
  8
0
  6
solid
 62
     7
100
AcDbLine
 10
3.225263535564914
 20
0.240044284634456
 30
0.0
 11
3.183962861407611
 21
0.1742681048591751
 31
0.0
  0
SPLINE
  5
14A
330
A
100
AcDbEntity
  8
0
  6
solid
 62
     7
100
AcDbSpline
210
0.0
220
0.0
230
1.0
 70
     8
 71
     2
 72
     9
 73
     6
 74
     0
 42
0.0000000001
 43
0.0000000001
 40
0.0
 40
0.0
 40
0.0
 40
1.0
 40
2.0
 40
3.0
 40
4.0
 40
4.0
 40
4.0
 10
3.183962861407611
 20
0.1742681048591751
 30
0.0
 10
3.178603760284015
 20
0.1671256329490627
 30
0.0
 10
3.175133198486262
 20
0.1616227116007481
 30
0.0
 10
3.167454097362667
 20
0.1540299026119841
 30
0.0
 10
3.156534546800869
 20
0.1501566441850178
 30
0.0
 10
3.149766007475026
 20
0.1501566441850178
 30
0.0
  0
SPLINE
  5
14B
330
A
100
AcDbEntity
  8
0
  6
solid
 62
     7
100
AcDbSpline
210
0.0
220
0.0
230
1.0
 70
     8
 71
     2
 72
     7
 73
     4
 74
     0
 42
0.0000000001
 43
0.0000000001
 40
0.0
 40
0.0
 40
0.0
 40
1.0
 40
2.0
 40
2.0
 40
2.0
 10
3.149766007475026
 20
0.1501566441850178
 30
0.0
 10
3.139392973767161
 20
0.1501566441850178
 30
0.0
 10
3.126891400733454
 20
0.1618815880052425
 30
0.0
 10
3.126891400733454
 20
0.1731750711513099
 30
0.0
  0
SPLINE
  5
14C
330
A
100
AcDbEntity
  8
0
  6
solid
 62
     7
100
AcDbSpline
210
0.0
220
0.0
230
1.0
 70
     8
 71
     2
 72
     6
 73
     3
 74
     0
 42
0.0000000001
 43
0.0000000001
 40
0.0
 40
0.0
 40
0.0
 40
1.0
 40
1.0
 40
1.0
 10
3.126891400733454
 20
0.1731750711513099
 30
0.0
 10
3.126891400733454
 20
0.1853314756456919
 30
0.0
 10
3.138846456913229
 20
0.2037000149715346
 30
0.0
  0
LINE
  5
14D
330
A
100
AcDbEntity
  8
0
  6
solid
 62
     7
100
AcDbLine
 10
3.540989602980644
 20
0.3495948464322088
 30
0.0
 11
3.469758142306487
 21
0.3495948464322088
 31
0.0
  0
LINE
  5
14E
330
A
100
AcDbEntity
  8
0
  6
solid
 62
     7
100
AcDbLine
 10
3.469758142306487
 20
0.3495948464322088
 30
0.0
 11
3.461129827699746
 21
0.3025323745220965
 31
0.0
  0
SPLINE
  5
14F
330
A
100
AcDbEntity
  8
0
  6
solid
 62
     7
100
AcDbSpline
210
0.0
220
0.0
230
1.0
 70
     8
 71
     2
 72
     6
 73
     3
 74
     0
 42
0.0000000001
 43
0.0000000001
 40
0.0
 40
0.0
 40
0.0
 40
1.0
 40
1.0
 40
1.0
 10
3.461129827699746
 20
0.3025323745220965
 30
0.0
 10
3.47786870410424
 20
0.3158869812636695
 30
0.0
 10
3.497819265901993
 20
0.3158869812636695
 30
0.0
  0
SPLINE
  5
150
330
A
100
AcDbEntity
  8
0
  6
solid
 62
     7
100
AcDbSpline
210
0.0
220
0.0
230
1.0
 70
     8
 71
     2
 72
     9
 73
     6
 74
     0
 42
0.0000000001
 43
0.0000000001
 40
0.0
 40
0.0
 40
0.0
 40
1.0
 40
2.0
 40
3.0
 40
4.0
 40
4.0
 40
4.0
 10
3.497819265901993
 20
0.3158869812636695
 30
0.0
 10
3.514845782755925
 20
0.3158869812636695
 30
0.0
 10
3.544968029946937
 20
0.3027049587917594
 30
0.0
 10
3.565896569272779
 20
0.2809233857580515
 30
0.0
 10
3.578675895115476
 20
0.2523445093535571
 30
0.0
 10
3.578675895115476
 20
0.2361521498029953
 30
0.0
  0
SPLINE
  5
151
330
A
100
AcDbEntity
  8
0
  6
solid
 62
     7
100
AcDbSpline
210
0.0
220
0.0
230
1.0
 70
     8
 71
     2
 72
     8
 73
     5
 74
     0
 42
0.0000000001
 43
0.0000000001
 40
0.0
 40
0.0
 40
0.0
 40
1.0
 40
2.0
 40
3.0
 40
3.0
 40
3.0
 10
3.578675895115476
 20
0.2361521498029953
 30
0.0
 10
3.578675895115476
 20
0.2131049587917594
 30
0.0
 10
3.556577917587386
 20
0.1737215880052425
 30
0.0
 10
3.513072299609858
 20
0.1501566441850178
 30
0.0
 10
3.486008029946936
 20
0.1501566441850178
 30
0.0
  0
SPLINE
  5
152
330
A
100
AcDbEntity
  8
0
  6
solid
 62
     7
100
AcDbSpline
210
0.0
220
0.0
230
1.0
 70
     8
 71
     2
 72
     8
 73
     5
 74
     0
 42
0.0000000001
 43
0.0000000001
 40
0.0
 40
0.0
 40
0.0
 40
1.0
 40
2.0
 40
3.0
 40
3.0
 40
3.0
 10
3.486008029946936
 20
0.1501566441850178
 30
0.0
 10
3.455828254666038
 20
0.1501566441850178
 30
0.0
 10
3.418793647924465
 20
0.1711427116007481
 30
0.0
 10
3.402630052418847
 20
0.1994914756456919
 30
0.0
 10
3.402630052418847
 20
0.2105548464322088
 30
0.0
  0
SPLINE
  5
153
330
A
100
AcDbEntity
  8
0
  6
solid
 62
     7
100
AcDbSpline
210
0.0
220
0.0
230
1.0
 70
     8
 71
     2
 72
     7
 73
     4
 74
     0
 42
0.0000000001
 43
0.0000000001
 40
0.0
 40
0.0
 40
0.0
 40
1.0
 40
2.0
 40
2.0
 40
2.0
 10
3.402630052418847
 20
0.2105548464322088
 30
0.0
 10
3.402630052418847
 20
0.2182339475558043
 30
0.0
 10
3.414470052418847
 20
0.2305341722749054
 30
0.0
 10
3.424296569272779
 20
0.2305341722749054
 30
0.0
  0
SPLINE
  5
154
330
A
100
AcDbEntity
  8
0
  6
solid
 62
     7
100
AcDbSpline
210
0.0
220
0.0
230
1.0
 70
     8
 71
     2
 72
     6
 73
     3
 74
     0
 42
0.0000000001
 43
0.0000000001
 40
0.0
 40
0.0
 40
0.0
 40
1.0
 40
1.0
 40
1.0
 10
3.424296569272779
 20
0.2305341722749054
 30
0.0
 10
3.441869602980645
 20
0.2305341722749054
 30
0.0
 10
3.449606232194128
 20
0.2136227116007481
 30
0.0
  0
SPLINE
  5
155
330
A
100
AcDbEntity
  8
0
  6
solid
 62
     7
100
AcDbSpline
210
0.0
220
0.0
230
1.0
 70
     8
 71
     2
 72
     7
 73
     4
 74
     0
 42
0.0000000001
 43
0.0000000001
 40
0.0
 40
0.0
 40
0.0
 40
1.0
 40
2.0
 40
2.0
 40
2.0
 10
3.449606232194128
 20
0.2136227116007481
 30
0.0
 10
3.455914546800869
 20
0.1994051835108605
 30
0.0
 10
3.475232299609858
 20
0.1866734981176021
 30
0.0
 10
3.486439490621094
 20
0.1866734981176021
 30
0.0
  0
SPLINE
  5
156
330
A
100
AcDbEntity
  8
0
  6
solid
 62
     7
100
AcDbSpline
210
0.0
220
0.0
230
1.0
 70
     8
 71
     2
 72
     8
 73
     5
 74
     0
 42
0.0000000001
 43
0.0000000001
 40
0.0
 40
0.0
 40
0.0
 40
1.0
 40
2.0
 40
3.0
 40
3.0
 40
3.0
 10
3.486439490621094
 20
0.1866734981176021
 30
0.0
 10
3.497905558036824
 20
0.1866734981176021
 30
0.0
 10
3.515133423205364
 20
0.1981683295782762
 30
0.0
 10
3.525305108598622
 20
0.2185503520501863
 30
0.0
 10
3.525305108598622
 20
0.2321350711513099
 30
0.0
  0
SPLINE
  5
157
330
A
100
AcDbEntity
  8
0
  6
solid
 62
     7
100
AcDbSpline
210
0.0
220
0.0
230
1.0
 70
     8
 71
     2
 72
     8
 73
     5
 74
     0
 42
0.0000000001
 43
0.0000000001
 40
0.0
 40
0.0
 40
0.0
 40
1.0
 40
2.0
 40
3.0
 40
3.0
 40
3.0
 10
3.525305108598622
 20
0.2321350711513099
 30
0.0
 10
3.525305108598622
 20
0.2463813632861414
 30
0.0
 10
3.514644434441319
 20
0.2663031610389503
 30
0.0
 10
3.49764668163233
 20
0.2765611385670402
 30
0.0
 10
3.486870951295251
 20
0.2765611385670402
 30
0.0
  0
SPLINE
  5
158
330
A
100
AcDbEntity
  8
0
  6
solid
 62
     7
100
AcDbSpline
210
0.0
220
0.0
230
1.0
 70
     8
 71
     2
 72
     8
 73
     5
 74
     0
 42
0.0000000001
 43
0.0000000001
 40
0.0
 40
0.0
 40
0.0
 40
1.0
 40
2.0
 40
3.0
 40
3.0
 40
3.0
 10
3.486870951295251
 20
0.2765611385670402
 30
0.0
 10
3.475261063654802
 20
0.2765611385670402
 30
0.0
 10
3.464945558036824
 20
0.2709719250838942
 30
0.0
 10
3.441380614216599
 20
0.2522582172187256
 30
0.0
 10
3.431007580508734
 20
0.2522582172187256
 30
0.0
  0
SPLINE
  5
159
330
A
100
AcDbEntity
  8
0
  6
solid
 62
     7
100
AcDbSpline
210
0.0
220
0.0
230
1.0
 70
     8
 71
     2
 72
     7
 73
     4
 74
     0
 42
0.0000000001
 43
0.0000000001
 40
0.0
 40
0.0
 40
0.0
 40
1.0
 40
2.0
 40
2.0
 40
2.0
 10
3.431007580508734
 20
0.2522582172187256
 30
0.0
 10
3.422177917587386
 20
0.2522582172187256
 30
0.0
 10
3.408161737812105
 20
0.2657566441850178
 30
0.0
 10
3.408161737812105
 20
0.2742986666569279
 30
0.0
  0
SPLINE
  5
15A
330
A
100
AcDbEntity
  8
0
  6
solid
 62
     7
100
AcDbSpline
210
0.0
220
0.0
230
1.0
 70
     8
 71
     2
 72
     6
 73
     3
 74
     0
 42
0.0000000001
 43
0.0000000001
 40
0.0
 40
0.0
 40
0.0
 40
1.0
 40
1.0
 40
1.0
 10
3.408161737812105
 20
0.2742986666569279
 30
0.0
 10
3.408161737812105
 20
0.2751615880052425
 30
0.0
 10
3.410309153542442
 20
0.2857647340726582
 30
0.0
  0
LINE
  5
15B
330
A
100
AcDbEntity
  8
0
  6
solid
 62
     7
100
AcDbLine
 10
3.410309153542442
 20
0.2857647340726582
 30
0.0
 11
3.423098367025588
 21
0.3643301273310852
 31
0.0
  0
SPLINE
  5
15C
330
A
100
AcDbEntity
  8
0
  6
solid
 62
     7
100
AcDbSpline
210
0.0
220
0.0
230
1.0
 70
     8
 71
     2
 72
     7
 73
     4
 74
     0
 42
0.0000000001
 43
0.0000000001
 40
0.0
 40
0.0
 40
0.0
 40
1.0
 40
2.0
 40
2.0
 40
2.0
 10
3.423098367025588
 20
0.3643301273310852
 30
0.0
 10
3.425619715340195
 20
0.3791517003647931
 30
0.0
 10
3.439520838935701
 20
0.3945386666569279
 30
0.0
 10
3.455224209722218
 20
0.3945386666569279
 30
0.0
  0
LINE
  5
15D
330
A
100
AcDbEntity
  8
0
  6
solid
 62
     7
100
AcDbLine
 10
3.455224209722218
 20
0.3945386666569279
 30
0.0
 11
3.540328029946937
 21
0.3945386666569279
 31
0.0
  0
SPLINE
  5
15E
330
A
100
AcDbEntity
  8
0
  6
solid
 62
     7
100
AcDbSpline
210
0.0
220
0.0
230
1.0
 70
     8
 71
     2
 72
     6
 73
     3
 74
     0
 42
0.0000000001
 43
0.0000000001
 40
0.0
 40
0.0
 40
0.0
 40
1.0
 40
1.0
 40
1.0
 10
3.540328029946937
 20
0.3945386666569279
 30
0.0
 10
3.57137072657615
 20
0.3945386666569279
 30
0.0
 10
3.57137072657615
 20
0.370926082387265
 30
0.0
  0
SPLINE
  5
15F
330
A
100
AcDbEntity
  8
0
  6
solid
 62
     7
100
AcDbSpline
210
0.0
220
0.0
230
1.0
 70
     8
 71
     2
 72
     7
 73
     4
 74
     0
 42
0.0000000001
 43
0.0000000001
 40
0.0
 40
0.0
 40
0.0
 40
1.0
 40
2.0
 40
2.0
 40
2.0
 10
3.57137072657615
 20
0.370926082387265
 30
0.0
 10
3.57137072657615
 20
0.3620676554209728
 30
0.0
 10
3.556577917587386
 20
0.3495948464322088
 30
0.0
 10
3.540989602980644
 20
0.3495948464322088
 30
0.0
  0
LINE
  5
160
330
A
100
AcDbEntity
  8
0
  6
solid
 62
     7
100
AcDbLine
 10
3.693244097362667
 20
0.2203813632861414
 30
0.0
 11
3.642452187250307
 21
0.2203813632861414
 31
0.0
  0
SPLINE
  5
161
330
A
100
AcDbEntity
  8
0
  6
solid
 62
     7
100
AcDbSpline
210
0.0
220
0.0
230
1.0
 70
     8
 71
     2
 72
     7
 73
     4
 74
     0
 42
0.0000000001
 43
0.0000000001
 40
0.0
 40
0.0
 40
0.0
 40
1.0
 40
2.0
 40
2.0
 40
2.0
 10
3.642452187250307
 20
0.2203813632861414
 30
0.0
 10
3.629270164778397
 20
0.2203813632861414
 30
0.0
 10
3.616365895115476
 20
0.2324227116007481
 30
0.0
 10
3.616365895115476
 20
0.2418276554209728
 30
0.0
  0
SPLINE
  5
162
330
A
100
AcDbEntity
  8
0
  6
solid
 62
     7
100
AcDbSpline
210
0.0
220
0.0
230
1.0
 70
     8
 71
     2
 72
     7
 73
     4
 74
     0
 42
0.0000000001
 43
0.0000000001
 40
0.0
 40
0.0
 40
0.0
 40
1.0
 40
2.0
 40
2.0
 40
2.0
 10
3.616365895115476
 20
0.2418276554209728
 30
0.0
 10
3.616365895115476
 20
0.2522582172187256
 30
0.0
 10
3.62906881646379
 20
0.2653251835108605
 30
0.0
 10
3.642452187250307
 20
0.2653251835108605
 30
0.0
  0
LINE
  5
163
330
A
100
AcDbEntity
  8
0
  6
solid
 62
     7
100
AcDbLine
 10
3.642452187250307
 20
0.2653251835108605
 30
0.0
 11
3.693244097362667
 21
0.2653251835108605
 31
0.0
  0
SPLINE
  5
164
330
A
100
AcDbEntity
  8
0
  6
solid
 62
     7
100
AcDbSpline
210
0.0
220
0.0
230
1.0
 70
     8
 71
     2
 72
     7
 73
     4
 74
     0
 42
0.0000000001
 43
0.0000000001
 40
0.0
 40
0.0
 40
0.0
 40
1.0
 40
2.0
 40
2.0
 40
2.0
 10
3.693244097362667
 20
0.2653251835108605
 30
0.0
 10
3.707835558036824
 20
0.2653251835108605
 30
0.0
 10
3.723107468149184
 20
0.2516829363198493
 30
0.0
 10
3.723107468149184
 20
0.2418276554209728
 30
0.0
  0
SPLINE
  5
165
330
A
100
AcDbEntity
  8
0
  6
solid
 62
     7
100
AcDbSpline
210
0.0
220
0.0
230
1.0
 70
     8
 71
     2
 72
     7
 73
     4
 74
     0
 42
0.0000000001
 43
0.0000000001
 40
0.0
 40
0.0
 40
0.0
 40
1.0
 40
2.0
 40
2.0
 40
2.0
 10
3.723107468149184
 20
0.2418276554209728
 30
0.0
 10
3.723107468149184
 20
0.2330555205895122
 30
0.0
 10
3.707979378261543
 20
0.2203813632861414
 30
0.0
 10
3.693244097362667
 20
0.2203813632861414
 30
0.0
  0
LINE
  5
166
330
A
100
AcDbEntity
  8
0
  6
solid
 62
     7
100
AcDbLine
 10
3.789894097362667
 20
0.3945386666569279
 30
0.0
 11
3.896721962531207
 21
0.3945386666569279
 31
0.0
  0
SPLINE
  5
167
330
A
100
AcDbEntity
  8
0
  6
solid
 62
     7
100
AcDbSpline
210
0.0
220
0.0
230
1.0
 70
     8
 71
     2
 72
     7
 73
     4
 74
     0
 42
0.0000000001
 43
0.0000000001
 40
0.0
 40
0.0
 40
0.0
 40
1.0
 40
2.0
 40
2.0
 40
2.0
 10
3.896721962531207
 20
0.3945386666569279
 30
0.0
 10
3.91420870410424
 20
0.3945386666569279
 30
0.0
 10
3.932145782755926
 20
0.3818743969940065
 30
0.0
 10
3.932145782755926
 20
0.3703220374434447
 30
0.0
  0
SPLINE
  5
168
330
A
100
AcDbEntity
  8
0
  6
solid
 62
     7
100
AcDbSpline
210
0.0
220
0.0
230
1.0
 70
     8
 71
     2
 72
     9
 73
     6
 74
     0
 42
0.0000000001
 43
0.0000000001
 40
0.0
 40
0.0
 40
0.0
 40
1.0
 40
2.0
 40
3.0
 40
4.0
 40
4.0
 40
4.0
 10
3.932145782755926
 20
0.3703220374434447
 30
0.0
 10
3.932145782755926
 20
0.363869902611984
 30
0.0
 10
3.915464434441319
 20
0.3411678801400739
 30
0.0
 10
3.894373198486263
 20
0.3140847340726582
 30
0.0
 10
3.873214546800869
 20
0.2742699026119841
 30
0.0
 10
3.863157917587386
 20
0.2441764194659167
 30
0.0
  0
SPLINE
  5
169
330
A
100
AcDbEntity
  8
0
  6
solid
 62
     7
100
AcDbSpline
210
0.0
220
0.0
230
1.0
 70
     8
 71
     2
 72
     8
 73
     5
 74
     0
 42
0.0000000001
 43
0.0000000001
 40
0.0
 40
0.0
 40
0.0
 40
1.0
 40
2.0
 40
3.0
 40
3.0
 40
3.0
 10
3.863157917587386
 20
0.2441764194659167
 30
0.0
 10
3.859716119834578
 20
0.2321638351962537
 30
0.0
 10
3.856763310845813
 20
0.2176299026119841
 30
0.0
 10
3.852209602980645
 20
0.1880829363198492
 30
0.0
 10
3.851260389497499
 20
0.1814582172187257
 30
0.0
  0
SPLINE
  5
16A
330
A
100
AcDbEntity
  8
0
  6
solid
 62
     7
100
AcDbSpline
210
0.0
220
0.0
230
1.0
 70
     8
 71
     2
 72
     7
 73
     4
 74
     0
 42
0.0000000001
 43
0.0000000001
 40
0.0
 40
0.0
 40
0.0
 40
1.0
 40
2.0
 40
2.0
 40
2.0
 10
3.851260389497499
 20
0.1814582172187257
 30
0.0
 10
3.848077468149184
 20
0.164920689128838
 30
0.0
 10
3.832661737812106
 20
0.1501566441850178
 30
0.0
 10
3.819987580508735
 20
0.1501566441850178
 30
0.0
  0
SPLINE
  5
16B
330
A
100
AcDbEntity
  8
0
  6
solid
 62
     7
100
AcDbSpline
210
0.0
220
0.0
230
1.0
 70
     8
 71
     2
 72
     7
 73
     4
 74
     0
 42
0.0000000001
 43
0.0000000001
 40
0.0
 40
0.0
 40
0.0
 40
1.0
 40
2.0
 40
2.0
 40
2.0
 10
3.819987580508735
 20
0.1501566441850178
 30
0.0
 10
3.808837917587386
 20
0.1501566441850178
 30
0.0
 10
3.795253198486263
 20
0.1650932733985009
 30
0.0
 10
3.795253198486263
 20
0.1793683295782762
 30
0.0
  0
SPLINE
  5
16C
330
A
100
AcDbEntity
  8
0
  6
solid
 62
     7
100
AcDbSpline
210
0.0
220
0.0
230
1.0
 70
     8
 71
     2
 72
     9
 73
     6
 74
     0
 42
0.0000000001
 43
0.0000000001
 40
0.0
 40
0.0
 40
0.0
 40
1.0
 40
2.0
 40
3.0
 40
4.0
 40
4.0
 40
4.0
 10
3.795253198486263
 20
0.1793683295782762
 30
0.0
 10
3.795253198486263
 20
0.190287880140074
 30
0.0
 10
3.80385274904806
 20
0.2261719250838942
 30
0.0
 10
3.823573198486263
 20
0.2751903520501863
 30
0.0
 10
3.853695445677274
 20
0.3279858576681638
 30
0.0
 10
3.873358367025589
 20
0.3495948464322088
 30
0.0
  0
LINE
  5
16D
330
A
100
AcDbEntity
  8
0
  6
solid
 62
     7
100
AcDbLine
 10
3.873358367025589
 20
0.3495948464322088
 30
0.0
 11
3.789894097362667
 21
0.3495948464322088
 31
0.0
  0
SPLINE
  5
16E
330
A
100
AcDbEntity
  8
0
  6
solid
 62
     7
100
AcDbSpline
210
0.0
220
0.0
230
1.0
 70
     8
 71
     2
 72
     7
 73
     4
 74
     0
 42
0.0000000001
 43
0.0000000001
 40
0.0
 40
0.0
 40
0.0
 40
1.0
 40
2.0
 40
2.0
 40
2.0
 10
3.789894097362667
 20
0.3495948464322088
 30
0.0
 10
3.775590277137948
 20
0.3495948464322088
 30
0.0
 10
3.760797468149184
 20
0.3610896778928829
 30
0.0
 10
3.760797468149184
 20
0.3729872059827706
 30
0.0
  0
SPLINE
  5
16F
330
A
100
AcDbEntity
  8
0
  6
solid
 62
     7
100
AcDbSpline
210
0.0
220
0.0
230
1.0
 70
     8
 71
     2
 72
     7
 73
     4
 74
     0
 42
0.0000000001
 43
0.0000000001
 40
0.0
 40
0.0
 40
0.0
 40
1.0
 40
2.0
 40
2.0
 40
2.0
 10
3.760797468149184
 20
0.3729872059827706
 30
0.0
 10
3.760797468149184
 20
0.3865431610389503
 30
0.0
 10
3.776366906351431
 20
0.3945386666569279
 30
0.0
 10
3.789894097362667
 20
0.3945386666569279
 30
0.0
  0
LINE
  5
170
330
A
100
AcDbEntity
  8
0
  6
solid
 62
     7
100
AcDbLine
 10
4.058266344553678
 20
0.3638123745220965
 30
0.0
 11
4.013149940059296
 21
0.1771633857580515
 31
0.0
  0
SPLINE
  5
171
330
A
100
AcDbEntity
  8
0
  6
solid
 62
     7
100
AcDbSpline
210
0.0
220
0.0
230
1.0
 70
     8
 71
     2
 72
     8
 73
     5
 74
     0
 42
0.0000000001
 43
0.0000000001
 40
0.0
 40
0.0
 40
0.0
 40
1.0
 40
2.0
 40
3.0
 40
3.0
 40
3.0
 10
4.013149940059296
 20
0.1771633857580515
 30
0.0
 10
4.010801176014353
 20
0.1703085542973773
 30
0.0
 10
4.007445670396375
 20
0.1574141722749054
 30
0.0
 10
3.998357131070532
 20
0.1501566441850178
 30
0.0
 10
3.988271737812105
 20
0.1501566441850178
 30
0.0
  0
SPLINE
  5
172
330
A
100
AcDbEntity
  8
0
  6
solid
 62
     7
100
AcDbSpline
210
0.0
220
0.0
230
1.0
 70
     8
 71
     2
 72
     6
 73
     3
 74
     0
 42
0.0000000001
 43
0.0000000001
 40
0.0
 40
0.0
 40
0.0
 40
1.0
 40
1.0
 40
1.0
 10
3.988271737812105
 20
0.1501566441850178
 30
0.0
 10
3.969835782755925
 20
0.1501566441850178
 30
0.0
 10
3.969835782755925
 20
0.1670968689041189
 30
0.0
  0
SPLINE
  5
173
330
A
100
AcDbEntity
  8
0
  6
solid
 62
     7
100
AcDbSpline
210
0.0
220
0.0
230
1.0
 70
     8
 71
     2
 72
     6
 73
     3
 74
     0
 42
0.0000000001
 43
0.0000000001
 40
0.0
 40
0.0
 40
0.0
 40
1.0
 40
1.0
 40
1.0
 10
3.969835782755925
 20
0.1670968689041189
 30
0.0
 10
3.969835782755925
 20
0.1707400149715347
 30
0.0
 10
3.972961176014353
 20
0.1855040599153549
 30
0.0
  0
LINE
  5
174
330
A
100
AcDbEntity
  8
0
  6
solid
 62
     7
100
AcDbLine
 10
3.972961176014353
 20
0.1855040599153549
 30
0.0
 11
4.017962524328959
 21
0.372124284634456
 31
0.0
  0
SPLINE
  5
175
330
A
100
AcDbEntity
  8
0
  6
solid
 62
     7
100
AcDbSpline
210
0.0
220
0.0
230
1.0
 70
     8
 71
     2
 72
     7
 73
     4
 74
     0
 42
0.0000000001
 43
0.0000000001
 40
0.0
 40
0.0
 40
0.0
 40
1.0
 40
2.0
 40
2.0
 40
2.0
 10
4.017962524328959
 20
0.372124284634456
 30
0.0
 10
4.021318029946937
 20
0.3869458576681639
 30
0.0
 10
4.029140951295251
 20
0.4001566441850179
 30
0.0
 10
4.040204322081768
 20
0.4001566441850179
 30
0.0
  0
SPLINE
  5
176
330
A
100
AcDbEntity
  8
0
  6
solid
 62
     7
100
AcDbSpline
210
0.0
220
0.0
230
1.0
 70
     8
 71
     2
 72
     7
 73
     4
 74
     0
 42
0.0000000001
 43
0.0000000001
 40
0.0
 40
0.0
 40
0.0
 40
1.0
 40
2.0
 40
2.0
 40
2.0
 10
4.040204322081768
 20
0.4001566441850179
 30
0.0
 10
4.050270838935701
 20
0.4001566441850179
 30
0.0
 10
4.062532411969408
 20
0.3895822621625459
 30
0.0
 10
4.062532411969408
 20
0.3820182172187256
 30
0.0
  0
SPLINE
  5
177
330
A
100
AcDbEntity
  8
0
  6
solid
 62
     7
100
AcDbSpline
210
0.0
220
0.0
230
1.0
 70
     8
 71
     2
 72
     6
 73
     3
 74
     0
 42
0.0000000001
 43
0.0000000001
 40
0.0
 40
0.0
 40
0.0
 40
1.0
 40
1.0
 40
1.0
 10
4.062532411969408
 20
0.3820182172187256
 30
0.0
 10
4.062532411969408
 20
0.3777997902524335
 30
0.0
 10
4.058266344553678
 20
0.3638123745220965
 30
0.0
  0
SPLINE
  5
178
330
A
100
AcDbEntity
  8
0
  6
solid
 62
     7
100
AcDbSpline
210
0.0
220
0.0
230
1.0
 70
     8
 71
     2
 72
     8
 73
     5
 74
     0
 42
0.0000000001
 43
0.0000000001
 40
0.0
 40
0.0
 40
0.0
 40
1.0
 40
2.0
 40
3.0
 40
3.0
 40
3.0
 10
4.107422411969409
 20
0.3327409138479391
 30
0.0
 10
4.107422411969409
 20
0.3496523745220965
 30
0.0
 10
4.12630870410424
 20
0.3789215880052425
 30
0.0
 10
4.162106456913229
 20
0.3973476554209728
 30
0.0
 10
4.18526870410424
 20
0.3973476554209728
 30
0.0
  0
SPLINE
  5
179
330
A
100
AcDbEntity
  8
0
  6
solid
 62
     7
100
AcDbSpline
210
0.0
220
0.0
230
1.0
 70
     8
 71
     2
 72
     9
 73
     6
 74
     0
 42
0.0000000001
 43
0.0000000001
 40
0.0
 40
0.0
 40
0.0
 40
1.0
 40
2.0
 40
3.0
 40
4.0
 40
4.0
 40
4.0
 10
4.18526870410424
 20
0.3973476554209728
 30
0.0
 10
4.205478142306487
 20
0.3973476554209728
 30
0.0
 10
4.237920389497499
 20
0.3863993408142313
 30
0.0
 10
4.258359940059296
 20
0.3673404644097369
 30
0.0
 10
4.267621063654802
 20
0.3447822621625459
 30
0.0
 10
4.267621063654802
 20
0.3328847340726582
 30
0.0
  0
SPLINE
  5
17A
330
A
100
AcDbEntity
  8
0
  6
solid
 62
     7
100
AcDbSpline
210
0.0
220
0.0
230
1.0
 70
     8
 71
     2
 72
     7
 73
     4
 74
     0
 42
0.0000000001
 43
0.0000000001
 40
0.0
 40
0.0
 40
0.0
 40
1.0
 40
2.0
 40
2.0
 40
2.0
 10
4.267621063654802
 20
0.3328847340726582
 30
0.0
 10
4.267621063654802
 20
0.3167211385670403
 30
0.0
 10
4.250393198486262
 20
0.2910375430614223
 30
0.0
 10
4.235370277137948
 20
0.285016868904119
 30
0.0
  0
SPLINE
  5
17B
330
A
100
AcDbEntity
  8
0
  6
solid
 62
     7
100
AcDbSpline
210
0.0
220
0.0
230
1.0
 70
     8
 71
     2
 72
     8
 73
     5
 74
     0
 42
0.0000000001
 43
0.0000000001
 40
0.0
 40
0.0
 40
0.0
 40
1.0
 40
2.0
 40
3.0
 40
3.0
 40
3.0
 10
4.235370277137948
 20
0.285016868904119
 30
0.0
 10
4.247325333317723
 20
0.2806069812636695
 30
0.0
 10
4.267045782755926
 20
0.2625737228367031
 30
0.0
 10
4.27718870410424
 20
0.2385872059827706
 30
0.0
 10
4.27718870410424
 20
0.2246285542973773
 30
0.0
  0
SPLINE
  5
17C
330
A
100
AcDbEntity
  8
0
  6
solid
 62
     7
100
AcDbSpline
210
0.0
220
0.0
230
1.0
 70
     8
 71
     2
 72
     8
 73
     5
 74
     0
 42
0.0000000001
 43
0.0000000001
 40
0.0
 40
0.0
 40
0.0
 40
1.0
 40
2.0
 40
3.0
 40
3.0
 40
3.0
 10
4.27718870410424
 20
0.2246285542973773
 30
0.0
 10
4.27718870410424
 20
0.2043903520501863
 30
0.0
 10
4.256011176014353
 20
0.1701934981176021
 30
0.0
 10
4.215419715340195
 20
0.1501566441850178
 30
0.0
 10
4.187502411969409
 20
0.1501566441850178
 30
0.0
  0
SPLINE
  5
17D
330
A
100
AcDbEntity
  8
0
  6
solid
 62
     7
100
AcDbSpline
210
0.0
220
0.0
230
1.0
 70
     8
 71
     2
 72
     8
 73
     5
 74
     0
 42
0.0000000001
 43
0.0000000001
 40
0.0
 40
0.0
 40
0.0
 40
1.0
 40
2.0
 40
3.0
 40
3.0
 40
3.0
 10
4.187502411969409
 20
0.1501566441850178
 30
0.0
 10
4.159700164778397
 20
0.1501566441850178
 30
0.0
 10
4.120259265901993
 20
0.168678891376029
 30
0.0
 10
4.100222411969409
 20
0.2036712509265908
 30
0.0
 10
4.100222411969409
 20
0.2243984419378267
 30
0.0
  0
SPLINE
  5
17E
330
A
100
AcDbEntity
  8
0
  6
solid
 62
     7
100
AcDbSpline
210
0.0
220
0.0
230
1.0
 70
     8
 71
     2
 72
     6
 73
     3
 74
     0
 42
0.0000000001
 43
0.0000000001
 40
0.0
 40
0.0
 40
0.0
 40
1.0
 40
1.0
 40
1.0
 10
4.100222411969409
 20
0.2243984419378267
 30
0.0
 10
4.100222411969409
 20
0.2696874307018717
 30
0.0
 10
4.141072749048061
 20
0.2849881048591751
 30
0.0
  0
SPLINE
  5
17F
330
A
100
AcDbEntity
  8
0
  6
solid
 62
     7
100
AcDbSpline
210
0.0
220
0.0
230
1.0
 70
     8
 71
     2
 72
     6
 73
     3
 74
     0
 42
0.0000000001
 43
0.0000000001
 40
0.0
 40
0.0
 40
0.0
 40
1.0
 40
1.0
 40
1.0
 10
4.141072749048061
 20
0.2849881048591751
 30
0.0
 10
4.107422411969409
 20
0.2974896778928829
 30
0.0
 10
4.107422411969409
 20
0.3327409138479391
 30
0.0
  0
SPLINE
  5
180
330
A
100
AcDbEntity
  8
0
  6
solid
 62
     7
100
AcDbSpline
210
0.0
220
0.0
230
1.0
 70
     8
 71
     2
 72
     8
 73
     5
 74
     0
 42
0.0000000001
 43
0.0000000001
 40
0.0
 40
0.0
 40
0.0
 40
1.0
 40
2.0
 40
3.0
 40
3.0
 40
3.0
 10
4.223817917587386
 20
0.2264308014883886
 30
0.0
 10
4.223817917587386
 20
0.2380694531737818
 30
0.0
 10
4.213703760284015
 20
0.2553260823872649
 30
0.0
 10
4.196590951295251
 20
0.2653251835108605
 30
0.0
 10
4.185700164778397
 20
0.2653251835108605
 30
0.0
  0
SPLINE
  5
181
330
A
100
AcDbEntity
  8
0
  6
solid
 62
     7
100
AcDbSpline
210
0.0
220
0.0
230
1.0
 70
     8
 71
     2
 72
     7
 73
     4
 74
     0
 42
0.0000000001
 43
0.0000000001
 40
0.0
 40
0.0
 40
0.0
 40
1.0
 40
2.0
 40
2.0
 40
2.0
 10
4.185700164778397
 20
0.2653251835108605
 30
0.0
 10
4.172259265901993
 20
0.2653251835108605
 30
0.0
 10
4.153593198486262
 20
0.2457197902524335
 30
0.0
 10
4.153593198486262
 20
0.226200689128838
 30
0.0
  0
SPLINE
  5
182
330
A
100
AcDbEntity
  8
0
  6
solid
 62
     7
100
AcDbSpline
210
0.0
220
0.0
230
1.0
 70
     8
 71
     2
 72
     8
 73
     5
 74
     0
 42
0.0000000001
 43
0.0000000001
 40
0.0
 40
0.0
 40
0.0
 40
1.0
 40
2.0
 40
3.0
 40
3.0
 40
3.0
 10
4.153593198486262
 20
0.226200689128838
 30
0.0
 10
4.153593198486262
 20
0.2130761947468156
 30
0.0
 10
4.1629406142166
 20
0.1953593408142313
 30
0.0
 10
4.177618367025589
 20
0.1866734981176021
 30
0.0
 10
4.187301063654802
 20
0.1866734981176021
 30
0.0
  0
SPLINE
  5
183
330
A
100
AcDbEntity
  8
0
  6
solid
 62
     7
100
AcDbSpline
210
0.0
220
0.0
230
1.0
 70
     8
 71
     2
 72
     8
 73
     5
 74
     0
 42
0.0000000001
 43
0.0000000001
 40
0.0
 40
0.0
 40
0.0
 40
1.0
 40
2.0
 40
3.0
 40
3.0
 40
3.0
 10
4.187301063654802
 20
0.1866734981176021
 30
0.0
 10
4.197079940059296
 20
0.1866734981176021
 30
0.0
 10
4.213674996239071
 20
0.196049677892883
 30
0.0
 10
4.223817917587386
 20
0.2137377677805234
 30
0.0
 10
4.223817917587386
 20
0.2264308014883886
 30
0.0
  0
SPLINE
  5
184
330
A
100
AcDbEntity
  8
0
  6
solid
 62
     7
100
AcDbSpline
210
0.0
220
0.0
230
1.0
 70
     8
 71
     2
 72
     7
 73
     4
 74
     0
 42
0.0000000001
 43
0.0000000001
 40
0.0
 40
0.0
 40
0.0
 40
1.0
 40
2.0
 40
2.0
 40
2.0
 10
4.185901513093004
 20
0.3608308014883886
 30
0.0
 10
4.174262861407611
 20
0.3608308014883886
 30
0.0
 10
4.158070501857049
 20
0.3445233857580515
 30
0.0
 10
4.158070501857049
 20
0.33027709362322
 30
0.0
  0
SPLINE
  5
185
330
A
100
AcDbEntity
  8
0
  6
solid
 62
     7
100
AcDbSpline
210
0.0
220
0.0
230
1.0
 70
     8
 71
     2
 72
     7
 73
     4
 74
     0
 42
0.0000000001
 43
0.0000000001
 40
0.0
 40
0.0
 40
0.0
 40
1.0
 40
2.0
 40
2.0
 40
2.0
 10
4.158070501857049
 20
0.33027709362322
 30
0.0
 10
4.158070501857049
 20
0.3168361947468155
 30
0.0
 10
4.174521737812106
 20
0.3018420374434447
 30
0.0
 10
4.186131625452555
 20
0.3018420374434447
 30
0.0
  0
SPLINE
  5
186
330
A
100
AcDbEntity
  8
0
  6
solid
 62
     7
100
AcDbSpline
210
0.0
220
0.0
230
1.0
 70
     8
 71
     2
 72
     9
 73
     6
 74
     0
 42
0.0000000001
 43
0.0000000001
 40
0.0
 40
0.0
 40
0.0
 40
1.0
 40
2.0
 40
3.0
 40
4.0
 40
4.0
 40
4.0
 10
4.186131625452555
 20
0.3018420374434447
 30
0.0
 10
4.193609378261544
 20
0.3018420374434447
 30
0.0
 10
4.20481656927278
 20
0.3056577677805234
 30
0.0
 10
4.212927131070532
 20
0.3135669812636694
 30
0.0
 10
4.216771625452555
 20
0.3243714756456919
 30
0.0
 10
4.216771625452555
 20
0.3304784419378268
 30
0.0
  0
SPLINE
  5
187
330
A
100
AcDbEntity
  8
0
  6
solid
 62
     7
100
AcDbSpline
210
0.0
220
0.0
230
1.0
 70
     8
 71
     2
 72
     8
 73
     5
 74
     0
 42
0.0000000001
 43
0.0000000001
 40
0.0
 40
0.0
 40
0.0
 40
1.0
 40
2.0
 40
3.0
 40
3.0
 40
3.0
 10
4.216771625452555
 20
0.3304784419378268
 30
0.0
 10
4.216771625452555
 20
0.3390204644097369
 30
0.0
 10
4.209772973767162
 20
0.3527777677805234
 30
0.0
 10
4.195728029946937
 20
0.3608308014883886
 30
0.0
 10
4.185901513093004
 20
0.3608308014883886
 30
0.0
  0
LINE
  5
188
330
A
100
AcDbEntity
  8
1
  6
solid
 62
     7
100
AcDbLine
 10
-1.364049064836256
 20
3.148271350337596
 30
0.0
 11
-2.042951578572365
 21
2.688179188748269
 31
0.0
  0
LINE
  5
189
330
A
100
AcDbEntity
  8
1
  6
solid
 62
     7
100
AcDbLine
 10
-2.042951537257224
 20
2.688179073949477
 30
0.0
 11
-6.885422032170961
 21
2.688179555456586
 31
0.0
  0
LINE
  5
18A
330
A
100
AcDbEntity
  8
1
  6
solid
 62
     7
100
AcDbLine
 10
-6.95619703938979
 20
3.400985780965544
 30
0.0
 11
-6.849999879139087
 21
3.246649073376039
 31
0.0
  0
ARC
  5
18B
330
A
100
AcDbEntity
  8
1
  6
solid
 62
     7
100
AcDbCircle
 10
-6.650500711537933
 20
3.154565410995849
 30
0.0
 40
0.2197256007674851
100
AcDbArc
 50
19.73539161294007
 51
155.2231826357623
  0
LINE
  5
18C
330
A
100
AcDbEntity
  8
1
  6
solid
 62
     7
100
AcDbLine
 10
-6.443681379049593
 20
3.22876159808274
 30
0.0
 11
-6.281160350511569
 21
3.355845017363635
 31
0.0
  0
ARC
  5
18D
330
A
100
AcDbEntity
  8
1
  6
solid
 62
     7
100
AcDbCircle
 10
-5.215309865019815
 20
5.307098695065196
 30
0.0
 40
2.223382350054824
100
AcDbArc
 50
241.3549180353017
 51
250.1534304121205
  0
ARC
  5
18E
330
A
100
AcDbEntity
  8
1
  6
solid
 62
     7
100
AcDbCircle
 10
-5.60242769567713
 20
4.33561729817033
 30
0.0
 40
1.178673815038852
100
AcDbArc
 50
251.8212190898297
 51
284.2883537605377
  0
ARC
  5
18F
330
A
100
AcDbEntity
  8
1
  6
solid
 62
     7
100
AcDbCircle
 10
-5.68622757021777
 20
5.368448066442969
 30
0.0
 40
2.207082382652968
100
AcDbArc
 50
279.7745188462384
 51
291.0520024172856
  0
ARC
  5
190
330
A
100
AcDbEntity
  8
1
  6
solid
 62
     7
100
AcDbCircle
 10
-4.527203944478145
 20
2.520574989475161
 30
0.0
 40
0.8690299045997525
100
AcDbArc
 50
48.02073364094939
 51
114.9227889009906
  0
ARC
  5
191
330
A
100
AcDbEntity
  8
1
  6
solid
 62
     7
100
AcDbCircle
 10
-3.885117222256241
 20
3.167281046537327
 30
0.0
 40
0.0608296867459892
100
AcDbArc
 50
54.20618666505716
 51
180.6409976555545
  0
ARC
  5
192
330
A
100
AcDbEntity
  8
1
  6
solid
 62
     7
100
AcDbCircle
 10
-3.774192826981796
 20
3.214610147731826
 30
0.0
 40
0.0753737734081508
100
AcDbArc
 50
85.67640090333089
 51
178.4707547872484
  0
ARC
  5
193
330
A
100
AcDbEntity
  8
1
  6
solid
 62
     7
100
AcDbCircle
 10
-3.582854888508027
 20
3.290630149019614
 30
0.0
 40
0.185657648815077
100
AcDbArc
 50
6.0286023499432
 51
180.2656505433554
  0
ARC
  5
194
330
A
100
AcDbEntity
  8
1
  6
solid
 62
     7
100
AcDbCircle
 10
-3.329959301679442
 20
3.234493441372042
 30
0.0
 40
0.1018861006999988
100
AcDbArc
 50
41.67581113903029
 51
132.0678105324608
  0
ARC
  5
195
330
A
100
AcDbEntity
  8
1
  6
solid
 62
     7
100
AcDbCircle
 10
-2.863918732634417
 20
2.728609996961887
 30
0.0
 40
0.6936162269106866
100
AcDbArc
 50
39.98173513022623
 51
124.2069730596418
  0
ARC
  5
196
330
A
100
AcDbEntity
  8
1
  6
solid
 62
     7
100
AcDbCircle
 10
-2.241154968631216
 20
3.038703230419128
 30
0.0
 40
0.1634489321893784
100
AcDbArc
 50
74.79589383734285
 51
123.9498190851627
  0
ARC
  5
197
330
A
100
AcDbEntity
  8
1
  6
solid
 62
     7
100
AcDbCircle
 10
-1.997326174914988
 20
3.139027328032698
 30
0.0
 40
0.2090007259961353
100
AcDbArc
 50
22.32633182833237
 51
164.0583468494272
  0
ARC
  5
198
330
A
100
AcDbEntity
  8
1
  6
solid
 62
     7
100
AcDbCircle
 10
-1.731461241907879
 20
3.170327257703112
 30
0.0
 40
0.0870289990934436
100
AcDbArc
 50
11.86584379934743
 51
146.4518857131912
  0
ARC
  5
199
330
A
100
AcDbEntity
  8
1
  6
solid
 62
     7
100
AcDbCircle
 10
-1.51026666583372
 20
3.132243524947822
 30
0.0
 40
0.1470934271480179
100
AcDbArc
 50
6.25552703347604
 51
157.631293012538
  0
LINE
  5
19A
330
A
100
AcDbEntity
  8
1
  6
solid
 62
     7
100
AcDbLine
 10
-6.95619703938979
 20
3.400985780965544
 30
0.0
 11
-7.238729869980168
 21
3.209513306041276
 31
0.0
  0
LINE
  5
19B
330
A
100
AcDbEntity
  8
1
  6
solid
 62
     7
100
AcDbLine
 10
-7.238729869980168
 20
3.209513306041276
 30
0.0
 11
-6.885422032170961
 21
2.688179555456586
 31
0.0
  0
LINE
  5
213
330
A
100
AcDbEntity
  8
0
  6
solid
 62
     7
370
     0
100
AcDbLine
 10
-7.252697289880872
 20
2.688179492950439
 30
0.0
 11
-7.4949723499949
 21
2.688179492950439
 31
0.0
  0
LINE
  5
214
330
A
100
AcDbEntity
  8
0
  6
solid
 62
     7
370
     0
100
AcDbLine
 10
-7.150894732714267
 20
3.478336249520857
 30
0.0
 11
-7.4949723499949
 21
3.476007699966432
 31
0.0
  0
LINE
  5
215
330
A
100
AcDbEntity
  8
0
  6
solid
 62
     7
370
     0
100
AcDbLine
 10
-7.4324723499949
 20
2.688179492950439
 30
0.0
 11
-7.4324723499949
 21
3.082093596458436
 31
0.0
  0
LINE
  5
216
330
A
100
AcDbEntity
  8
0
  6
solid
 62
     7
370
     0
100
AcDbLine
 10
-7.4324723499949
 20
3.476007699966432
 30
0.0
 11
-7.4324723499949
 21
3.082093596458436
 31
0.0
  0
MTEXT
  5
217
330
A
100
AcDbEntity
  8
0
  6
solid
 62
     7
370
     0
100
AcDbMText
 10
-7.8219348499949
 20
3.082093596458435
 30
0.0
 40
0.125
 41
0.0
 71
     5
 72
     1
  1
{\H0.125000;13/16}
 73
     1
 44
1.0
  0
SOLID
  5
218
330
A
100
AcDbEntity
  8
0
  6
solid
 62
     7
370
     0
100
AcDbTrace
 10
-7.4532873499949
 20
2.813179492950439
 30
0.0
 11
-7.4116573499949
 21
2.813179492950439
 31
0.0
 12
-7.4324723499949
 22
2.688179492950439
 32
0.0
 13
-7.4324723499949
 23
2.688179492950439
 33
0.0
  0
SOLID
  5
219
330
A
100
AcDbEntity
  8
0
  6
solid
 62
     7
370
     0
100
AcDbTrace
 10
-7.4116573499949
 20
3.351007699966432
 30
0.0
 11
-7.4532873499949
 21
3.351007699966432
 31
0.0
 12
-7.4324723499949
 22
3.476007699966432
 32
0.0
 13
-7.4324723499949
 23
3.476007699966432
 33
0.0
  0
LINE
  5
21C
330
A
100
AcDbEntity
  8
0
  6
solid
 62
     7
370
     0
100
AcDbLine
 10
-7.238729953765869
 20
2.594998964942725
 30
0.0
 11
-7.238729953765869
 21
2.105484742477003
 31
0.0
  0
LINE
  5
21D
330
A
100
AcDbEntity
  8
0
  6
solid
 62
     7
370
     0
100
AcDbLine
 10
-1.364049077033996
 20
3.023271322250366
 30
0.0
 11
-1.364049077033996
 21
2.105484742477003
 31
0.0
  0
LINE
  5
21E
330
A
100
AcDbEntity
  8
0
  6
solid
 62
     7
370
     0
100
AcDbLine
 10
-7.238729953765869
 20
2.167984742477003
 30
0.0
 11
-4.301389515399932
 21
2.167984742477003
 31
0.0
  0
LINE
  5
21F
330
A
100
AcDbEntity
  8
0
  6
solid
 62
     7
370
     0
100
AcDbLine
 10
-1.364049077033996
 20
2.167984742477003
 30
0.0
 11
-4.301389515399932
 21
2.167984742477003
 31
0.0
  0
MTEXT
  5
220
330
A
100
AcDbEntity
  8
0
  6
solid
 62
     7
370
     0
100
AcDbMText
 10
-4.301389515399932
 20
2.271569838630849
 30
0.0
 40
0.125
 41
0.0
 71
     5
 72
     1
  1
{\H0.125000;5 7/8}
 73
     1
 44
1.0
  0
SOLID
  5
221
330
A
100
AcDbEntity
  8
0
  6
solid
 62
     7
370
     0
100
AcDbTrace
 10
-7.113729953765869
 20
2.188799742477002
 30
0.0
 11
-7.113729953765869
 21
2.147169742477002
 31
0.0
 12
-7.238729953765869
 22
2.167984742477003
 32
0.0
 13
-7.238729953765869
 23
2.167984742477003
 33
0.0
  0
SOLID
  5
222
330
A
100
AcDbEntity
  8
0
  6
solid
 62
     7
370
     0
100
AcDbTrace
 10
-1.489049077033996
 20
2.147169742477003
 30
0.0
 11
-1.489049077033996
 21
2.188799742477002
 31
0.0
 12
-1.364049077033996
 22
2.167984742477003
 32
0.0
 13
-1.364049077033996
 23
2.167984742477003
 33
0.0
  0
LINE
  5
223
330
A
100
AcDbEntity
  8
0
  6
solid
 62
     7
370
     0
100
AcDbLine
 10
0.0
 20
4.828767299652101
 30
0.0
 11
0.0
 21
5.096766138923578
 31
0.0
  0
LINE
  5
224
330
A
100
AcDbEntity
  8
0
  6
solid
 62
     7
370
     0
100
AcDbLine
 10
3.346435785293579
 20
4.953767299652099
 30
0.0
 11
3.346435785293579
 21
5.096766138923578
 31
0.0
  0
LINE
  5
225
330
A
100
AcDbEntity
  8
0
  6
solid
 62
     7
370
     0
100
AcDbLine
 10
0.0
 20
5.034266138923578
 30
0.0
 11
0.8504533198895529
 21
5.034266138923578
 31
0.0
  0
LINE
  5
226
330
A
100
AcDbEntity
  8
0
  6
solid
 62
     7
370
     0
100
AcDbLine
 10
3.346435785293579
 20
5.034266138923578
 30
0.0
 11
2.464850284388724
 21
5.034266138923578
 31
0.0
  0
MTEXT
  5
227
330
A
100
AcDbEntity
  8
0
  6
solid
 62
     7
370
     0
100
AcDbMText
 10
1.673217892646789
 20
5.034266138923578
 30
0.0
 40
0.25
 41
0.0
 71
     5
 72
     1
  1
{\H0.250000;3 3/8}
 73
     1
 44
1.0
  0
SOLID
  5
228
330
A
100
AcDbEntity
  8
0
  6
solid
 62
     7
370
     0
100
AcDbTrace
 10
0.125
 20
5.096766138923578
 30
0.0
 11
0.125
 21
4.971766138923578
 31
0.0
 12
0.0
 22
5.034266138923578
 32
0.0
 13
0.0
 23
5.034266138923578
 33
0.0
  0
SOLID
  5
229
330
A
100
AcDbEntity
  8
0
  6
solid
 62
     7
370
     0
100
AcDbTrace
 10
3.221435785293579
 20
4.971766138923578
 30
0.0
 11
3.221435785293579
 21
5.096766138923578
 31
0.0
 12
3.346435785293579
 22
5.034266138923578
 32
0.0
 13
3.346435785293579
 23
5.034266138923578
 33
0.0
  0
LINE
  5
22A
330
A
100
AcDbEntity
  8
0
  6
solid
 62
     7
370
     0
100
AcDbLine
 10
-0.125
 20
0.0
 30
0.0
 11
-0.523517309556012
 21
0.0
 31
0.0
  0
LINE
  5
22B
330
A
100
AcDbEntity
  8
0
  6
solid
 62
     7
370
     0
100
AcDbLine
 10
-0.1339350745104468
 20
4.828767299652101
 30
0.0
 11
-0.5235173095560084
 21
4.828767299652101
 31
0.0
  0
LINE
  5
22C
330
A
100
AcDbEntity
  8
0
  6
solid
 62
     7
370
     0
100
AcDbLine
 10
-0.461017309556012
 20
0.0
 30
0.0
 11
-0.4610173095560104
 21
2.094638457518357
 31
0.0
  0
LINE
  5
22D
330
A
100
AcDbEntity
  8
0
  6
solid
 62
     7
370
     0
100
AcDbLine
 10
-0.4610173095560084
 20
4.828767299652101
 30
0.0
 11
-0.46101730955601
 21
2.734128842133742
 31
0.0
  0
MTEXT
  5
22E
330
A
100
AcDbEntity
  8
0
  6
solid
 62
     7
370
     0
100
AcDbMText
 10
-0.4610173095560102
 20
2.41438364982605
 30
0.0
 40
0.25
 41
0.0
 71
     5
 72
     1
  1
{\H0.250000;4 13/16}
 73
     1
 44
1.0
  0
SOLID
  5
22F
330
A
100
AcDbEntity
  8
0
  6
solid
 62
     7
370
     0
100
AcDbTrace
 10
-0.5235173095560118
 20
0.1250000000000001
 30
0.0
 11
-0.3985173095560117
 21
0.1249999999999999
 31
0.0
 12
-0.461017309556012
 22
0.0
 32
0.0
 13
-0.461017309556012
 23
0.0
 33
0.0
  0
SOLID
  5
230
330
A
100
AcDbEntity
  8
0
  6
solid
 62
     7
370
     0
100
AcDbTrace
 10
-0.3985173095560085
 20
4.703767299652101
 30
0.0
 11
-0.5235173095560085
 21
4.703767299652101
 31
0.0
 12
-0.4610173095560084
 22
4.828767299652101
 32
0.0
 13
-0.4610173095560084
 23
4.828767299652101
 33
0.0
  0
VIEWPORT
  5
1CF
330
B
100
AcDbEntity
 67
     1
  8
0
  6
Continuous
370
     0
100
AcDbViewport
 10
5.187012108692977
 20
3.94216147168583
 30
0.0
 40
15.44381760046978
 41
8.171417004822369
 68
     1
 69
     1
 12
5.187012108692977
 22
3.94216147168583
 13
0.0
 23
0.0
 14
0.5
 24
0.5
 15
0.5
 25
0.5
 16
0.0
 26
0.0
 36
1.0
 17
0.0
 27
0.0
 37
0.0
 42
50.0
 43
0.0
 44
0.0
 45
8.171417004822369
 50
0.0
 51
0.0
 72
   100
 90
   819232
  1

281
     0
 71
     1
 74
     0
110
0.0
120
0.0
130
0.0
111
1.0
121
0.0
131
0.0
112
0.0
122
1.0
132
0.0
 79
     0
146
0.0
170
     0
  0
VIEWPORT
  5
1D2
330
B
100
AcDbEntity
 67
     1
  8
0
  6
Continuous
370
     0
100
AcDbViewport
 10
5.187037609839677
 20
3.942299969127232
 30
0.0
 40
10.58977748656127
 41
8.076066477560193
 68
     2
 69
     2
 12
-1.870674206219477
 22
2.239292268137794
 13
0.0
 23
0.0
 14
0.5
 24
0.5
 15
0.5
 25
0.5
 16
0.0
 26
0.0
 36
1.0
 17
0.0
 27
0.0
 37
0.0
 42
50.0
 43
0.0
 44
0.0
 45
12.20817482260635
 50
0.0
 51
0.0
 72
   100
 90
   819232
  1

281
     0
 71
     1
 74
     0
110
0.0
120
0.0
130
0.0
111
1.0
121
0.0
131
0.0
112
0.0
122
1.0
132
0.0
 79
     0
146
0.0
170
     0
  0
ENDSEC
  0
SECTION
  2
OBJECTS
  0
DICTIONARY
  5
19
330
0
100
AcDbDictionary
281
     1
  3
ACAD_COLOR
350
1C8
  3
ACAD_GROUP
350
1A
  3
ACAD_LAYOUT
350
1E
  3
ACAD_MATERIAL
350
1B3
  3
ACAD_MLEADERSTYLE
350
1FC
  3
ACAD_MLINESTYLE
350
1B
  3
ACAD_PLOTSETTINGS
350
22
  3
ACAD_PLOTSTYLENAME
350
1F
  3
ACAD_SCALELIST
350
1DA
  3
ACAD_TABLESTYLE
350
1C9
  3
ACAD_VISUALSTYLE
350
1B7
  3
ACAD_WIPEOUT_VARS
350
23
  3
ACDB_RECOMPOSE_DATA
350
24E
  3
AcDbVariableDictionary
350
1D7
  3
ASE_INDEX_DICTIONARY
350
1D4
  0
DICTIONARY
  5
205
330
14
100
AcDbDictionary
280
     1
281
     1
  3
ADSK_XREC_LAYER_RECONCILED
360
206
  0
DICTIONARY
  5
207
330
27
100
AcDbDictionary
280
     1
281
     1
  3
ADSK_XREC_LAYER_RECONCILED
360
208
  0
DICTIONARY
  5
209
330
5C
100
AcDbDictionary
280
     1
281
     1
  3
ADSK_XREC_LAYER_RECONCILED
360
20A
  0
DICTIONARY
  5
21A
330
A
100
AcDbDictionary
280
     1
281
     1
  3
ACAD_SORTENTS
360
21B
  0
DICTIONARY
  5
1C8
102
{ACAD_REACTORS
330
19
102
}
330
19
100
AcDbDictionary
281
     1
  0
DICTIONARY
  5
1A
102
{ACAD_REACTORS
330
19
102
}
330
19
100
AcDbDictionary
281
     1
  0
DICTIONARY
  5
1E
102
{ACAD_REACTORS
330
19
102
}
330
19
100
AcDbDictionary
281
     1
  3
Layout1
350
21
  3
Model
350
20
  0
DICTIONARY
  5
1B3
102
{ACAD_REACTORS
330
19
102
}
330
19
100
AcDbDictionary
281
     1
  3
ByBlock
350
1B5
  3
ByLayer
350
1B4
  3
Global
350
1B6
  0
DICTIONARY
  5
1FC
102
{ACAD_REACTORS
330
19
102
}
330
19
100
AcDbDictionary
281
     1
  3
Standard
350
1FD
  0
DICTIONARY
  5
1B
102
{ACAD_REACTORS
330
19
102
}
330
19
100
AcDbDictionary
281
     1
  3
Standard
350
1C
  0
DICTIONARY
  5
22
102
{ACAD_REACTORS
330
19
102
}
330
19
100
AcDbDictionary
281
     1
  0
ACDBDICTIONARYWDFLT
  5
1F
102
{ACAD_REACTORS
330
19
102
}
330
19
100
AcDbDictionary
281
     1
  3
Normal
350
1D
100
AcDbDictionaryWithDefault
340
1D
  0
DICTIONARY
  5
1DA
102
{ACAD_REACTORS
330
19
102
}
330
19
100
AcDbDictionary
281
     1
  3
A0
350
1DB
  3
A1
350
1DC
  3
A2
350
1DD
  3
A3
350
1DE
  3
A4
350
1DF
  3
A5
350
1E0
  3
A6
350
1E1
  3
A7
350
1E2
  3
A8
350
1E3
  3
A9
350
1E4
  3
B0
350
1E5
  3
B1
350
1E6
  3
B2
350
1E7
  3
B3
350
1E8
  3
B4
350
1E9
  3
B5
350
1EA
  3
B6
350
1EB
  3
B7
350
1EC
  3
B8
350
1ED
  3
B9
350
1EE
  3
C0
350
1EF
  3
C1
350
1F0
  3
C2
350
1F1
  3
C3
350
1F2
  3
C4
350
1F3
  3
C5
350
1F4
  3
C6
350
1F5
  3
C7
350
1F6
  3
C8
350
1F7
  3
C9
350
1F8
  3
D0
350
1F9
  3
D1
350
1FA
  3
D2
350
1FB
  0
DICTIONARY
  5
1C9
102
{ACAD_REACTORS
330
19
102
}
330
19
100
AcDbDictionary
281
     1
  3
Standard
350
1CA
  0
DICTIONARY
  5
1B7
102
{ACAD_REACTORS
330
19
102
}
330
19
100
AcDbDictionary
281
     1
  3
2dWireframe
350
1BD
  3
3D Hidden
350
1BF
  3
3dWireframe
350
1BE
  3
Basic
350
1BC
  3
Brighten
350
1C3
  3
ColorChange
350
1C7
  3
Conceptual
350
1C0
  3
Dim
350
1C2
  3
Facepattern
350
1C6
  3
Flat
350
1B8
  3
FlatWithEdges
350
1B9
  3
Gouraud
350
1BA
  3
GouraudWithEdges
350
1BB
  3
Linepattern
350
1C5
  3
Realistic
350
1C1
  3
Thicken
350
1C4
  0
WIPEOUTVARIABLES
  5
23
330
19
100
AcDbWipeoutVariables
 70
     1
  0
XRECORD
  5
24E
102
{ACAD_REACTORS
330
19
102
}
330
19
100
AcDbXrecord
280
     1
 90
        1
330
1CA
  0
DICTIONARY
  5
1D7
102
{ACAD_REACTORS
330
19
102
}
330
19
100
AcDbDictionary
281
     1
  3
CANNOSCALE
350
24B
  3
CMLEADERSTYLE
350
24A
  3
CTABLESTYLE
350
1D8
  0
DICTIONARY
  5
1D4
102
{ACAD_REACTORS
330
19
102
}
330
19
100
AcDbDictionary
281
     1
  3
ASEBlockHierarchyIndexRecord
350
1D6
1001
DCO15
1040
1645033480.281
  0
XRECORD
  5
206
102
{ACAD_REACTORS
330
205
102
}
330
205
100
AcDbXrecord
280
     1
290
     1
  0
XRECORD
  5
208
102
{ACAD_REACTORS
330
207
102
}
330
207
100
AcDbXrecord
280
     1
290
     1
  0
XRECORD
  5
20A
102
{ACAD_REACTORS
330
209
102
}
330
209
100
AcDbXrecord
280
     1
290
     1
  0
SORTENTSTABLE
  5
21B
102
{ACAD_REACTORS
330
21A
102
}
330
21A
100
AcDbSortentsTable
330
A
331
117
  5
125
331
DB
  5
DB
331
B9
  5
B9
331
139
  5
147
331
228
  5
108
331
15B
  5
169
331
175
  5
183
331
197
  5
21E
331
217
  5
22E
331
106
  5
114
331
128
  5
136
331
CA
  5
CA
331
A8
  5
A8
331
86
  5
86
331
6C
  5
6C
331
4A
  5
4A
331
14A
  5
158
331
186
  5
194
331
97
  5
97
331
5B
  5
5B
331
39
  5
39
331
28
  5
28
331
115
  5
123
331
137
  5
145
331
226
  5
106
331
D9
  5
D9
331
159
  5
167
331
173
  5
181
331
195
  5
21C
331
215
  5
22C
331
104
  5
112
331
126
  5
134
331
C8
  5
C8
331
A6
  5
A6
331
84
  5
84
331
6A
  5
6A
331
48
  5
48
331
148
  5
156
331
184
  5
192
331
B7
  5
B7
331
95
  5
95
331
59
  5
59
331
37
  5
37
331
113
  5
121
331
135
  5
143
331
224
  5
104
331
157
  5
165
331
171
  5
17F
331
193
  5
218
331
213
  5
22A
331
102
  5
110
331
124
  5
132
331
C6
  5
C6
331
A4
  5
A4
331
82
  5
82
331
68
  5
68
331
46
  5
46
331
146
  5
154
331
182
  5
190
331
D7
  5
D7
331
B5
  5
B5
331
93
  5
93
331
57
  5
57
331
35
  5
35
331
222
  5
229
331
111
  5
11F
331
133
  5
141
331
155
  5
163
331
16F
  5
17D
331
191
  5
216
331
122
  5
130
331
100
  5
10E
331
C4
  5
C4
331
A2
  5
A2
331
80
  5
80
331
66
  5
66
331
44
  5
44
331
144
  5
152
331
166
  5
174
331
180
  5
18E
331
D5
  5
D5
331
B3
  5
B3
331
91
  5
91
331
77
  5
77
331
55
  5
55
331
33
  5
33
331
220
  5
227
331
131
  5
13F
331
153
  5
161
331
16D
  5
17B
331
18F
  5
214
331
120
  5
12E
331
FE
  5
10C
331
E4
  5
E4
331
C2
  5
C2
331
A0
  5
A0
331
7E
  5
7E
331
64
  5
64
331
42
  5
42
331
142
  5
150
331
164
  5
172
331
17E
  5
18C
331
10F
  5
11D
331
D3
  5
D3
331
B1
  5
B1
331
8F
  5
8F
331
75
  5
75
331
53
  5
53
331
31
  5
31
331
151
  5
15F
331
16B
  5
179
331
18D
  5
19B
331
11E
  5
12C
331
FC
  5
10A
331
E2
  5
E2
331
C0
  5
C0
331
9E
  5
9E
331
7C
  5
7C
331
62
  5
62
331
40
  5
40
331
140
  5
14E
331
22F
  5
101
331
162
  5
170
331
17C
  5
18A
331
21E
  5
225
331
10D
  5
11B
331
12F
  5
13D
331
D1
  5
D1
331
AF
  5
AF
331
8D
  5
8D
331
73
  5
73
331
51
  5
51
331
2F
  5
2F
331
169
  5
177
331
18B
  5
199
331
11C
  5
12A
331
E0
  5
E0
331
BE
  5
BE
331
9C
  5
9C
331
7A
  5
7A
331
60
  5
60
331
13E
  5
14C
331
22D
  5
FF
331
160
  5
16E
331
17A
  5
188
331
21C
  5
223
331
10B
  5
119
331
12D
  5
13B
331
CF
  5
CF
331
AD
  5
AD
331
8B
  5
8B
331
71
  5
71
331
4F
  5
4F
331
14F
  5
15D
331
3E
  5
3E
331
2D
  5
2D
331
189
  5
197
331
11A
  5
128
331
DE
  5
DE
331
BC
  5
BC
331
9A
  5
9A
331
78
  5
78
331
13C
  5
14A
331
22B
  5
FD
331
15E
  5
16C
331
178
  5
186
331
19A
  5
221
331
12B
  5
139
331
109
  5
117
331
CD
  5
CD
331
AB
  5
AB
331
89
  5
89
331
6F
  5
6F
331
4D
  5
4D
331
14D
  5
15B
331
5E
  5
5E
331
3C
  5
3C
331
2B
  5
2B
331
118
  5
126
331
DC
  5
DC
331
BA
  5
BA
331
98
  5
98
331
13A
  5
148
331
229
  5
109
331
15C
  5
16A
331
176
  5
184
331
198
  5
21F
331
218
  5
22F
331
107
  5
115
331
129
  5
137
331
CB
  5
CB
331
A9
  5
A9
331
87
  5
87
331
6D
  5
6D
331
4B
  5
4B
331
187
  5
195
331
14B
  5
159
331
3A
  5
3A
331
29
  5
29
331
116
  5
124
331
138
  5
146
331
227
  5
107
331
DA
  5
DA
331
B8
  5
B8
331
15A
  5
168
331
174
  5
182
331
196
  5
21D
331
216
  5
22D
331
105
  5
113
331
127
  5
135
331
C9
  5
C9
331
A7
  5
A7
331
85
  5
85
331
6B
  5
6B
331
49
  5
49
331
149
  5
157
331
185
  5
193
331
96
  5
96
331
5A
  5
5A
331
38
  5
38
331
114
  5
122
331
136
  5
144
331
225
  5
105
331
D8
  5
D8
331
158
  5
166
331
172
  5
180
331
194
  5
219
331
214
  5
22B
331
103
  5
111
331
125
  5
133
331
C7
  5
C7
331
A5
  5
A5
331
83
  5
83
331
69
  5
69
331
47
  5
47
331
147
  5
155
331
183
  5
191
331
B6
  5
B6
331
94
  5
94
331
58
  5
58
331
36
  5
36
331
112
  5
120
331
134
  5
142
331
223
  5
103
331
156
  5
164
331
170
  5
17E
331
192
  5
217
331
123
  5
131
331
101
  5
10F
331
C5
  5
C5
331
A3
  5
A3
331
81
  5
81
331
67
  5
67
331
45
  5
45
331
145
  5
153
331
181
  5
18F
331
167
  5
175
331
D6
  5
D6
331
B4
  5
B4
331
92
  5
92
331
56
  5
56
331
34
  5
34
331
221
  5
228
331
110
  5
11E
331
132
  5
140
331
154
  5
162
331
16E
  5
17C
331
190
  5
215
331
121
  5
12F
331
FF
  5
10D
331
E5
  5
E5
331
C3
  5
C3
331
A1
  5
A1
331
7F
  5
7F
331
65
  5
65
331
43
  5
43
331
143
  5
151
331
165
  5
173
331
17F
  5
18D
331
D4
  5
D4
331
B2
  5
B2
331
90
  5
90
331
76
  5
76
331
54
  5
54
331
32
  5
32
331
130
  5
13E
331
152
  5
160
331
16C
  5
17A
331
18E
  5
213
331
11F
  5
12D
331
FD
  5
10B
331
E3
  5
E3
331
C1
  5
C1
331
9F
  5
9F
331
7D
  5
7D
331
63
  5
63
331
41
  5
41
331
141
  5
14F
331
230
  5
102
331
163
  5
171
331
17D
  5
18B
331
21F
  5
226
331
10E
  5
11C
331
D2
  5
D2
331
B0
  5
B0
331
8E
  5
8E
331
74
  5
74
331
52
  5
52
331
30
  5
30
331
150
  5
15E
331
16A
  5
178
331
18C
  5
19A
331
11D
  5
12B
331
E1
  5
E1
331
BF
  5
BF
331
9D
  5
9D
331
7B
  5
7B
331
61
  5
61
331
13F
  5
14D
331
22E
  5
100
331
161
  5
16F
331
17B
  5
189
331
21D
  5
224
331
10C
  5
11A
331
12E
  5
13C
331
D0
  5
D0
331
AE
  5
AE
331
8C
  5
8C
331
72
  5
72
331
50
  5
50
331
3F
  5
3F
331
2E
  5
2E
331
168
  5
176
331
18A
  5
198
331
11B
  5
129
331
DF
  5
DF
331
BD
  5
BD
331
9B
  5
9B
331
79
  5
79
331
13D
  5
14B
331
22C
  5
FE
331
15F
  5
16D
331
179
  5
187
331
19B
  5
222
331
12C
  5
13A
331
10A
  5
118
331
CE
  5
CE
331
AC
  5
AC
331
8A
  5
8A
331
70
  5
70
331
4E
  5
4E
331
14E
  5
15C
331
5F
  5
5F
331
3D
  5
3D
331
2C
  5
2C
331
188
  5
196
331
119
  5
127
331
DD
  5
DD
331
BB
  5
BB
331
99
  5
99
331
13B
  5
149
331
22A
  5
FC
331
15D
  5
16B
331
177
  5
185
331
199
  5
220
331
219
  5
230
331
108
  5
116
331
12A
  5
138
331
CC
  5
CC
331
AA
  5
AA
331
88
  5
88
331
6E
  5
6E
331
4C
  5
4C
331
14C
  5
15A
331
5D
  5
5D
331
3B
  5
3B
331
2A
  5
2A
  0
LAYOUT
  5
21
102
{ACAD_REACTORS
330
1E
102
}
330
1E
100
AcDbPlotSettings
  1

  2
Foxit PDF Printer
  4
Letter
  6

 40
3.174999952316284
 41
3.174999952316284
 42
3.17498779296875
 43
3.175003051757812
 44
279.3999938964844
 45
215.8999938964844
 46
31.47715384821894
 47
24.12875752349356
 48
0.0
 49
0.0
140
0.0
141
0.0
142
1.0
143
1.0
 70
     4
 72
     0
 73
     0
 74
     1
  7

 75
     0
147
1.0
 76
     0
 77
     2
 78
   300
148
-26.25461124795212
149
-20.16000981431432
100
AcDbLayout
  1
Layout1
 70
     0
 71
     1
 10
-0.3306119115190196
 20
-0.2812499079328949
 11
10.66938784818509
 21
8.218749851771214
 12
0.0
 22
0.0
 32
0.0
 14
-0.1085505195276539
 24
-0.0960387923252242
 34
-0.0015258207003583
 15
10.48257473691361
 25
7.980361735696885
 35
0.0000000349246037
146
0.0
 13
0.0
 23
0.0
 33
0.0
 16
1.0
 26
0.0
 36
0.0
 17
0.0
 27
1.0
 37
0.0
 76
     0
330
B
331
1CF
1001
ACAD_PSEXT
1000
Foxit PDF Printer
1000
Foxit PDF Printer Driver
1000
FOXIT_PDF
1000

1070
     0
  0
LAYOUT
  5
20
102
{ACAD_REACTORS
330
1E
102
}
330
1E
100
AcDbPlotSettings
  1

  2

  4

  6

 40
0.0
 41
0.0
 42
0.0
 43
0.0
 44
0.0
 45
0.0
 46
0.0
 47
0.0
 48
0.0
 49
0.0
140
0.0
141
0.0
142
1.0
143
1.0
 70
  1024
 72
     0
 73
     0
 74
     0
  7

 75
     0
147
1.0
 76
     0
 77
     2
 78
   300
148
0.0
149
0.0
100
AcDbLayout
  1
Model
 70
     0
 71
     0
 10
0.0
 20
0.0
 11
0.0
 21
0.0
 12
0.0
 22
0.0
 32
0.0
 14
0.0
 24
0.0
 34
0.0
 15
0.0
 25
0.0
 35
0.0
146
0.0
 13
0.0
 23
0.0
 33
0.0
 16
0.0
 26
0.0
 36
0.0
 17
0.0
 27
0.0
 37
0.0
 76
     0
330
A
  0
MATERIAL
  5
1B5
102
{ACAD_XDICTIONARY
360
251
102
}
102
{ACAD_REACTORS
330
1B3
102
}
330
1B3
100
AcDbMaterial
  1
ByBlock
 73
     1
 78
     1
172
     1
176
     1
270
     1
274
     1
  0
MATERIAL
  5
1B4
102
{ACAD_XDICTIONARY
360
24F
102
}
102
{ACAD_REACTORS
330
1B3
102
}
330
1B3
100
AcDbMaterial
  1
ByLayer
 73
     1
 78
     1
172
     1
176
     1
270
     1
274
     1
  0
MATERIAL
  5
1B6
102
{ACAD_XDICTIONARY
360
253
102
}
102
{ACAD_REACTORS
330
1B3
102
}
330
1B3
100
AcDbMaterial
  1
Global
 73
     1
 78
     1
172
     1
176
     1
270
     1
274
     1
  0
MLEADERSTYLE
  5
1FD
102
{ACAD_REACTORS
330
1FC
102
}
330
1FC
100
AcDbMLeaderStyle
170
     2
171
     1
172
     0
 90
        2
 40
0.0
 41
0.0
173
     1
 91
-1056964608
340
11
 92
       -2
290
     1
 42
0.09
291
     1
 43
0.36
  3
Standard
 44
0.18
300

342
17
174
     1
178
     6
175
     1
176
     0
 93
-1056964608
 45
0.18
292
     0
297
     0
 46
0.18
 94
-1056964608
 47
1.0
 49
1.0
140
1.0
293
     1
141
0.0
294
     1
177
     0
142
1.0
295
     0
296
     0
143
0.125
1001
ACAD_MLEADERVER
1070
     2
  0
MLINESTYLE
  5
1C
102
{ACAD_REACTORS
330
1B
102
}
330
1B
100
AcDbMlineStyle
  2
STANDARD
 70
     0
  3

 62
     0
 51
90.0
 52
90.0
 71
     2
 49
0.5
 62
   256
  6
BYLAYER
 49
-0.5
 62
   256
  6
BYLAYER
  0
ACDBPLACEHOLDER
  5
1D
102
{ACAD_REACTORS
330
1F
102
}
330
1F
  0
SCALE
  5
1DB
102
{ACAD_REACTORS
330
1DA
102
}
330
1DA
100
AcDbScale
 70
     0
300
1:1
140
1.0
141
1.0
290
     1
  0
SCALE
  5
1DC
102
{ACAD_REACTORS
330
1DA
102
}
330
1DA
100
AcDbScale
 70
     0
300
1:2
140
1.0
141
2.0
290
     0
  0
SCALE
  5
1DD
102
{ACAD_REACTORS
330
1DA
102
}
330
1DA
100
AcDbScale
 70
     0
300
1:4
140
1.0
141
4.0
290
     0
  0
SCALE
  5
1DE
102
{ACAD_REACTORS
330
1DA
102
}
330
1DA
100
AcDbScale
 70
     0
300
1:5
140
1.0
141
5.0
290
     0
  0
SCALE
  5
1DF
102
{ACAD_REACTORS
330
1DA
102
}
330
1DA
100
AcDbScale
 70
     0
300
1:8
140
1.0
141
8.0
290
     0
  0
SCALE
  5
1E0
102
{ACAD_REACTORS
330
1DA
102
}
330
1DA
100
AcDbScale
 70
     0
300
1:10
140
1.0
141
10.0
290
     0
  0
SCALE
  5
1E1
102
{ACAD_REACTORS
330
1DA
102
}
330
1DA
100
AcDbScale
 70
     0
300
1:16
140
1.0
141
16.0
290
     0
  0
SCALE
  5
1E2
102
{ACAD_REACTORS
330
1DA
102
}
330
1DA
100
AcDbScale
 70
     0
300
1:20
140
1.0
141
20.0
290
     0
  0
SCALE
  5
1E3
102
{ACAD_REACTORS
330
1DA
102
}
330
1DA
100
AcDbScale
 70
     0
300
1:30
140
1.0
141
30.0
290
     0
  0
SCALE
  5
1E4
102
{ACAD_REACTORS
330
1DA
102
}
330
1DA
100
AcDbScale
 70
     0
300
1:40
140
1.0
141
40.0
290
     0
  0
SCALE
  5
1E5
102
{ACAD_REACTORS
330
1DA
102
}
330
1DA
100
AcDbScale
 70
     0
300
1:50
140
1.0
141
50.0
290
     0
  0
SCALE
  5
1E6
102
{ACAD_REACTORS
330
1DA
102
}
330
1DA
100
AcDbScale
 70
     0
300
1:100
140
1.0
141
100.0
290
     0
  0
SCALE
  5
1E7
102
{ACAD_REACTORS
330
1DA
102
}
330
1DA
100
AcDbScale
 70
     0
300
2:1
140
2.0
141
1.0
290
     0
  0
SCALE
  5
1E8
102
{ACAD_REACTORS
330
1DA
102
}
330
1DA
100
AcDbScale
 70
     0
300
4:1
140
4.0
141
1.0
290
     0
  0
SCALE
  5
1E9
102
{ACAD_REACTORS
330
1DA
102
}
330
1DA
100
AcDbScale
 70
     0
300
8:1
140
8.0
141
1.0
290
     0
  0
SCALE
  5
1EA
102
{ACAD_REACTORS
330
1DA
102
}
330
1DA
100
AcDbScale
 70
     0
300
10:1
140
10.0
141
1.0
290
     0
  0
SCALE
  5
1EB
102
{ACAD_REACTORS
330
1DA
102
}
330
1DA
100
AcDbScale
 70
     0
300
100:1
140
100.0
141
1.0
290
     0
  0
SCALE
  5
1EC
102
{ACAD_REACTORS
330
1DA
102
}
330
1DA
100
AcDbScale
 70
     0
300
1/128" = 1'-0"
140
0.0078125
141
12.0
290
     0
  0
SCALE
  5
1ED
102
{ACAD_REACTORS
330
1DA
102
}
330
1DA
100
AcDbScale
 70
     0
300
1/64" = 1'-0"
140
0.015625
141
12.0
290
     0
  0
SCALE
  5
1EE
102
{ACAD_REACTORS
330
1DA
102
}
330
1DA
100
AcDbScale
 70
     0
300
1/32" = 1'-0"
140
0.03125
141
12.0
290
     0
  0
SCALE
  5
1EF
102
{ACAD_REACTORS
330
1DA
102
}
330
1DA
100
AcDbScale
 70
     0
300
1/16" = 1'-0"
140
0.0625
141
12.0
290
     0
  0
SCALE
  5
1F0
102
{ACAD_REACTORS
330
1DA
102
}
330
1DA
100
AcDbScale
 70
     0
300
3/32" = 1'-0"
140
0.09375
141
12.0
290
     0
  0
SCALE
  5
1F1
102
{ACAD_REACTORS
330
1DA
102
}
330
1DA
100
AcDbScale
 70
     0
300
1/8" = 1'-0"
140
0.125
141
12.0
290
     0
  0
SCALE
  5
1F2
102
{ACAD_REACTORS
330
1DA
102
}
330
1DA
100
AcDbScale
 70
     0
300
3/16" = 1'-0"
140
0.1875
141
12.0
290
     0
  0
SCALE
  5
1F3
102
{ACAD_REACTORS
330
1DA
102
}
330
1DA
100
AcDbScale
 70
     0
300
1/4" = 1'-0"
140
0.25
141
12.0
290
     0
  0
SCALE
  5
1F4
102
{ACAD_REACTORS
330
1DA
102
}
330
1DA
100
AcDbScale
 70
     0
300
3/8" = 1'-0"
140
0.375
141
12.0
290
     0
  0
SCALE
  5
1F5
102
{ACAD_REACTORS
330
1DA
102
}
330
1DA
100
AcDbScale
 70
     0
300
1/2" = 1'-0"
140
0.5
141
12.0
290
     0
  0
SCALE
  5
1F6
102
{ACAD_REACTORS
330
1DA
102
}
330
1DA
100
AcDbScale
 70
     0
300
3/4" = 1'-0"
140
0.75
141
12.0
290
     0
  0
SCALE
  5
1F7
102
{ACAD_REACTORS
330
1DA
102
}
330
1DA
100
AcDbScale
 70
     0
300
1" = 1'-0"
140
1.0
141
12.0
290
     0
  0
SCALE
  5
1F8
102
{ACAD_REACTORS
330
1DA
102
}
330
1DA
100
AcDbScale
 70
     0
300
1-1/2" = 1'-0"
140
1.5
141
12.0
290
     0
  0
SCALE
  5
1F9
102
{ACAD_REACTORS
330
1DA
102
}
330
1DA
100
AcDbScale
 70
     0
300
3" = 1'-0"
140
3.0
141
12.0
290
     0
  0
SCALE
  5
1FA
102
{ACAD_REACTORS
330
1DA
102
}
330
1DA
100
AcDbScale
 70
     0
300
6" = 1'-0"
140
6.0
141
12.0
290
     0
  0
SCALE
  5
1FB
102
{ACAD_REACTORS
330
1DA
102
}
330
1DA
100
AcDbScale
 70
     0
300
1'-0" = 1'-0"
140
12.0
141
12.0
290
     0
  0
TABLESTYLE
  5
1CA
102
{ACAD_XDICTIONARY
360
24C
102
}
102
{ACAD_REACTORS
330
1C9
102
}
330
1C9
100
AcDbTableStyle
  3
Standard
 70
     0
 71
     0
 40
0.06
 41
0.06
280
     0
281
     0
  7
Standard
140
0.18
170
     2
 62
     0
 63
     7
283
     0
274
    -2
284
     1
 64
     0
275
    -2
285
     1
 65
     0
276
    -2
286
     1
 66
     0
277
    -2
287
     1
 67
     0
278
    -2
288
     1
 68
     0
279
    -2
289
     1
 69
     0
  7
Standard
140
0.25
170
     5
 62
     0
 63
     7
283
     0
274
    -2
284
     1
 64
     0
275
    -2
285
     1
 65
     0
276
    -2
286
     1
 66
     0
277
    -2
287
     1
 67
     0
278
    -2
288
     1
 68
     0
279
    -2
289
     1
 69
     0
  7
Standard
140
0.18
170
     5
 62
     0
 63
     7
283
     0
274
    -2
284
     1
 64
     0
275
    -2
285
     1
 65
     0
276
    -2
286
     1
 66
     0
277
    -2
287
     1
 67
     0
278
    -2
288
     1
 68
     0
279
    -2
289
     1
 69
     0
  0
VISUALSTYLE
  5
1BD
102
{ACAD_REACTORS
330
1B7
102
}
330
1B7
100
AcDbVisualStyle
  2
2dWireframe
 70
     4
 71
     0
 72
     2
 73
     0
 90
        0
 40
-0.6
 41
-30.0
 62
     5
 63
     7
421
 16777215
 74
     1
 91
        4
 64
     7
 65
   257
 75
     1
175
     1
 42
1.0
 92
        0
 66
   257
 43
1.0
 76
     1
 77
     6
 78
     2
 67
     7
 79
     5
170
     0
171
     0
290
     0
174
     0
 93
        1
 44
0.0
173
     0
291
     0
 45
0.0
1001
ACAD
1000
AcDbSavedByObjectVersion
1070
     0
  0
VISUALSTYLE
  5
1BF
102
{ACAD_REACTORS
330
1B7
102
}
330
1B7
100
AcDbVisualStyle
  2
3D Hidden
 70
     6
 71
     1
 72
     2
 73
     2
 90
        0
 40
-0.6
 41
-30.0
 62
     5
 63
     7
421
 16777215
 74
     2
 91
        2
 64
     7
 65
   257
 75
     2
175
     1
 42
40.0
 92
        0
 66
   257
 43
1.0
 76
     1
 77
     6
 78
     2
 67
     7
 79
     3
170
     0
171
     0
290
     0
174
     0
 93
        1
 44
0.0
173
     0
291
     0
 45
0.0
1001
ACAD
1000
AcDbSavedByObjectVersion
1070
     0
  0
VISUALSTYLE
  5
1BE
102
{ACAD_REACTORS
330
1B7
102
}
330
1B7
100
AcDbVisualStyle
  2
3dWireframe
 70
     5
 71
     0
 72
     2
 73
     0
 90
        0
 40
-0.6
 41
-30.0
 62
     5
 63
     7
421
 16777215
 74
     1
 91
        4
 64
     7
 65
   257
 75
     1
175
     1
 42
1.0
 92
        0
 66
   257
 43
1.0
 76
     1
 77
     6
 78
     2
 67
     7
 79
     5
170
     0
171
     0
290
     0
174
     0
 93
        1
 44
0.0
173
     0
291
     0
 45
0.0
1001
ACAD
1000
AcDbSavedByObjectVersion
1070
     0
  0
VISUALSTYLE
  5
1BC
102
{ACAD_REACTORS
330
1B7
102
}
330
1B7
100
AcDbVisualStyle
  2
Basic
 70
     7
 71
     1
 72
     0
 73
     1
 90
        0
 40
-0.6
 41
-30.0
 62
     5
 63
     7
421
 16777215
 74
     0
 91
        4
 64
     7
 65
   257
 75
     1
175
     1
 42
1.0
 92
        8
 66
     7
 43
1.0
 76
     1
 77
     6
 78
     2
 67
     7
 79
     5
170
     0
171
     0
290
     0
174
     0
 93
        1
 44
0.0
173
     0
291
     1
 45
0.0
1001
ACAD
1000
AcDbSavedByObjectVersion
1070
     0
  0
VISUALSTYLE
  5
1C3
102
{ACAD_REACTORS
330
1B7
102
}
330
1B7
100
AcDbVisualStyle
  2
Brighten
 70
    12
 71
     2
 72
     2
 73
     0
 90
        0
 40
-0.6
 41
-30.0
 62
     5
 63
     7
421
 16777215
 74
     1
 91
        4
 64
     7
 65
   257
 75
     1
175
     1
 42
1.0
 92
        8
 66
     7
 43
1.0
 76
     1
 77
     6
 78
     2
 67
     7
 79
     5
170
     0
171
     0
290
     0
174
     0
 93
        1
 44
50.0
173
     0
291
     1
 45
0.0
1001
ACAD
1000
AcDbSavedByObjectVersion
1070
     0
  0
VISUALSTYLE
  5
1C7
102
{ACAD_REACTORS
330
1B7
102
}
330
1B7
100
AcDbVisualStyle
  2
ColorChange
 70
    16
 71
     2
 72
     2
 73
     3
 90
        0
 40
-0.6
 41
-30.0
 62
     5
 63
     8
421
  8421504
 74
     1
 91
        4
 64
     7
 65
   257
 75
     1
175
     1
 42
1.0
 92
        8
 66
     8
424
  8421504
 43
1.0
 76
     1
 77
     6
 78
     2
 67
     7
 79
     5
170
     0
171
     0
290
     0
174
     0
 93
        1
 44
0.0
173
     0
291
     1
 45
0.0
1001
ACAD
1000
AcDbSavedByObjectVersion
1070
     0
  0
VISUALSTYLE
  5
1C0
102
{ACAD_REACTORS
330
1B7
102
}
330
1B7
100
AcDbVisualStyle
  2
Conceptual
 70
     9
 71
     3
 72
     2
 73
     0
 90
        0
 40
-0.6
 41
-30.0
 62
     5
 63
     7
421
 16777215
 74
     2
 91
        2
 64
     7
 65
   257
 75
     1
175
     1
 42
40.0
 92
        8
 66
     7
 43
1.0
 76
     1
 77
     6
 78
     2
 67
     7
 79
     3
170
     0
171
     0
290
     0
174
     0
 93
        1
 44
0.0
173
     0
291
     0
 45
0.0
1001
ACAD
1000
AcDbSavedByObjectVersion
1070
     0
  0
VISUALSTYLE
  5
1C2
102
{ACAD_REACTORS
330
1B7
102
}
330
1B7
100
AcDbVisualStyle
  2
Dim
 70
    11
 71
     2
 72
     2
 73
     0
 90
        0
 40
-0.6
 41
-30.0
 62
     5
 63
     7
421
 16777215
 74
     1
 91
        4
 64
     7
 65
   257
 75
     1
175
     1
 42
1.0
 92
        8
 66
     7
 43
1.0
 76
     1
 77
     6
 78
     2
 67
     7
 79
     5
170
     0
171
     0
290
     0
174
     0
 93
        1
 44
-50.0
173
     0
291
     1
 45
0.0
1001
ACAD
1000
AcDbSavedByObjectVersion
1070
     0
  0
VISUALSTYLE
  5
1C6
102
{ACAD_REACTORS
330
1B7
102
}
330
1B7
100
AcDbVisualStyle
  2
Facepattern
 70
    15
 71
     2
 72
     2
 73
     0
 90
        0
 40
-0.6
 41
-30.0
 62
     5
 63
     7
421
 16777215
 74
     1
 91
        4
 64
     7
 65
   257
 75
     1
175
     1
 42
1.0
 92
        8
 66
     7
 43
1.0
 76
     1
 77
     6
 78
     2
 67
     7
 79
     5
170
     0
171
     0
290
     0
174
     0
 93
        1
 44
0.0
173
     0
291
     1
 45
0.0
1001
ACAD
1000
AcDbSavedByObjectVersion
1070
     0
  0
VISUALSTYLE
  5
1B8
102
{ACAD_REACTORS
330
1B7
102
}
330
1B7
100
AcDbVisualStyle
  2
Flat
 70
     0
 71
     2
 72
     1
 73
     1
 90
        2
 40
-0.6
 41
30.0
 62
     5
 63
     7
421
 16777215
 74
     0
 91
        4
 64
     7
 65
   257
 75
     1
175
     1
 42
1.0
 92
        8
 66
     7
 43
1.0
 76
     1
 77
     6
 78
     2
 67
     7
 79
     5
170
     0
171
     0
290
     0
174
     0
 93
       13
 44
0.0
173
     0
291
     1
 45
0.0
1001
ACAD
1000
AcDbSavedByObjectVersion
1070
     0
  0
VISUALSTYLE
  5
1B9
102
{ACAD_REACTORS
330
1B7
102
}
330
1B7
100
AcDbVisualStyle
  2
FlatWithEdges
 70
     1
 71
     2
 72
     1
 73
     1
 90
        2
 40
-0.6
 41
30.0
 62
     5
 63
     7
421
 16777215
 74
     1
 91
        4
 64
     7
 65
   257
 75
     1
175
     1
 42
1.0
 92
        0
 66
   257
 43
1.0
 76
     1
 77
     6
 78
     2
 67
     7
 79
     5
170
     0
171
     0
290
     0
174
     0
 93
       13
 44
0.0
173
     0
291
     1
 45
0.0
1001
ACAD
1000
AcDbSavedByObjectVersion
1070
     0
  0
VISUALSTYLE
  5
1BA
102
{ACAD_REACTORS
330
1B7
102
}
330
1B7
100
AcDbVisualStyle
  2
Gouraud
 70
     2
 71
     2
 72
     2
 73
     1
 90
        2
 40
-0.6
 41
30.0
 62
     5
 63
     7
421
 16777215
 74
     0
 91
        4
 64
     7
 65
   257
 75
     1
175
     1
 42
1.0
 92
        0
 66
     7
 43
1.0
 76
     1
 77
     6
 78
     2
 67
     7
 79
     5
170
     0
171
     0
290
     0
174
     0
 93
       13
 44
0.0
173
     0
291
     1
 45
0.0
1001
ACAD
1000
AcDbSavedByObjectVersion
1070
     0
  0
VISUALSTYLE
  5
1BB
102
{ACAD_REACTORS
330
1B7
102
}
330
1B7
100
AcDbVisualStyle
  2
GouraudWithEdges
 70
     3
 71
     2
 72
     2
 73
     1
 90
        2
 40
-0.6
 41
30.0
 62
     5
 63
     7
421
 16777215
 74
     1
 91
        4
 64
     7
 65
   257
 75
     1
175
     1
 42
1.0
 92
        0
 66
   257
 43
1.0
 76
     1
 77
     6
 78
     2
 67
     7
 79
     5
170
     0
171
     0
290
     0
174
     0
 93
       13
 44
0.0
173
     0
291
     1
 45
0.0
1001
ACAD
1000
AcDbSavedByObjectVersion
1070
     0
  0
VISUALSTYLE
  5
1C5
102
{ACAD_REACTORS
330
1B7
102
}
330
1B7
100
AcDbVisualStyle
  2
Linepattern
 70
    14
 71
     2
 72
     2
 73
     0
 90
        0
 40
-0.6
 41
-30.0
 62
     5
 63
     7
421
 16777215
 74
     1
 91
        4
 64
     7
 65
   257
 75
     7
175
     7
 42
1.0
 92
        8
 66
     7
 43
1.0
 76
     1
 77
     6
 78
     2
 67
     7
 79
     5
170
     0
171
     0
290
     0
174
     0
 93
        1
 44
0.0
173
     0
291
     1
 45
0.0
1001
ACAD
1000
AcDbSavedByObjectVersion
1070
     0
  0
VISUALSTYLE
  5
1C1
102
{ACAD_REACTORS
330
1B7
102
}
330
1B7
100
AcDbVisualStyle
  2
Realistic
 70
     8
 71
     2
 72
     2
 73
     0
 90
        0
 40
-0.6
 41
-30.0
 62
     5
 63
     7
421
 16777215
 74
     1
 91
        0
 64
     7
 65
   257
 75
     1
175
     1
 42
1.0
 92
        8
 66
     8
424
  7895160
 43
1.0
 76
     1
 77
     6
 78
     2
 67
     7
 79
     5
170
     0
171
     0
290
     0
174
     0
 93
       13
 44
0.0
173
     0
291
     0
 45
0.0
1001
ACAD
1000
AcDbSavedByObjectVersion
1070
     0
  0
VISUALSTYLE
  5
1C4
102
{ACAD_REACTORS
330
1B7
102
}
330
1B7
100
AcDbVisualStyle
  2
Thicken
 70
    13
 71
     2
 72
     2
 73
     0
 90
        0
 40
-0.6
 41
-30.0
 62
     5
 63
     7
421
 16777215
 74
     1
 91
        4
 64
     7
 65
   257
 75
     1
175
     1
 42
1.0
 92
       12
 66
     7
 43
1.0
 76
     1
 77
     6
 78
     2
 67
     7
 79
     5
170
     0
171
     0
290
     0
174
     0
 93
        1
 44
0.0
173
     0
291
     1
 45
0.0
1001
ACAD
1000
AcDbSavedByObjectVersion
1070
     0
  0
DICTIONARYVAR
  5
24B
102
{ACAD_REACTORS
330
1D7
102
}
330
1D7
100
DictionaryVariables
280
     0
  1
1:1
  0
DICTIONARYVAR
  5
24A
102
{ACAD_REACTORS
330
1D7
102
}
330
1D7
100
DictionaryVariables
280
     0
  1
STANDARD
  0
DICTIONARYVAR
  5
1D8
102
{ACAD_REACTORS
330
1D7
102
}
330
1D7
100
DictionaryVariables
280
     0
  1
STANDARD
  0
XRECORD
  5
1D6
102
{ACAD_REACTORS
330
1D4
102
}
330
1D4
100
AcDbXrecord
280
     1
  0
DICTIONARY
  5
251
330
1B5
100
AcDbDictionary
280
     1
281
     1
  3
ACAD_XREC_ROUNDTRIP
360
252
  0
DICTIONARY
  5
24F
330
1B4
100
AcDbDictionary
280
     1
281
     1
  3
ACAD_XREC_ROUNDTRIP
360
250
  0
DICTIONARY
  5
253
330
1B6
100
AcDbDictionary
280
     1
281
     1
  3
ACAD_XREC_ROUNDTRIP
360
254
  0
DICTIONARY
  5
24C
330
1CA
100
AcDbDictionary
280
     1
281
     1
  3
ACAD_ROUNDTRIP_2008_TABLESTYLE_CELLSTYLEMAP
360
24D
  3
ACAD_XREC_ROUNDTRIP
360
255
  0
XRECORD
  5
252
102
{ACAD_REACTORS
330
251
102
}
330
251
100
AcDbXrecord
280
     1
102
MATERIAL
148
0.0
149
0.0
149
0.0
 93
        0
 94
       63
282
     0
 72
     1
 77
     1
171
     1
175
     1
179
     1
273
     0
  0
XRECORD
  5
250
102
{ACAD_REACTORS
330
24F
102
}
330
24F
100
AcDbXrecord
280
     1
102
MATERIAL
148
0.0
149
0.0
149
0.0
 93
        0
 94
       63
282
     0
 72
     1
 77
     1
171
     1
175
     1
179
     1
273
     0
  0
XRECORD
  5
254
102
{ACAD_REACTORS
330
253
102
}
330
253
100
AcDbXrecord
280
     1
102
MATERIAL
148
0.0
149
0.0
149
0.0
 93
        0
 94
       63
282
     0
 72
     1
 77
     1
171
     1
175
     1
179
     1
273
     0
  0
CELLSTYLEMAP
  5
24D
102
{ACAD_REACTORS
330
24C
102
}
330
24C
100
AcDbCellStyleMap
 90
        3
300
CELLSTYLE
  1
TABLEFORMAT_BEGIN
 90
        5
170
     1
 91
        0
 92
    32768
 62
   257
 93
        1
300
CONTENTFORMAT
  1
CONTENTFORMAT_BEGIN
 90
        0
 91
        0
 92
      512
 93
        0
300

 40
0.0
140
1.0
 94
        5
 62
     0
340
17
144
0.25
309
CONTENTFORMAT_END
171
     0
 94
        6
 95
        1
302
GRIDFORMAT
  1
GRIDFORMAT_BEGIN
 90
        0
 91
        1
 62
     0
 92
       -2
340
0
 93
        0
 40
0.045
309
GRIDFORMAT_END
 95
        2
302
GRIDFORMAT
  1
GRIDFORMAT_BEGIN
 90
        0
 91
        1
 62
     0
 92
       -2
340
0
 93
        0
 40
0.045
309
GRIDFORMAT_END
 95
        4
302
GRIDFORMAT
  1
GRIDFORMAT_BEGIN
 90
        0
 91
        1
 62
     0
 92
       -2
340
0
 93
        0
 40
0.045
309
GRIDFORMAT_END
 95
        8
302
GRIDFORMAT
  1
GRIDFORMAT_BEGIN
 90
        0
 91
        1
 62
     0
 92
       -2
340
0
 93
        0
 40
0.045
309
GRIDFORMAT_END
 95
       16
302
GRIDFORMAT
  1
GRIDFORMAT_BEGIN
 90
        0
 91
        1
 62
     0
 92
       -2
340
0
 93
        0
 40
0.045
309
GRIDFORMAT_END
 95
       32
302
GRIDFORMAT
  1
GRIDFORMAT_BEGIN
 90
        0
 91
        1
 62
     0
 92
       -2
340
0
 93
        0
 40
0.045
309
GRIDFORMAT_END
309
TABLEFORMAT_END
  1
CELLSTYLE_BEGIN
 90
        1
 91
        1
300
_TITLE
309
CELLSTYLE_END
300
CELLSTYLE
  1
TABLEFORMAT_BEGIN
 90
        5
170
     1
 91
        0
 92
        0
 62
   257
 93
        1
300
CONTENTFORMAT
  1
CONTENTFORMAT_BEGIN
 90
        0
 91
        0
 92
      512
 93
        0
300

 40
0.0
140
1.0
 94
        5
 62
     0
340
17
144
0.18
309
CONTENTFORMAT_END
171
     0
 94
        6
 95
        1
302
GRIDFORMAT
  1
GRIDFORMAT_BEGIN
 90
        0
 91
        1
 62
     0
 92
       -2
340
0
 93
        0
 40
0.045
309
GRIDFORMAT_END
 95
        2
302
GRIDFORMAT
  1
GRIDFORMAT_BEGIN
 90
        0
 91
        1
 62
     0
 92
       -2
340
0
 93
        0
 40
0.045
309
GRIDFORMAT_END
 95
        4
302
GRIDFORMAT
  1
GRIDFORMAT_BEGIN
 90
        0
 91
        1
 62
     0
 92
       -2
340
0
 93
        0
 40
0.045
309
GRIDFORMAT_END
 95
        8
302
GRIDFORMAT
  1
GRIDFORMAT_BEGIN
 90
        0
 91
        1
 62
     0
 92
       -2
340
0
 93
        0
 40
0.045
309
GRIDFORMAT_END
 95
       16
302
GRIDFORMAT
  1
GRIDFORMAT_BEGIN
 90
        0
 91
        1
 62
     0
 92
       -2
340
0
 93
        0
 40
0.045
309
GRIDFORMAT_END
 95
       32
302
GRIDFORMAT
  1
GRIDFORMAT_BEGIN
 90
        0
 91
        1
 62
     0
 92
       -2
340
0
 93
        0
 40
0.045
309
GRIDFORMAT_END
309
TABLEFORMAT_END
  1
CELLSTYLE_BEGIN
 90
        2
 91
        1
300
_HEADER
309
CELLSTYLE_END
300
CELLSTYLE
  1
TABLEFORMAT_BEGIN
 90
        5
170
     1
 91
        0
 92
        0
 62
   257
 93
        1
300
CONTENTFORMAT
  1
CONTENTFORMAT_BEGIN
 90
        0
 91
        0
 92
      512
 93
        0
300

 40
0.0
140
1.0
 94
        2
 62
     0
340
17
144
0.18
309
CONTENTFORMAT_END
171
     0
 94
        6
 95
        1
302
GRIDFORMAT
  1
GRIDFORMAT_BEGIN
 90
        0
 91
        1
 62
     0
 92
       -2
340
0
 93
        0
 40
0.045
309
GRIDFORMAT_END
 95
        2
302
GRIDFORMAT
  1
GRIDFORMAT_BEGIN
 90
        0
 91
        1
 62
     0
 92
       -2
340
0
 93
        0
 40
0.045
309
GRIDFORMAT_END
 95
        4
302
GRIDFORMAT
  1
GRIDFORMAT_BEGIN
 90
        0
 91
        1
 62
     0
 92
       -2
340
0
 93
        0
 40
0.045
309
GRIDFORMAT_END
 95
        8
302
GRIDFORMAT
  1
GRIDFORMAT_BEGIN
 90
        0
 91
        1
 62
     0
 92
       -2
340
0
 93
        0
 40
0.045
309
GRIDFORMAT_END
 95
       16
302
GRIDFORMAT
  1
GRIDFORMAT_BEGIN
 90
        0
 91
        1
 62
     0
 92
       -2
340
0
 93
        0
 40
0.045
309
GRIDFORMAT_END
 95
       32
302
GRIDFORMAT
  1
GRIDFORMAT_BEGIN
 90
        0
 91
        1
 62
     0
 92
       -2
340
0
 93
        0
 40
0.045
309
GRIDFORMAT_END
309
TABLEFORMAT_END
  1
CELLSTYLE_BEGIN
 90
        3
 91
        2
300
_DATA
309
CELLSTYLE_END
  0
XRECORD
  5
255
102
{ACAD_REACTORS
330
24C
102
}
330
24C
100
AcDbXrecord
280
     1
102
ACAD_ROUNDTRIP_PRE2007_TABLESTYLE
 90
      512
 91
        0
  1

 92
      512
 93
        0
  2

 94
      512
 95
        0
  3

  0
ENDSEC
  0
EOF
