  0
SECTION
  2
HEADER
  9
$ACADVER
  1
AC1018
  9
$ACADMAINTVER
 70
   104
  9
$DWGCODEPAGE
  3
ANSI_1252
  9
$LASTSAVEDBY
  1
EARL
  9
$INSBASE
 10
0.0
 20
0.0
 30
0.0
  9
$EXTMIN
 10
-7.146835739495871
 20
0.4956630163581928
 30
0.0
  9
$EXTMAX
 10
4.200148600649146
 20
5.23877049775711
 30
0.0
  9
$LIMMIN
 10
0.0
 20
0.0
  9
$LIMMAX
 10
0.0
 20
0.0
  9
$ORTHOMODE
 70
     1
  9
$REGENMODE
 70
     1
  9
$FILLMODE
 70
     1
  9
$QTEXTMODE
 70
     0
  9
$MIRRTEXT
 70
     1
  9
$LTSCALE
 40
1.0
  9
$ATTMODE
 70
     1
  9
$TEXTSIZE
 40
0.0
  9
$TRACEWID
 40
0.05
  9
$TEXTSTYLE
  7
Standard
  9
$CLAYER
  8
0
  9
$CELTYPE
  6
Continuous
  9
$CECOLOR
 62
   256
  9
$CELTSCALE
 40
1.0
  9
$DISPSILH
 70
     0
  9
$DIMSCALE
 40
1.0
  9
$DIMASZ
 40
0.18
  9
$DIMEXO
 40
0.0625
  9
$DIMDLI
 40
0.38
  9
$DIMRND
 40
0.0
  9
$DIMDLE
 40
0.0
  9
$DIMEXE
 40
0.18
  9
$DIMTP
 40
0.0
  9
$DIMTM
 40
0.0
  9
$DIMTXT
 40
0.18
  9
$DIMCEN
 40
0.09
  9
$DIMTSZ
 40
0.0
  9
$DIMTOL
 70
     0
  9
$DIMLIM
 70
     0
  9
$DIMTIH
 70
     1
  9
$DIMTOH
 70
     1
  9
$DIMSE1
 70
     0
  9
$DIMSE2
 70
     0
  9
$DIMTAD
 70
     0
  9
$DIMZIN
 70
     0
  9
$DIMBLK
  1

  9
$DIMASO
 70
     1
  9
$DIMSHO
 70
     1
  9
$DIMPOST
  1

  9
$DIMAPOST
  1

  9
$DIMALT
 70
     0
  9
$DIMALTD
 70
     2
  9
$DIMALTF
 40
25.4
  9
$DIMLFAC
 40
1.0
  9
$DIMTOFL
 70
     0
  9
$DIMTVP
 40
0.0
  9
$DIMTIX
 70
     0
  9
$DIMSOXD
 70
     0
  9
$DIMSAH
 70
     0
  9
$DIMBLK1
  1

  9
$DIMBLK2
  1

  9
$DIMSTYLE
  2
Standard
  9
$DIMCLRD
 70
     0
  9
$DIMCLRE
 70
     0
  9
$DIMCLRT
 70
     0
  9
$DIMTFAC
 40
1.0
  9
$DIMGAP
 40
0.09
  9
$DIMJUST
 70
     0
  9
$DIMSD1
 70
     0
  9
$DIMSD2
 70
     0
  9
$DIMTOLJ
 70
     1
  9
$DIMTZIN
 70
     0
  9
$DIMALTZ
 70
     0
  9
$DIMALTTZ
 70
     0
  9
$DIMUPT
 70
     0
  9
$DIMDEC
 70
     4
  9
$DIMTDEC
 70
     4
  9
$DIMALTU
 70
     2
  9
$DIMALTTD
 70
     2
  9
$DIMTXSTY
  7
Standard
  9
$DIMAUNIT
 70
     0
  9
$DIMADEC
 70
     0
  9
$DIMALTRND
 40
0.0
  9
$DIMAZIN
 70
     0
  9
$DIMDSEP
 70
    46
  9
$DIMATFIT
 70
     0
  9
$DIMFRAC
 70
     0
  9
$DIMLDRBLK
  1

  9
$DIMLUNIT
 70
     2
  9
$DIMLWD
 70
    -2
  9
$DIMLWE
 70
    -2
  9
$DIMTMOVE
 70
     0
  9
$LUNITS
 70
     2
  9
$LUPREC
 70
     4
  9
$SKETCHINC
 40
0.1
  9
$FILLETRAD
 40
0.0
  9
$AUNITS
 70
     0
  9
$AUPREC
 70
     0
  9
$MENU
  1
acad
  9
$ELEVATION
 40
0.0
  9
$PELEVATION
 40
0.0
  9
$THICKNESS
 40
0.0
  9
$LIMCHECK
 70
     0
  9
$CHAMFERA
 40
0.0
  9
$CHAMFERB
 40
0.0
  9
$CHAMFERC
 40
0.0
  9
$CHAMFERD
 40
0.0
  9
$SKPOLY
 70
     0
  9
$TDCREATE
 40
2454842.779618056
  9
$TDUCREATE
 40
2454842.946284722
  9
$TDUPDATE
 40
2455104.565328229
  9
$TDUUPDATE
 40
2455104.731994896
  9
$TDINDWG
 40
0.0018660532
  9
$TDUSRTIMER
 40
0.0018660532
  9
$USRTIMER
 70
     1
  9
$ANGBASE
 50
0.0
  9
$ANGDIR
 70
     0
  9
$PDMODE
 70
     0
  9
$PDSIZE
 40
0.0
  9
$PLINEWID
 40
0.0
  9
$SPLFRAME
 70
     0
  9
$SPLINETYPE
 70
     6
  9
$SPLINESEGS
 70
     8
  9
$HANDSEED
  5
232
  9
$SURFTAB1
 70
     6
  9
$SURFTAB2
 70
     6
  9
$SURFTYPE
 70
     6
  9
$SURFU
 70
     6
  9
$SURFV
 70
     6
  9
$UCSBASE
  2

  9
$UCSNAME
  2

  9
$UCSORG
 10
0.0
 20
0.0
 30
0.0
  9
$UCSXDIR
 10
1.0
 20
0.0
 30
0.0
  9
$UCSYDIR
 10
0.0
 20
1.0
 30
0.0
  9
$UCSORTHOREF
  2

  9
$UCSORTHOVIEW
 70
     0
  9
$UCSORGTOP
 10
0.0
 20
0.0
 30
0.0
  9
$UCSORGBOTTOM
 10
0.0
 20
0.0
 30
0.0
  9
$UCSORGLEFT
 10
0.0
 20
0.0
 30
0.0
  9
$UCSORGRIGHT
 10
0.0
 20
0.0
 30
0.0
  9
$UCSORGFRONT
 10
0.0
 20
0.0
 30
0.0
  9
$UCSORGBACK
 10
0.0
 20
0.0
 30
0.0
  9
$PUCSBASE
  2

  9
$PUCSNAME
  2

  9
$PUCSORG
 10
0.0
 20
0.0
 30
0.0
  9
$PUCSXDIR
 10
1.0
 20
0.0
 30
0.0
  9
$PUCSYDIR
 10
0.0
 20
1.0
 30
0.0
  9
$PUCSORTHOREF
  2

  9
$PUCSORTHOVIEW
 70
     0
  9
$PUCSORGTOP
 10
0.0
 20
0.0
 30
0.0
  9
$PUCSORGBOTTOM
 10
0.0
 20
0.0
 30
0.0
  9
$PUCSORGLEFT
 10
0.0
 20
0.0
 30
0.0
  9
$PUCSORGRIGHT
 10
0.0
 20
0.0
 30
0.0
  9
$PUCSORGFRONT
 10
0.0
 20
0.0
 30
0.0
  9
$PUCSORGBACK
 10
0.0
 20
0.0
 30
0.0
  9
$USERI1
 70
     0
  9
$USERI2
 70
     0
  9
$USERI3
 70
     0
  9
$USERI4
 70
     0
  9
$USERI5
 70
     0
  9
$USERR1
 40
0.0
  9
$USERR2
 40
0.0
  9
$USERR3
 40
0.0
  9
$USERR4
 40
0.0
  9
$USERR5
 40
0.0
  9
$WORLDVIEW
 70
     1
  9
$SHADEDGE
 70
     3
  9
$SHADEDIF
 70
    70
  9
$TILEMODE
 70
     0
  9
$MAXACTVP
 70
    16
  9
$PINSBASE
 10
0.0
 20
0.0
 30
0.0
  9
$PLIMCHECK
 70
     0
  9
$PEXTMIN
 10
-0.0909266185249429
 20
-0.0610198723760078
 30
-0.0015258207003583
  9
$PEXTMAX
 10
10.37683133089736
 20
7.99851969418907
 30
0.0000000349246037
  9
$PLIMMIN
 10
-0.3306119115190196
 20
-0.2812499079328949
  9
$PLIMMAX
 10
10.66938784818509
 20
8.218749851771214
  9
$UNITMODE
 70
     0
  9
$VISRETAIN
 70
     0
  9
$PLINEGEN
 70
     1
  9
$PSLTSCALE
 70
     0
  9
$TREEDEPTH
 70
  3020
  9
$CMLSTYLE
  2
Standard
  9
$CMLJUST
 70
     0
  9
$CMLSCALE
 40
1.0
  9
$PROXYGRAPHICS
 70
     0
  9
$MEASUREMENT
 70
     0
  9
$CELWEIGHT
370
     0
  9
$ENDCAPS
280
     0
  9
$JOINSTYLE
280
     0
  9
$LWDISPLAY
290
     0
  9
$INSUNITS
 70
     0
  9
$HYPERLINKBASE
  1

  9
$STYLESHEET
  1

  9
$XEDIT
290
     1
  9
$CEPSNTYPE
380
     0
  9
$PSTYLEMODE
290
     1
  9
$FINGERPRINTGUID
  2

  9
$VERSIONGUID
  2
{CBA6AC75-9CFD-4727-9A1D-3F275217A88D}
  9
$EXTNAMES
290
     1
  9
$PSVPSCALE
 40
0.0
  9
$OLESTARTUP
290
     0
  9
$SORTENTS
280
   127
  9
$INDEXCTL
280
     0
  9
$HIDETEXT
280
     0
  9
$XCLIPFRAME
290
     0
  9
$HALOGAP
280
     0
  9
$OBSCOLOR
 70
   257
  9
$OBSLTYPE
280
     0
  9
$INTERSECTIONDISPLAY
280
     0
  9
$INTERSECTIONCOLOR
 70
   257
  9
$DIMASSOC
280
     1
  9
$PROJECTNAME
  1

  0
ENDSEC
  0
SECTION
  2
CLASSES
  0
CLASS
  1
IMAGE
  2
AcDbRasterImage
  3
ISM
 90
     2175
 91
        0
280
     0
281
     1
  0
CLASS
  1
DICTIONARYVAR
  2
AcDbDictionaryVar
  3
ObjectDBX Classes
 90
        0
 91
        5
280
     0
281
     0
  0
CLASS
  1
RASTERVARIABLES
  2
AcDbRasterVariables
  3
ISM
 90
        0
 91
        0
280
     0
281
     0
  0
CLASS
  1
IMAGEDEF
  2
AcDbRasterImageDef
  3
ISM
 90
        0
 91
        0
280
     0
281
     0
  0
CLASS
  1
IMAGEDEF_REACTOR
  2
AcDbRasterImageDefReactor
  3
ISM
 90
        1
 91
        0
280
     0
281
     0
  0
CLASS
  1
IDBUFFER
  2
AcDbIdBuffer
  3
ObjectDBX Classes
 90
        0
 91
        0
280
     0
281
     0
  0
CLASS
  1
SPATIAL_FILTER
  2
AcDbSpatialFilter
  3
ObjectDBX Classes
 90
        0
 91
        0
280
     0
281
     0
  0
CLASS
  1
SORTENTSTABLE
  2
AcDbSortentsTable
  3
ObjectDBX Classes
 90
        0
 91
        1
280
     0
281
     0
  0
CLASS
  1
LAYER_INDEX
  2
AcDbLayerIndex
  3
ObjectDBX Classes
 90
        0
 91
        0
280
     0
281
     0
  0
CLASS
  1
SPATIAL_INDEX
  2
AcDbSpatialIndex
  3
ObjectDBX Classes
 90
        0
 91
        0
280
     0
281
     0
  0
CLASS
  1
OBJECT_PTR
  2
CAseDLPNTableRecord
  3
ASE-LPNTableRecord
 90
        1
 91
        0
280
     0
281
     0
  0
CLASS
  1
PLOTSETTINGS
  2
AcDbPlotSettings
  3
ObjectDBX Classes
 90
        0
 91
        0
280
     0
281
     0
  0
CLASS
  1
ACDBDICTIONARYWDFLT
  2
AcDbDictionaryWithDefault
  3
ObjectDBX Classes
 90
        0
 91
        1
280
     0
281
     0
  0
CLASS
  1
WIPEOUT
  2
AcDbWipeout
  3
"WipeOut|Product Desc: Object Enabler for WipeOut entity                        |Company: Autodesk, Inc.                        |WEB Address: www.autodesk.com"
 90
     2175
 91
        0
280
     0
281
     1
  0
CLASS
  1
WIPEOUTVARIABLES
  2
AcDbWipeoutVariables
  3
"WipeOut|Product Desc:     WipeOut Dbx Application|Company:          Autodesk, Inc.|WEB Address:      www.autodesk.com"
 90
        0
 91
        1
280
     0
281
     0
  0
CLASS
  1
RTEXT
  2
RText
  3
RText|AutoCAD Express Tool|expresstools@autodesk.com
 90
     3071
 91
        0
280
     0
281
     1
  0
CLASS
  1
ARCALIGNEDTEXT
  2
AcDbArcAlignedText
  3
ATEXT|AutoCAD Express Tool|expresstools@autodesk.com
 90
        0
 91
        0
280
     0
281
     1
  0
CLASS
  1
MATERIAL
  2
AcDbMaterial
  3
ObjectDBX Classes
 90
     1153
 91
        3
280
     0
281
     0
  0
CLASS
  1
VISUALSTYLE
  2
AcDbVisualStyle
  3
ObjectDBX Classes
 90
     4095
 91
       16
280
     0
281
     0
  0
CLASS
  1
TABLESTYLE
  2
AcDbTableStyle
  3
ObjectDBX Classes
 90
     4095
 91
        1
280
     0
281
     0
  0
CLASS
  1
SCALE
  2
AcDbScale
  3
ObjectDBX Classes
 90
     1153
 91
       33
280
     0
281
     0
  0
CLASS
  1
MLEADERSTYLE
  2
AcDbMLeaderStyle
  3
ACDB_MLEADERSTYLE_CLASS
 90
     4095
 91
        1
280
     0
281
     0
  0
CLASS
  1
CELLSTYLEMAP
  2
AcDbCellStyleMap
  3
ObjectDBX Classes
 90
     1152
 91
        2
280
     0
281
     0
  0
ENDSEC
  0
SECTION
  2
TABLES
  0
TABLE
  2
VPORT
  5
7
330
0
100
AcDbSymbolTable
 70
     1
  0
VPORT
  5
15
330
7
100
AcDbSymbolTableRecord
100
AcDbViewportTableRecord
  2
*ACTIVE
 70
     0
 10
0.0
 20
0.0
 11
1.0
 21
1.0
 12
13.89621157632295
 22
4.579183999999999
 13
0.0
 23
0.0
 14
1.0
 24
1.0
 15
0.0
 25
0.0
 16
0.0
 26
0.0
 36
1.0
 17
0.0
 27
0.0
 37
0.0
 40
9.158369
 41
2.283809523809523
 42
50.0
 43
0.0
 44
0.0
 50
0.0
 51
0.0
 71
     0
 72
   100
 73
     1
 74
     1
 75
     0
 76
     0
 77
     0
 78
     0
281
     0
 65
     0
110
0.0
120
0.0
130
0.0
111
1.0
121
0.0
131
0.0
112
0.0
122
1.0
132
0.0
 79
     0
146
0.0
  0
ENDTAB
  0
TABLE
  2
LTYPE
  5
4
330
0
100
AcDbSymbolTable
 70
     5
  0
LTYPE
  5
11
330
4
100
AcDbSymbolTableRecord
100
AcDbLinetypeTableRecord
  2
ByBlock
 70
     0
  3

 72
    65
 73
     0
 40
0.0
  0
LTYPE
  5
12
330
4
100
AcDbSymbolTableRecord
100
AcDbLinetypeTableRecord
  2
ByLayer
 70
     0
  3

 72
    65
 73
     0
 40
0.0
  0
LTYPE
  5
13
330
4
100
AcDbSymbolTableRecord
100
AcDbLinetypeTableRecord
  2
Continuous
 70
     0
  3
Solid line
 72
    65
 73
     0
 40
0.0
  0
LTYPE
  5
24
330
4
100
AcDbSymbolTableRecord
100
AcDbLinetypeTableRecord
  2
solid
 70
     0
  3

 72
    65
 73
     0
 40
0.0
  0
LTYPE
  5
25
330
4
100
AcDbSymbolTableRecord
100
AcDbLinetypeTableRecord
  2
dashed
 70
     0
  3

 72
    65
 73
     0
 40
0.0
  0
LTYPE
  5
26
330
4
100
AcDbSymbolTableRecord
100
AcDbLinetypeTableRecord
  2
center
 70
     0
  3

 72
    65
 73
     0
 40
0.0
  0
ENDTAB
  0
TABLE
  2
LAYER
  5
2
330
0
100
AcDbSymbolTable
 70
     3
  0
LAYER
  5
14
102
{ACAD_XDICTIONARY
360
1DB
102
}
330
2
100
AcDbSymbolTableRecord
100
AcDbLayerTableRecord
  2
0
 70
     0
 62
     7
  6
Continuous
370
    -3
390
1D
  0
LAYER
  5
27
102
{ACAD_XDICTIONARY
360
1DD
102
}
330
2
100
AcDbSymbolTableRecord
100
AcDbLayerTableRecord
  2
1
 70
     0
 62
     1
  6
solid
370
    -3
390
1D
  0
LAYER
  5
E8
102
{ACAD_XDICTIONARY
360
1DF
102
}
330
2
100
AcDbSymbolTableRecord
100
AcDbLayerTableRecord
  2
0
 70
     0
 62
     1
  6
solid
370
    -3
390
1D
  0
ENDTAB
  0
TABLE
  2
STYLE
  5
3
330
0
100
AcDbSymbolTable
 70
     2
  0
STYLE
  5
17
330
3
100
AcDbSymbolTableRecord
100
AcDbTextStyleTableRecord
  2
Standard
 70
     0
 40
0.0
 41
1.0
 50
0.0
 71
     0
 42
0.0
  3
txt
  4

  0
ENDTAB
  0
TABLE
  2
VIEW
  5
5
330
0
100
AcDbSymbolTable
 70
     0
  0
ENDTAB
  0
TABLE
  2
UCS
  5
6
330
0
100
AcDbSymbolTable
 70
     0
  0
ENDTAB
  0
TABLE
  2
APPID
  5
8
330
0
100
AcDbSymbolTable
 70
     4
  0
APPID
  5
16
330
8
100
AcDbSymbolTableRecord
100
AcDbRegAppTableRecord
  2
ACAD
 70
     0
  0
APPID
  5
1A6
330
8
100
AcDbSymbolTableRecord
100
AcDbRegAppTableRecord
  2
ACAD_PSEXT
 70
     0
  0
APPID
  5
1AB
330
8
100
AcDbSymbolTableRecord
100
AcDbRegAppTableRecord
  2
DCO15
 70
     0
  0
APPID
  5
1D4
330
8
100
AcDbSymbolTableRecord
100
AcDbRegAppTableRecord
  2
ACAD_MLEADERVER
 70
     0
  0
ENDTAB
  0
TABLE
  2
DIMSTYLE
  5
9
330
0
100
AcDbSymbolTable
 70
     3
100
AcDbDimStyleTable
 71
     1
340
18
  0
DIMSTYLE
105
18
330
9
100
AcDbSymbolTableRecord
100
AcDbDimStyleTableRecord
  2
Standard
 70
     0
289
     0
340
17
  0
ENDTAB
  0
TABLE
  2
BLOCK_RECORD
  5
1
330
0
100
AcDbSymbolTable
 70
     6
  0
BLOCK_RECORD
  5
A
102
{ACAD_XDICTIONARY
360
1F0
102
}
330
1
100
AcDbSymbolTableRecord
100
AcDbBlockTableRecord
  2
*MODEL_SPACE
340
20
  0
BLOCK_RECORD
  5
B
330
1
100
AcDbSymbolTableRecord
100
AcDbBlockTableRecord
  2
*PAPER_SPACE
340
21
  0
BLOCK_RECORD
  5
D2
330
1
100
AcDbSymbolTableRecord
100
AcDbBlockTableRecord
  2
*D0
340
0
  0
BLOCK_RECORD
  5
DD
330
1
100
AcDbSymbolTableRecord
100
AcDbBlockTableRecord
  2
*D1
340
0
  0
BLOCK_RECORD
  5
172
330
1
100
AcDbSymbolTableRecord
100
AcDbBlockTableRecord
  2
*D2
340
0
  0
BLOCK_RECORD
  5
17D
330
1
100
AcDbSymbolTableRecord
100
AcDbBlockTableRecord
  2
*D3
340
0
  0
ENDTAB
  0
ENDSEC
  0
SECTION
  2
BLOCKS
  0
BLOCK
  5
D
330
A
100
AcDbEntity
  8
0
100
AcDbBlockBegin
  2
*MODEL_SPACE
 70
     0
 10
0.0
 20
0.0
 30
0.0
  3
*MODEL_SPACE
  1

  0
ENDBLK
  5
E
330
A
100
AcDbEntity
  8
0
100
AcDbBlockEnd
  0
BLOCK
  5
F
330
B
100
AcDbEntity
 67
     1
  8
0
100
AcDbBlockBegin
  2
*PAPER_SPACE
 70
     0
 10
0.0
 20
0.0
 30
0.0
  3
*PAPER_SPACE
  1

  0
ENDBLK
  5
10
330
B
100
AcDbEntity
 67
     1
  8
0
100
AcDbBlockEnd
  0
BLOCK
  5
D3
330
D2
100
AcDbEntity
  8
1
  6
solid
 62
     7
100
AcDbBlockBegin
  2
*D0
 70
     0
 10
0.0
 20
0.0
 30
0.0
  3
*D0
  1

  0
LINE
  5
D4
330
D2
100
AcDbEntity
  8
1
  6
solid
 62
     7
100
AcDbLine
 10
0.198869839310646
 20
1.96860909461975
 30
0.0
 11
0.198869839310646
 21
5.238770497757109
 31
0.0
  0
LINE
  5
D5
330
D2
100
AcDbEntity
  8
1
  6
solid
 62
     7
100
AcDbLine
 10
3.710757732391356
 20
5.1135196685791
 30
0.0
 11
3.710757732391356
 21
5.238770497757109
 31
0.0
  0
LINE
  5
D6
330
D2
100
AcDbEntity
  8
1
  6
solid
 62
     7
100
AcDbLine
 10
0.198869839310646
 20
5.176270497757109
 30
0.0
 11
1.716269668203942
 21
5.176270497757109
 31
0.0
  0
LINE
  5
D7
330
D2
100
AcDbEntity
  8
1
  6
solid
 62
     7
100
AcDbLine
 10
3.710757732391356
 20
5.176270497757109
 30
0.0
 11
2.19335790349806
 21
5.176270497757109
 31
0.0
  0
MTEXT
  5
D8
330
D2
100
AcDbEntity
  8
1
  6
solid
 62
     7
100
AcDbMText
 10
1.954813785851001
 20
5.176270497757109
 30
0.0
 40
0.125
 41
0.0
 71
     5
 72
     1
  1
{\H0.125000;3 1/2}
 73
     1
 44
1.0
  0
SOLID
  5
D9
330
D2
100
AcDbEntity
  8
1
  6
solid
 62
     7
100
AcDbTrace
 10
0.3238698393106461
 20
5.197082997757109
 30
0.0
 11
0.3238698393106461
 21
5.155457997757108
 31
0.0
 12
0.198869839310646
 22
5.176270497757109
 32
0.0
 13
0.198869839310646
 23
5.176270497757109
 33
0.0
  0
SOLID
  5
DA
330
D2
100
AcDbEntity
  8
1
  6
solid
 62
     7
100
AcDbTrace
 10
3.585757732391356
 20
5.155457997757108
 30
0.0
 11
3.585757732391356
 21
5.197082997757109
 31
0.0
 12
3.710757732391356
 22
5.176270497757109
 32
0.0
 13
3.710757732391356
 23
5.176270497757109
 33
0.0
  0
ENDBLK
  5
DB
330
D2
100
AcDbEntity
  8
1
  6
solid
 62
     7
100
AcDbBlockEnd
  0
BLOCK
  5
DE
330
DD
100
AcDbEntity
  8
1
  6
solid
 62
     7
100
AcDbBlockBegin
  2
*D1
 70
     0
 10
0.0
 20
0.0
 30
0.0
  3
*D1
  1

  0
LINE
  5
DF
330
DD
100
AcDbEntity
  8
1
  6
solid
 62
     7
100
AcDbLine
 10
0.073869839310646
 20
1.170561909675597
 30
0.0
 11
-0.2362433172089644
 21
1.170561909675598
 31
0.0
  0
LINE
  5
E0
330
DD
100
AcDbEntity
  8
1
  6
solid
 62
     7
100
AcDbLine
 10
3.051399469375609
 20
4.9885196685791
 30
0.0
 11
-0.2362433172089617
 21
4.988519668579103
 31
0.0
  0
LINE
  5
E1
330
DD
100
AcDbEntity
  8
1
  6
solid
 62
     7
100
AcDbLine
 10
-0.1737433172089644
 20
1.170561909675598
 30
0.0
 11
-0.1737433172089631
 21
2.919668192973503
 31
0.0
  0
LINE
  5
E2
330
DD
100
AcDbEntity
  8
1
  6
solid
 62
     7
100
AcDbLine
 10
-0.1737433172089616
 20
4.988519668579103
 30
0.0
 11
-0.1737433172089629
 21
3.239413385281195
 31
0.0
  0
MTEXT
  5
E3
330
DD
100
AcDbEntity
  8
1
  6
solid
 62
     7
100
AcDbMText
 10
-0.173743317208963
 20
3.079540789127349
 30
0.0
 40
0.125
 41
0.0
 71
     5
 72
     1
  1
{\H0.125000;3 7/8}
 73
     1
 44
1.0
  0
SOLID
  5
E4
330
DD
100
AcDbEntity
  8
1
  6
solid
 62
     7
100
AcDbTrace
 10
-0.1945558172089642
 20
1.295561909675598
 30
0.0
 11
-0.1529308172089641
 21
1.295561909675598
 31
0.0
 12
-0.1737433172089644
 22
1.170561909675598
 32
0.0
 13
-0.1737433172089644
 23
1.170561909675598
 33
0.0
  0
SOLID
  5
E5
330
DD
100
AcDbEntity
  8
1
  6
solid
 62
     7
100
AcDbTrace
 10
-0.1529308172089617
 20
4.863519668579103
 30
0.0
 11
-0.1945558172089617
 21
4.863519668579103
 31
0.0
 12
-0.1737433172089616
 22
4.988519668579103
 32
0.0
 13
-0.1737433172089616
 23
4.988519668579103
 33
0.0
  0
ENDBLK
  5
E6
330
DD
100
AcDbEntity
  8
1
  6
solid
 62
     7
100
AcDbBlockEnd
  0
BLOCK
  5
173
330
172
100
AcDbEntity
  8
0
  6
solid
 62
     7
100
AcDbBlockBegin
  2
*D2
 70
     0
 10
0.0
 20
0.0
 30
0.0
  3
*D2
  1

  0
LINE
  5
174
330
172
100
AcDbEntity
  8
0
  6
solid
 62
     7
100
AcDbLine
 10
-6.047677516937255
 20
2.737389087677001
 30
0.0
 11
-6.569873239495871
 21
2.737389087677001
 31
0.0
  0
LINE
  5
175
330
172
100
AcDbEntity
  8
0
  6
solid
 62
     7
100
AcDbLine
 10
-3.746086359024047
 20
3.567964076995849
 30
0.0
 11
-6.56987323949587
 21
3.567964076995851
 31
0.0
  0
LINE
  5
176
330
172
100
AcDbEntity
  8
0
  6
solid
 62
     7
100
AcDbLine
 10
-6.507373239495871
 20
2.737389087677001
 30
0.0
 11
-6.507373239495871
 21
3.152676582336426
 31
0.0
  0
LINE
  5
177
330
172
100
AcDbEntity
  8
0
  6
solid
 62
     7
100
AcDbLine
 10
-6.50737323949587
 20
3.567964076995851
 30
0.0
 11
-6.507373239495871
 21
3.152676582336426
 31
0.0
  0
MTEXT
  5
178
330
172
100
AcDbEntity
  8
0
  6
solid
 62
     7
100
AcDbMText
 10
-6.896835739495871
 20
3.152676582336426
 30
0.0
 40
0.125
 41
0.0
 71
     5
 72
     1
  1
{\H0.125000;13/16}
 73
     1
 44
1.0
  0
SOLID
  5
179
330
172
100
AcDbEntity
  8
0
  6
solid
 62
     7
100
AcDbTrace
 10
-6.528188239495872
 20
2.862389087677001
 30
0.0
 11
-6.486558239495872
 21
2.862389087677001
 31
0.0
 12
-6.507373239495871
 22
2.737389087677001
 32
0.0
 13
-6.507373239495871
 23
2.737389087677001
 33
0.0
  0
SOLID
  5
17A
330
172
100
AcDbEntity
  8
0
  6
solid
 62
     7
100
AcDbTrace
 10
-6.486558239495871
 20
3.442964076995851
 30
0.0
 11
-6.528188239495871
 21
3.442964076995851
 31
0.0
 12
-6.50737323949587
 22
3.567964076995851
 32
0.0
 13
-6.50737323949587
 23
3.567964076995851
 33
0.0
  0
ENDBLK
  5
17B
330
172
100
AcDbEntity
  8
0
  6
solid
 62
     7
100
AcDbBlockEnd
  0
BLOCK
  5
17E
330
17D
100
AcDbEntity
  8
0
  6
solid
 62
     7
100
AcDbBlockBegin
  2
*D3
 70
     0
 10
0.0
 20
0.0
 30
0.0
  3
*D3
  1

  0
LINE
  5
17F
330
17D
100
AcDbEntity
  8
0
  6
solid
 62
     7
100
AcDbLine
 10
-6.290059089660644
 20
3.000422239303588
 30
0.0
 11
-6.290059089660644
 21
2.262240624799863
 31
0.0
  0
LINE
  5
180
330
17D
100
AcDbEntity
  8
0
  6
solid
 62
     7
100
AcDbLine
 10
-1.103096604347229
 20
3.075121641159057
 30
0.0
 11
-1.103096604347229
 21
2.262240624799863
 31
0.0
  0
LINE
  5
181
330
17D
100
AcDbEntity
  8
0
  6
solid
 62
     7
100
AcDbLine
 10
-6.290059089660644
 20
2.324740624799863
 30
0.0
 11
-3.696577847003936
 21
2.324740624799863
 31
0.0
  0
LINE
  5
182
330
17D
100
AcDbEntity
  8
0
  6
solid
 62
     7
100
AcDbLine
 10
-1.103096604347229
 20
2.324740624799863
 30
0.0
 11
-3.696577847003936
 21
2.324740624799863
 31
0.0
  0
MTEXT
  5
183
330
17D
100
AcDbEntity
  8
0
  6
solid
 62
     7
100
AcDbMText
 10
-3.696577847003936
 20
2.42832572095371
 30
0.0
 40
0.125
 41
0.0
 71
     5
 72
     1
  1
{\H0.125000;5 3/16}
 73
     1
 44
1.0
  0
SOLID
  5
184
330
17D
100
AcDbEntity
  8
0
  6
solid
 62
     7
100
AcDbTrace
 10
-6.165059089660644
 20
2.345555624799863
 30
0.0
 11
-6.165059089660644
 21
2.303925624799863
 31
0.0
 12
-6.290059089660644
 22
2.324740624799863
 32
0.0
 13
-6.290059089660644
 23
2.324740624799863
 33
0.0
  0
SOLID
  5
185
330
17D
100
AcDbEntity
  8
0
  6
solid
 62
     7
100
AcDbTrace
 10
-1.228096604347229
 20
2.303925624799863
 30
0.0
 11
-1.228096604347229
 21
2.345555624799863
 31
0.0
 12
-1.103096604347229
 22
2.324740624799863
 32
0.0
 13
-1.103096604347229
 23
2.324740624799863
 33
0.0
  0
ENDBLK
  5
186
330
17D
100
AcDbEntity
  8
0
  6
solid
 62
     7
100
AcDbBlockEnd
  0
ENDSEC
  0
SECTION
  2
ENTITIES
  0
LINE
  5
28
330
A
100
AcDbEntity
  8
1
  6
solid
 62
     7
100
AcDbLine
 10
0.8499755426940334
 20
1.636685247299999
 30
0.0
 11
0.5937510917122701
 21
1.636685247299999
 31
0.0
  0
ARC
  5
29
330
A
100
AcDbEntity
  8
1
  6
solid
 62
     7
100
AcDbCircle
 10
0.4155494547173891
 20
1.509662652958243
 30
0.0
 40
0.2188391131232195
100
AcDbArc
 50
249.0747268497719
 51
395.4813750871342
  0
LINE
  5
2A
330
A
100
AcDbEntity
  8
1
  6
solid
 62
     7
100
AcDbLine
 10
0.3373910563
 20
1.305256630080269
 30
0.0
 11
0.3373910563
 21
1.17056196861509
 31
0.0
  0
LINE
  5
2B
330
A
100
AcDbEntity
  8
1
  6
solid
 62
     7
100
AcDbLine
 10
0.3373910563
 20
1.170561968599999
 30
0.0
 11
0.19886984194848
 21
1.170561968599999
 31
0.0
  0
LINE
  5
2C
330
A
100
AcDbEntity
  8
1
  6
solid
 62
     7
100
AcDbLine
 10
0.1988698419
 20
1.170561968599999
 30
0.0
 11
0.1988698419
 21
1.843609040467122
 31
0.0
  0
LINE
  5
2D
330
A
100
AcDbEntity
  8
1
  6
solid
 62
     7
100
AcDbLine
 10
0.198869839310646
 20
1.84360909461975
 30
0.0
 11
3.176399482725473
 21
4.9885196686
 31
0.0
  0
LINE
  5
2E
330
A
100
AcDbEntity
  8
1
  6
solid
 62
     7
100
AcDbLine
 10
3.710757732381786
 20
4.9885196685791
 30
0.0
 11
3.710757732381786
 21
4.77723475656951
 31
0.0
  0
LINE
  5
2F
330
A
100
AcDbEntity
  8
1
  6
solid
 62
     7
100
AcDbLine
 10
3.710757732381786
 20
4.777234756545604
 30
0.0
 11
3.521206360872159
 21
4.777234756545604
 31
0.0
  0
ARC
  5
30
330
A
100
AcDbEntity
  8
1
  6
solid
 62
     7
100
AcDbCircle
 10
3.432987518830384
 20
4.698490886544213
 30
0.0
 40
0.1182502959347239
100
AcDbArc
 50
277.2306030586577
 51
401.7519248045692
  0
ARC
  5
31
330
A
100
AcDbEntity
  8
1
  6
solid
 62
     7
100
AcDbCircle
 10
2.999759080216835
 20
4.335032958918341
 30
0.0
 40
0.511266220263612
100
AcDbArc
 50
266.1629923433919
 51
388.7800148258196
  0
ARC
  5
32
330
A
100
AcDbEntity
  8
1
  6
solid
 62
     7
100
AcDbCircle
 10
2.911589867994289
 20
3.764143350490138
 30
0.0
 40
0.0812660873593299
100
AcDbArc
 50
265.7344075194201
 51
408.3987374347023
  0
ARC
  5
33
330
A
100
AcDbEntity
  8
1
  6
solid
 62
     7
100
AcDbCircle
 10
2.755195647737064
 20
3.620921376803857
 30
0.0
 40
0.1627005658343663
100
AcDbArc
 50
228.378399857031
 51
382.4688167997393
  0
ARC
  5
34
330
A
100
AcDbEntity
  8
1
  6
solid
 62
     7
100
AcDbCircle
 10
2.552226554834446
 20
3.561483699202259
 30
0.0
 40
0.1134628993711704
100
AcDbArc
 50
237.9110774939882
 51
326.7634260607385
  0
ARC
  5
35
330
A
100
AcDbEntity
  8
1
  6
solid
 62
     7
100
AcDbCircle
 10
2.425441212627395
 20
3.486826716805696
 30
0.0
 40
0.0698899841233421
100
AcDbArc
 50
229.8311807023231
 51
342.1082617618361
  0
ARC
  5
36
330
A
100
AcDbEntity
  8
1
  6
solid
 62
     7
100
AcDbCircle
 10
1.574209303863222
 20
3.267556728473718
 30
0.0
 40
0.8230360716794844
100
AcDbArc
 50
331.9260439743375
 51
371.6262467881078
  0
ARC
  5
37
330
A
100
AcDbEntity
  8
1
  6
solid
 62
     7
100
AcDbCircle
 10
1.852264949718149
 20
3.11854466565258
 30
0.0
 40
0.5075698429543261
100
AcDbArc
 50
293.6098526752335
 51
331.996424134643
  0
ARC
  5
38
330
A
100
AcDbEntity
  8
1
  6
solid
 62
     7
100
AcDbCircle
 10
1.383010649718684
 20
5.23413090943133
 30
0.0
 40
2.666864012404068
100
AcDbArc
 50
276.8709931882914
 51
284.6067642597125
  0
ARC
  5
39
330
A
100
AcDbEntity
  8
1
  6
solid
 62
     7
100
AcDbCircle
 10
1.911909050989258
 20
1.541043258297253
 30
0.0
 40
1.066231760031453
100
AcDbArc
 50
101.3507589476952
 51
174.8535974876632
  0
LINE
  5
3A
330
A
100
AcDbEntity
  8
1
  6
solid
 62
     7
100
AcDbLine
 10
3.710757732381786
 20
4.9885196686
 30
0.0
 11
3.176399482725473
 21
4.9885196686
 31
0.0
  0
LINE
  5
3B
330
A
100
AcDbEntity
  8
1
  6
solid
 62
     7
100
AcDbLine
 10
1.339366410961392
 20
1.201366484942012
 30
0.0
 11
1.083141959979629
 21
1.201366484942012
 31
0.0
  0
ARC
  5
3C
330
A
100
AcDbEntity
  8
1
  6
solid
 62
     7
100
AcDbCircle
 10
0.9049403229847492
 20
1.074343890600254
 30
0.0
 40
0.2188391131232195
100
AcDbArc
 50
249.0747268497719
 51
395.4813750871342
  0
LINE
  5
3D
330
A
100
AcDbEntity
  8
1
  6
solid
 62
     7
100
AcDbLine
 10
0.8267819245673601
 20
0.8699378677222815
 30
0.0
 11
0.8267819245673601
 21
0.7352432062571032
 31
0.0
  0
LINE
  5
3E
330
A
100
AcDbEntity
  8
1
  6
solid
 62
     7
100
AcDbLine
 10
0.8267819245673601
 20
0.735243206242012
 30
0.0
 11
0.6882607102158404
 21
0.735243206242012
 31
0.0
  0
LINE
  5
3F
330
A
100
AcDbEntity
  8
1
  6
solid
 62
     7
100
AcDbLine
 10
4.200148600649146
 20
4.553200906221112
 30
0.0
 11
4.200148600649146
 21
4.341915994211522
 31
0.0
  0
LINE
  5
40
330
A
100
AcDbEntity
  8
1
  6
solid
 62
     7
100
AcDbLine
 10
4.200148600649146
 20
4.341915994187616
 30
0.0
 11
4.01059722913952
 21
4.341915994187616
 31
0.0
  0
ARC
  5
41
330
A
100
AcDbEntity
  8
1
  6
solid
 62
     7
100
AcDbCircle
 10
3.922378387097743
 20
4.263172124186225
 30
0.0
 40
0.1182502959347239
100
AcDbArc
 50
277.2306030586577
 51
401.7519248045692
  0
ARC
  5
42
330
A
100
AcDbEntity
  8
1
  6
solid
 62
     7
100
AcDbCircle
 10
3.489149948484196
 20
3.899714196560352
 30
0.0
 40
0.511266220263612
100
AcDbArc
 50
266.1629923433919
 51
388.7800148258196
  0
ARC
  5
43
330
A
100
AcDbEntity
  8
1
  6
solid
 62
     7
100
AcDbCircle
 10
3.400980736261649
 20
3.32882458813215
 30
0.0
 40
0.0812660873593299
100
AcDbArc
 50
265.7344075194201
 51
408.3987374347023
  0
ARC
  5
44
330
A
100
AcDbEntity
  8
1
  6
solid
 62
     7
100
AcDbCircle
 10
3.244586516004424
 20
3.18560261444587
 30
0.0
 40
0.1627005658343663
100
AcDbArc
 50
228.378399857031
 51
382.4688167997393
  0
ARC
  5
45
330
A
100
AcDbEntity
  8
1
  6
solid
 62
     7
100
AcDbCircle
 10
3.041617423101806
 20
3.126164936844271
 30
0.0
 40
0.1134628993711704
100
AcDbArc
 50
237.9110774939882
 51
326.7634260607385
  0
ARC
  5
46
330
A
100
AcDbEntity
  8
1
  6
solid
 62
     7
100
AcDbCircle
 10
2.914832080894757
 20
3.051507954447708
 30
0.0
 40
0.0698899841233421
100
AcDbArc
 50
229.8311807023231
 51
342.1082617618361
  0
ARC
  5
47
330
A
100
AcDbEntity
  8
1
  6
solid
 62
     7
100
AcDbCircle
 10
2.063600172130581
 20
2.83223796611573
 30
0.0
 40
0.8230360716794844
100
AcDbArc
 50
331.9260439743375
 51
371.6262467881078
  0
ARC
  5
48
330
A
100
AcDbEntity
  8
1
  6
solid
 62
     7
100
AcDbCircle
 10
2.401299919256619
 20
1.105724495939264
 30
0.0
 40
1.066231760031453
100
AcDbArc
 50
101.3507589476952
 51
174.8535974876632
  0
ARC
  5
49
330
A
100
AcDbEntity
  8
1
  6
solid
 62
     7
100
AcDbCircle
 10
2.341655817985508
 20
2.683225903294592
 30
0.0
 40
0.5075698429543261
100
AcDbArc
 50
293.6098526752335
 51
331.996424134643
  0
ARC
  5
4A
330
A
100
AcDbEntity
  8
1
  6
solid
 62
     7
100
AcDbCircle
 10
1.872401517986044
 20
4.798812147073342
 30
0.0
 40
2.666864012404068
100
AcDbArc
 50
276.8709931882914
 51
284.6067642597125
  0
LINE
  5
4B
330
A
100
AcDbEntity
  8
1
  6
solid
 62
     7
100
AcDbLine
 10
3.710757732391356
 20
4.9885196685791
 30
0.0
 11
4.200148582458496
 21
4.553200721740721
 31
0.0
  0
LINE
  5
4C
330
A
100
AcDbEntity
  8
1
  6
solid
 62
     7
100
AcDbLine
 10
3.710757732391356
 20
4.77723455429077
 30
0.0
 11
4.200148582458496
 21
4.341916084289549
 31
0.0
  0
LINE
  5
4D
330
A
100
AcDbEntity
  8
1
  6
solid
 62
     7
100
AcDbLine
 10
3.521206378936772
 20
4.777234554290767
 30
0.0
 11
4.010597229003906
 21
4.341915607452391
 31
0.0
  0
LINE
  5
4E
330
A
100
AcDbEntity
  8
1
  6
solid
 62
     7
100
AcDbLine
 10
3.447870969772337
 20
4.581181049346922
 30
0.0
 11
3.937261819839477
 21
4.145862102508544
 31
0.0
  0
LINE
  5
4F
330
A
100
AcDbEntity
  8
1
  6
solid
 62
     7
100
AcDbLine
 10
2.965656517703738
 20
3.824814384302742
 30
0.0
 11
3.454936742782591
 21
3.389594078063963
 31
0.0
  0
LINE
  5
50
330
A
100
AcDbEntity
  8
1
  6
solid
 62
     7
100
AcDbLine
 10
2.905545234680174
 20
3.68310236930847
 30
0.0
 11
3.394936084747314
 21
3.24778366088867
 31
0.0
  0
LINE
  5
51
330
A
100
AcDbEntity
  8
1
  6
solid
 62
     7
100
AcDbLine
 10
2.647153018360579
 20
3.499273259842524
 30
0.0
 11
3.136519432067871
 21
3.063976287841795
 31
0.0
  0
LINE
  5
52
330
A
100
AcDbEntity
  8
1
  6
solid
 62
     7
100
AcDbLine
 10
2.491951582856438
 20
3.465354841481163
 30
0.0
 11
2.981342077255249
 21
3.030036449432373
 31
0.0
  0
LINE
  5
53
330
A
100
AcDbEntity
  8
1
  6
solid
 62
     7
100
AcDbLine
 10
2.380356487298579
 20
3.433422808495667
 30
0.0
 11
2.869750022888183
 21
2.998101711273193
 31
0.0
  0
LINE
  5
54
330
A
100
AcDbEntity
  8
1
  6
solid
 62
     7
100
AcDbLine
 10
0.8499755263328552
 20
1.636685252189636
 30
0.0
 11
1.339366436004638
 21
1.201366543769835
 31
0.0
  0
LINE
  5
55
330
A
100
AcDbEntity
  8
1
  6
solid
 62
     7
100
AcDbLine
 10
0.593751072883606
 20
1.636685252189636
 30
0.0
 11
1.083141922950743
 21
1.201366543769835
 31
0.0
  0
LINE
  5
56
330
A
100
AcDbEntity
  8
1
  6
solid
 62
     7
100
AcDbLine
 10
0.3373910486698151
 20
1.305256605148314
 30
0.0
 11
0.8267819285392761
 21
0.8699378967285156
 31
0.0
  0
LINE
  5
57
330
A
100
AcDbEntity
  8
1
  6
solid
 62
     7
100
AcDbLine
 10
0.3373910486698151
 20
1.170561909675597
 30
0.0
 11
0.8267819285392761
 21
0.7352432012557985
 31
0.0
  0
LINE
  5
58
330
A
100
AcDbEntity
  8
1
  6
solid
 62
     7
100
AcDbLine
 10
0.198869839310646
 20
1.170561909675597
 30
0.0
 11
0.6882607340812683
 21
0.7352432012557985
 31
0.0
  0
LINE
  5
59
330
A
100
AcDbEntity
  8
1
  6
solid
 62
     7
100
AcDbLine
 10
0.4278837892283295
 20
0.4971165047302857
 30
0.0
 11
0.4031744869027481
 21
0.4971165047302857
 31
0.0
  0
LINE
  5
5A
330
A
100
AcDbEntity
  8
1
  6
solid
 62
     7
100
AcDbLine
 10
0.4031744869027481
 20
0.4971165047302857
 30
0.0
 11
0.4031744869027481
 21
0.5859727838000533
 31
0.0
  0
SPLINE
  5
5B
330
A
100
AcDbEntity
  8
1
  6
solid
 62
     7
100
AcDbSpline
210
0.0
220
0.0
230
1.0
 70
     8
 71
     2
 72
     6
 73
     3
 74
     0
 42
0.0000000001
 43
0.0000000001
 40
0.0
 40
0.0
 40
0.0
 40
1.0
 40
1.0
 40
1.0
 10
0.4031744869027481
 20
0.5859727838000533
 30
0.0
 10
0.3901823938794923
 20
0.5718099931023787
 30
0.0
 10
0.3726512310887946
 20
0.5654304582186578
 30
0.0
  0
LINE
  5
5C
330
A
100
AcDbEntity
  8
1
  6
solid
 62
     7
100
AcDbLine
 10
0.3726512310887946
 20
0.5654304582186578
 30
0.0
 11
0.3726512310887946
 21
0.5901397605442391
 31
0.0
  0
SPLINE
  5
5D
330
A
100
AcDbEntity
  8
1
  6
solid
 62
     7
100
AcDbSpline
210
0.0
220
0.0
230
1.0
 70
     8
 71
     2
 72
     7
 73
     4
 74
     0
 42
0.0000000001
 43
0.0000000001
 40
0.0
 40
0.0
 40
0.0
 40
1.0
 40
2.0
 40
2.0
 40
2.0
 10
0.3726512310887946
 20
0.5901397605442391
 30
0.0
 10
0.3818335566701899
 20
0.5931806907767974
 30
0.0
 10
0.4038591380655389
 20
0.6105332489163322
 30
0.0
 10
0.4080558822515853
 20
0.6221165047302857
 30
0.0
  0
LINE
  5
5E
330
A
100
AcDbEntity
  8
1
  6
solid
 62
     7
100
AcDbLine
 10
0.4080558822515853
 20
0.6221165047302857
 30
0.0
 11
0.4278837892283295
 21
0.6221165047302857
 31
0.0
  0
LINE
  5
5F
330
A
100
AcDbEntity
  8
1
  6
solid
 62
     7
100
AcDbLine
 10
0.4278837892283295
 20
0.4971165047302857
 30
0.0
 11
0.4278837892283295
 21
0.6221165047302857
 31
0.0
  0
LINE
  5
60
330
A
100
AcDbEntity
  8
1
  6
solid
 62
     7
100
AcDbLine
 10
0.4493537892283296
 20
0.5334537140326114
 30
0.0
 11
0.4740630915539109
 21
0.5363606907767973
 31
0.0
  0
SPLINE
  5
61
330
A
100
AcDbEntity
  8
1
  6
solid
 62
     7
100
AcDbSpline
210
0.0
220
0.0
230
1.0
 70
     8
 71
     2
 72
     7
 73
     4
 74
     0
 42
0.0000000001
 43
0.0000000001
 40
0.0
 40
0.0
 40
0.0
 40
1.0
 40
2.0
 40
2.0
 40
2.0
 10
0.4740630915539109
 20
0.5363606907767973
 30
0.0
 10
0.4747477427167017
 20
0.5268411558930765
 30
0.0
 10
0.4842970450422829
 20
0.5174653419395882
 30
0.0
 10
0.4905872776004225
 20
0.5174653419395882
 30
0.0
  0
SPLINE
  5
62
330
A
100
AcDbEntity
  8
1
  6
solid
 62
     7
100
AcDbSpline
210
0.0
220
0.0
230
1.0
 70
     8
 71
     2
 72
     7
 73
     4
 74
     0
 42
0.0000000001
 43
0.0000000001
 40
0.0
 40
0.0
 40
0.0
 40
1.0
 40
2.0
 40
2.0
 40
2.0
 10
0.4905872776004225
 20
0.5174653419395882
 30
0.0
 10
0.4976909985306551
 20
0.5174653419395882
 30
0.0
 10
0.5074933241120504
 20
0.5271090628698207
 30
0.0
 10
0.5074933241120504
 20
0.5357406907767973
 30
0.0
  0
SPLINE
  5
63
330
A
100
AcDbEntity
  8
1
  6
solid
 62
     7
100
AcDbSpline
210
0.0
220
0.0
230
1.0
 70
     8
 71
     2
 72
     7
 73
     4
 74
     0
 42
0.0000000001
 43
0.0000000001
 40
0.0
 40
0.0
 40
0.0
 40
1.0
 40
2.0
 40
2.0
 40
2.0
 10
0.5074933241120504
 20
0.5357406907767973
 30
0.0
 10
0.5074933241120504
 20
0.5440597605442392
 30
0.0
 10
0.4988021613213527
 20
0.5538025512419136
 30
0.0
 10
0.4922193706236783
 20
0.5538025512419136
 30
0.0
  0
SPLINE
  5
64
330
A
100
AcDbEntity
  8
1
  6
solid
 62
     7
100
AcDbSpline
210
0.0
220
0.0
230
1.0
 70
     8
 71
     2
 72
     6
 73
     3
 74
     0
 42
0.0000000001
 43
0.0000000001
 40
0.0
 40
0.0
 40
0.0
 40
1.0
 40
1.0
 40
1.0
 10
0.4922193706236783
 20
0.5538025512419136
 30
0.0
 10
0.4880226264376318
 20
0.5538025512419136
 30
0.0
 10
0.482784021786469
 20
0.551624876823309
 30
0.0
  0
LINE
  5
65
330
A
100
AcDbEntity
  8
1
  6
solid
 62
     7
100
AcDbLine
 10
0.482784021786469
 20
0.551624876823309
 30
0.0
 11
0.4847286729492597
 21
0.5726979000791231
 31
0.0
  0
SPLINE
  5
66
330
A
100
AcDbEntity
  8
1
  6
solid
 62
     7
100
AcDbSpline
210
0.0
220
0.0
230
1.0
 70
     8
 71
     2
 72
     7
 73
     4
 74
     0
 42
0.0000000001
 43
0.0000000001
 40
0.0
 40
0.0
 40
0.0
 40
1.0
 40
2.0
 40
2.0
 40
2.0
 10
0.4847286729492597
 20
0.5726979000791231
 30
0.0
 10
0.4930626264376319
 20
0.572018365195402
 30
0.0
 10
0.5016793706236783
 20
0.5804565047302857
 30
0.0
 10
0.5016793706236783
 20
0.5874560396140068
 30
0.0
  0
SPLINE
  5
67
330
A
100
AcDbEntity
  8
1
  6
solid
 62
     7
100
AcDbSpline
210
0.0
220
0.0
230
1.0
 70
     8
 71
     2
 72
     7
 73
     4
 74
     0
 42
0.0000000001
 43
0.0000000001
 40
0.0
 40
0.0
 40
0.0
 40
1.0
 40
2.0
 40
2.0
 40
2.0
 10
0.5016793706236783
 20
0.5874560396140068
 30
0.0
 10
0.5016793706236783
 20
0.5932699931023789
 30
0.0
 10
0.4950519287632134
 20
0.6003141791488904
 30
0.0
 10
0.4901407659725157
 20
0.6003141791488904
 30
0.0
  0
SPLINE
  5
68
330
A
100
AcDbEntity
  8
1
  6
solid
 62
     7
100
AcDbSpline
210
0.0
220
0.0
230
1.0
 70
     8
 71
     2
 72
     7
 73
     4
 74
     0
 42
0.0000000001
 43
0.0000000001
 40
0.0
 40
0.0
 40
0.0
 40
1.0
 40
2.0
 40
2.0
 40
2.0
 10
0.4901407659725157
 20
0.6003141791488904
 30
0.0
 10
0.4847584403911202
 20
0.6003141791488904
 30
0.0
 10
0.4774909985306551
 20
0.591965341939588
 30
0.0
 10
0.4769700682980969
 20
0.5843258070558673
 30
0.0
  0
LINE
  5
69
330
A
100
AcDbEntity
  8
1
  6
solid
 62
     7
100
AcDbLine
 10
0.4769700682980969
 20
0.5843258070558673
 30
0.0
 11
0.4522607659725156
 21
0.5876792954279602
 31
0.0
  0
SPLINE
  5
6A
330
A
100
AcDbEntity
  8
1
  6
solid
 62
     7
100
AcDbSpline
210
0.0
220
0.0
230
1.0
 70
     8
 71
     2
 72
     8
 73
     5
 74
     0
 42
0.0000000001
 43
0.0000000001
 40
0.0
 40
0.0
 40
0.0
 40
1.0
 40
2.0
 40
3.0
 40
3.0
 40
3.0
 10
0.4522607659725156
 20
0.5876792954279602
 30
0.0
 10
0.4542351845771667
 20
0.5994709233349368
 30
0.0
 10
0.4632091380655388
 20
0.6137825512419136
 30
0.0
 10
0.4799068124841435
 20
0.6221165047302857
 30
0.0
 10
0.4895356496934459
 20
0.6221165047302857
 30
0.0
  0
SPLINE
  5
6B
330
A
100
AcDbEntity
  8
1
  6
solid
 62
     7
100
AcDbSpline
210
0.0
220
0.0
230
1.0
 70
     8
 71
     2
 72
     6
 73
     3
 74
     0
 42
0.0000000001
 43
0.0000000001
 40
0.0
 40
0.0
 40
0.0
 40
1.0
 40
1.0
 40
1.0
 10
0.4895356496934459
 20
0.6221165047302857
 30
0.0
 10
0.5068882078329806
 20
0.6221165047302857
 30
0.0
 10
0.5177421613213528
 20
0.6106820861256346
 30
0.0
  0
SPLINE
  5
6C
330
A
100
AcDbEntity
  8
1
  6
solid
 62
     7
100
AcDbSpline
210
0.0
220
0.0
230
1.0
 70
     8
 71
     2
 72
     6
 73
     3
 74
     0
 42
0.0000000001
 43
0.0000000001
 40
0.0
 40
0.0
 40
0.0
 40
1.0
 40
1.0
 40
1.0
 10
0.5177421613213528
 20
0.6106820861256346
 30
0.0
 10
0.5263886729492599
 20
0.6011030163581928
 30
0.0
 10
0.5263886729492599
 20
0.5894602256605183
 30
0.0
  0
SPLINE
  5
6D
330
A
100
AcDbEntity
  8
1
  6
solid
 62
     7
100
AcDbSpline
210
0.0
220
0.0
230
1.0
 70
     8
 71
     2
 72
     6
 73
     3
 74
     0
 42
0.0000000001
 43
0.0000000001
 40
0.0
 40
0.0
 40
0.0
 40
1.0
 40
1.0
 40
1.0
 10
0.5263886729492599
 20
0.5894602256605183
 30
0.0
 10
0.5263886729492599
 20
0.573084876823309
 30
0.0
 10
0.5077612310887946
 20
0.563118830311681
 30
0.0
  0
SPLINE
  5
6E
330
A
100
AcDbEntity
  8
1
  6
solid
 62
     7
100
AcDbSpline
210
0.0
220
0.0
230
1.0
 70
     8
 71
     2
 72
     7
 73
     4
 74
     0
 42
0.0000000001
 43
0.0000000001
 40
0.0
 40
0.0
 40
0.0
 40
1.0
 40
2.0
 40
2.0
 40
2.0
 10
0.5077612310887946
 20
0.563118830311681
 30
0.0
 10
0.5185161148097249
 20
0.5611444117070299
 30
0.0
 10
0.532202626437632
 20
0.5453644117070299
 30
0.0
 10
0.532202626437632
 20
0.5340937140326113
 30
0.0
  0
SPLINE
  5
6F
330
A
100
AcDbEntity
  8
1
  6
solid
 62
     7
100
AcDbSpline
210
0.0
220
0.0
230
1.0
 70
     8
 71
     2
 72
     7
 73
     4
 74
     0
 42
0.0000000001
 43
0.0000000001
 40
0.0
 40
0.0
 40
0.0
 40
1.0
 40
2.0
 40
2.0
 40
2.0
 10
0.532202626437632
 20
0.5340937140326113
 30
0.0
 10
0.532202626437632
 20
0.518030923334937
 30
0.0
 10
0.507969603181818
 20
0.4956630163581928
 30
0.0
 10
0.4902449520190272
 20
0.4956630163581928
 30
0.0
  0
SPLINE
  5
70
330
A
100
AcDbEntity
  8
1
  6
solid
 62
     7
100
AcDbSpline
210
0.0
220
0.0
230
1.0
 70
     8
 71
     2
 72
     7
 73
     4
 74
     0
 42
0.0000000001
 43
0.0000000001
 40
0.0
 40
0.0
 40
0.0
 40
1.0
 40
2.0
 40
2.0
 40
2.0
 10
0.4902449520190272
 20
0.4956630163581928
 30
0.0
 10
0.4731454171353063
 20
0.4956630163581928
 30
0.0
 10
0.451030533414376
 20
0.5163690628698207
 30
0.0
 10
0.4493537892283296
 20
0.5334537140326114
 30
0.0
  0
LINE
  5
71
330
A
100
AcDbEntity
  8
1
  6
solid
 62
     7
100
AcDbLine
 10
0.5528442543446088
 20
0.4971165047302857
 30
0.0
 11
0.5819289055073993
 21
0.6221165047302857
 31
0.0
  0
LINE
  5
72
330
A
100
AcDbEntity
  8
1
  6
solid
 62
     7
100
AcDbLine
 10
0.5819289055073993
 20
0.6221165047302857
 30
0.0
 11
0.6016377427167016
 21
0.6221165047302857
 31
0.0
  0
LINE
  5
73
330
A
100
AcDbEntity
  8
1
  6
solid
 62
     7
100
AcDbLine
 10
0.6016377427167016
 20
0.6221165047302857
 30
0.0
 11
0.5725679752748412
 21
0.4971165047302857
 31
0.0
  0
LINE
  5
74
330
A
100
AcDbEntity
  8
1
  6
solid
 62
     7
100
AcDbLine
 10
0.5528442543446088
 20
0.4971165047302857
 30
0.0
 11
0.5725679752748412
 21
0.4971165047302857
 31
0.0
  0
LINE
  5
75
330
A
100
AcDbEntity
  8
1
  6
solid
 62
     7
100
AcDbLine
 10
0.6783403008562364
 20
0.4971165047302857
 30
0.0
 11
0.6536309985306552
 21
0.4971165047302857
 31
0.0
  0
LINE
  5
76
330
A
100
AcDbEntity
  8
1
  6
solid
 62
     7
100
AcDbLine
 10
0.6536309985306552
 20
0.4971165047302857
 30
0.0
 11
0.6536309985306552
 21
0.5859727838000533
 31
0.0
  0
SPLINE
  5
77
330
A
100
AcDbEntity
  8
1
  6
solid
 62
     7
100
AcDbSpline
210
0.0
220
0.0
230
1.0
 70
     8
 71
     2
 72
     6
 73
     3
 74
     0
 42
0.0000000001
 43
0.0000000001
 40
0.0
 40
0.0
 40
0.0
 40
1.0
 40
1.0
 40
1.0
 10
0.6536309985306552
 20
0.5859727838000533
 30
0.0
 10
0.6406389055073994
 20
0.5718099931023787
 30
0.0
 10
0.6231077427167016
 20
0.5654304582186578
 30
0.0
  0
LINE
  5
78
330
A
100
AcDbEntity
  8
1
  6
solid
 62
     7
100
AcDbLine
 10
0.6231077427167016
 20
0.5654304582186578
 30
0.0
 11
0.6231077427167016
 21
0.5901397605442391
 31
0.0
  0
SPLINE
  5
79
330
A
100
AcDbEntity
  8
1
  6
solid
 62
     7
100
AcDbSpline
210
0.0
220
0.0
230
1.0
 70
     8
 71
     2
 72
     7
 73
     4
 74
     0
 42
0.0000000001
 43
0.0000000001
 40
0.0
 40
0.0
 40
0.0
 40
1.0
 40
2.0
 40
2.0
 40
2.0
 10
0.6231077427167016
 20
0.5901397605442391
 30
0.0
 10
0.6322900682980969
 20
0.5931806907767974
 30
0.0
 10
0.6543156496934457
 20
0.6105332489163322
 30
0.0
 10
0.6585123938794922
 20
0.6221165047302857
 30
0.0
  0
LINE
  5
7A
330
A
100
AcDbEntity
  8
1
  6
solid
 62
     7
100
AcDbLine
 10
0.6585123938794922
 20
0.6221165047302857
 30
0.0
 11
0.6783403008562364
 21
0.6221165047302857
 31
0.0
  0
LINE
  5
7B
330
A
100
AcDbEntity
  8
1
  6
solid
 62
     7
100
AcDbLine
 10
0.6783403008562364
 20
0.4971165047302857
 30
0.0
 11
0.6783403008562364
 21
0.6221165047302857
 31
0.0
  0
LINE
  5
7C
330
A
100
AcDbEntity
  8
1
  6
solid
 62
     7
100
AcDbLine
 10
0.7797521613213529
 20
0.5880216210093554
 30
0.0
 11
0.7550428589957713
 21
0.5857792954279601
 31
0.0
  0
SPLINE
  5
7D
330
A
100
AcDbEntity
  8
1
  6
solid
 62
     7
100
AcDbSpline
210
0.0
220
0.0
230
1.0
 70
     8
 71
     2
 72
     7
 73
     4
 74
     0
 42
0.0000000001
 43
0.0000000001
 40
0.0
 40
0.0
 40
0.0
 40
1.0
 40
2.0
 40
2.0
 40
2.0
 10
0.7550428589957713
 20
0.5857792954279601
 30
0.0
 10
0.7539912310887945
 20
0.5931658070558671
 30
0.0
 10
0.7469023938794922
 20
0.6003141791488904
 30
0.0
 10
0.7412372776004225
 20
0.6003141791488904
 30
0.0
  0
SPLINE
  5
7E
330
A
100
AcDbEntity
  8
1
  6
solid
 62
     7
100
AcDbSpline
210
0.0
220
0.0
230
1.0
 70
     8
 71
     2
 72
     7
 73
     4
 74
     0
 42
0.0000000001
 43
0.0000000001
 40
0.0
 40
0.0
 40
0.0
 40
1.0
 40
2.0
 40
2.0
 40
2.0
 10
0.7412372776004225
 20
0.6003141791488904
 30
0.0
 10
0.733880533414376
 20
0.6003141791488904
 30
0.0
 10
0.7236614636469341
 20
0.5858090628698207
 30
0.0
 10
0.7222823938794924
 20
0.5632230163581928
 30
0.0
  0
SPLINE
  5
7F
330
A
100
AcDbEntity
  8
1
  6
solid
 62
     7
100
AcDbSpline
210
0.0
220
0.0
230
1.0
 70
     8
 71
     2
 72
     6
 73
     3
 74
     0
 42
0.0000000001
 43
0.0000000001
 40
0.0
 40
0.0
 40
0.0
 40
1.0
 40
1.0
 40
1.0
 10
0.7222823938794924
 20
0.5632230163581928
 30
0.0
 10
0.7317870450422829
 20
0.5741513884512159
 30
0.0
 10
0.7452256496934459
 20
0.5741513884512159
 30
0.0
  0
SPLINE
  5
80
330
A
100
AcDbEntity
  8
1
  6
solid
 62
     7
100
AcDbSpline
210
0.0
220
0.0
230
1.0
 70
     8
 71
     2
 72
     7
 73
     4
 74
     0
 42
0.0000000001
 43
0.0000000001
 40
0.0
 40
0.0
 40
0.0
 40
1.0
 40
2.0
 40
2.0
 40
2.0
 10
0.7452256496934459
 20
0.5741513884512159
 30
0.0
 10
0.7602963473678645
 20
0.5741513884512159
 30
0.0
 10
0.7826591380655388
 20
0.5525276675209834
 30
0.0
 10
0.7826591380655388
 20
0.5353537140326114
 30
0.0
  0
SPLINE
  5
81
330
A
100
AcDbEntity
  8
1
  6
solid
 62
     7
100
AcDbSpline
210
0.0
220
0.0
230
1.0
 70
     8
 71
     2
 72
     7
 73
     4
 74
     0
 42
0.0000000001
 43
0.0000000001
 40
0.0
 40
0.0
 40
0.0
 40
1.0
 40
2.0
 40
2.0
 40
2.0
 10
0.7826591380655388
 20
0.5353537140326114
 30
0.0
 10
0.7826591380655388
 20
0.5174951093814486
 30
0.0
 10
0.7599986729492596
 20
0.4956630163581928
 30
0.0
 10
0.7425121613213527
 20
0.4956630163581928
 30
0.0
  0
SPLINE
  5
82
330
A
100
AcDbEntity
  8
1
  6
solid
 62
     7
100
AcDbSpline
210
0.0
220
0.0
230
1.0
 70
     8
 71
     2
 72
     7
 73
     4
 74
     0
 42
0.0000000001
 43
0.0000000001
 40
0.0
 40
0.0
 40
0.0
 40
1.0
 40
2.0
 40
2.0
 40
2.0
 10
0.7425121613213527
 20
0.4956630163581928
 30
0.0
 10
0.7236912310887945
 20
0.4956630163581928
 30
0.0
 10
0.6998103008562364
 20
0.5247774349628438
 30
0.0
 10
0.6998103008562364
 20
0.5575579000791229
 30
0.0
  0
SPLINE
  5
83
330
A
100
AcDbEntity
  8
1
  6
solid
 62
     7
100
AcDbSpline
210
0.0
220
0.0
230
1.0
 70
     8
 71
     2
 72
     7
 73
     4
 74
     0
 42
0.0000000001
 43
0.0000000001
 40
0.0
 40
0.0
 40
0.0
 40
1.0
 40
2.0
 40
2.0
 40
2.0
 10
0.6998103008562364
 20
0.5575579000791229
 30
0.0
 10
0.6998103008562364
 20
0.5918909233349369
 30
0.0
 10
0.724727975274841
 20
0.6221165047302857
 30
0.0
 10
0.7443377427167015
 20
0.6221165047302857
 30
0.0
  0
SPLINE
  5
84
330
A
100
AcDbEntity
  8
1
  6
solid
 62
     7
100
AcDbSpline
210
0.0
220
0.0
230
1.0
 70
     8
 71
     2
 72
     7
 73
     4
 74
     0
 42
0.0000000001
 43
0.0000000001
 40
0.0
 40
0.0
 40
0.0
 40
1.0
 40
2.0
 40
2.0
 40
2.0
 10
0.7443377427167015
 20
0.6221165047302857
 30
0.0
 10
0.7585303008562364
 20
0.6221165047302857
 30
0.0
 10
0.7770982078329806
 20
0.6047937140326113
 30
0.0
 10
0.7797521613213529
 20
0.5880216210093554
 30
0.0
  0
SPLINE
  5
85
330
A
100
AcDbEntity
  8
1
  6
solid
 62
     7
100
AcDbSpline
210
0.0
220
0.0
230
1.0
 70
     8
 71
     2
 72
     7
 73
     4
 74
     0
 42
0.0000000001
 43
0.0000000001
 40
0.0
 40
0.0
 40
0.0
 40
1.0
 40
2.0
 40
2.0
 40
2.0
 10
0.7245196031818179
 20
0.535651388451216
 30
0.0
 10
0.7245196031818179
 20
0.526811388451216
 30
0.0
 10
0.7351256496934459
 20
0.5174653419395882
 30
0.0
 10
0.7421847194608877
 20
0.5174653419395882
 30
0.0
  0
SPLINE
  5
86
330
A
100
AcDbEntity
  8
1
  6
solid
 62
     7
100
AcDbSpline
210
0.0
220
0.0
230
1.0
 70
     8
 71
     2
 72
     7
 73
     4
 74
     0
 42
0.0000000001
 43
0.0000000001
 40
0.0
 40
0.0
 40
0.0
 40
1.0
 40
2.0
 40
2.0
 40
2.0
 10
0.7421847194608877
 20
0.5174653419395882
 30
0.0
 10
0.7485791380655388
 20
0.5174653419395882
 30
0.0
 10
0.7579498357399574
 20
0.5251644117070299
 30
0.0
 10
0.7579498357399574
 20
0.5340937140326113
 30
0.0
  0
SPLINE
  5
87
330
A
100
AcDbEntity
  8
1
  6
solid
 62
     7
100
AcDbSpline
210
0.0
220
0.0
230
1.0
 70
     8
 71
     2
 72
     7
 73
     4
 74
     0
 42
0.0000000001
 43
0.0000000001
 40
0.0
 40
0.0
 40
0.0
 40
1.0
 40
2.0
 40
2.0
 40
2.0
 10
0.7579498357399574
 20
0.5340937140326113
 30
0.0
 10
0.7579498357399574
 20
0.5436876675209836
 30
0.0
 10
0.7481326264376318
 20
0.5523490628698206
 30
0.0
 10
0.7408949520190271
 20
0.5523490628698206
 30
0.0
  0
SPLINE
  5
88
330
A
100
AcDbEntity
  8
1
  6
solid
 62
     7
100
AcDbSpline
210
0.0
220
0.0
230
1.0
 70
     8
 71
     2
 72
     7
 73
     4
 74
     0
 42
0.0000000001
 43
0.0000000001
 40
0.0
 40
0.0
 40
0.0
 40
1.0
 40
2.0
 40
2.0
 40
2.0
 10
0.7408949520190271
 20
0.5523490628698206
 30
0.0
 10
0.7338358822515853
 20
0.5523490628698206
 30
0.0
 10
0.7245196031818179
 20
0.5439406907767973
 30
0.0
 10
0.7245196031818179
 20
0.535651388451216
 30
0.0
  0
LINE
  5
89
330
A
100
AcDbEntity
  8
1
  6
solid
 62
     7
100
AcDbLine
 10
0.8275289055073992
 20
0.4971165047302857
 30
0.0
 11
0.8706572776004223
 21
0.5628062721721462
 31
0.0
  0
LINE
  5
8A
330
A
100
AcDbEntity
  8
1
  6
solid
 62
     7
100
AcDbLine
 10
0.8706572776004223
 20
0.5628062721721462
 30
0.0
 11
0.8318893706236782
 21
0.6221165047302857
 31
0.0
  0
LINE
  5
8B
330
A
100
AcDbEntity
  8
1
  6
solid
 62
     7
100
AcDbLine
 10
0.8318893706236782
 20
0.6221165047302857
 30
0.0
 11
0.8609442543446085
 21
0.6221165047302857
 31
0.0
  0
LINE
  5
8C
330
A
100
AcDbEntity
  8
1
  6
solid
 62
     7
100
AcDbLine
 10
0.8609442543446085
 20
0.6221165047302857
 30
0.0
 11
0.8851921613213525
 21
0.5849509233349368
 31
0.0
  0
LINE
  5
8D
330
A
100
AcDbEntity
  8
1
  6
solid
 62
     7
100
AcDbLine
 10
0.8851921613213525
 20
0.5849509233349368
 30
0.0
 11
0.9089242543446085
 21
0.6221165047302857
 31
0.0
  0
LINE
  5
8E
330
A
100
AcDbEntity
  8
1
  6
solid
 62
     7
100
AcDbLine
 10
0.9089242543446085
 20
0.6221165047302857
 30
0.0
 11
0.9379940217864689
 21
0.6221165047302857
 31
0.0
  0
LINE
  5
8F
330
A
100
AcDbEntity
  8
1
  6
solid
 62
     7
100
AcDbLine
 10
0.9379940217864689
 20
0.6221165047302857
 30
0.0
 11
0.899727045042283
 21
0.5628062721721462
 31
0.0
  0
LINE
  5
90
330
A
100
AcDbEntity
  8
1
  6
solid
 62
     7
100
AcDbLine
 10
0.899727045042283
 20
0.5628062721721462
 30
0.0
 11
0.942354486902748
 21
0.4971165047302857
 31
0.0
  0
LINE
  5
91
330
A
100
AcDbEntity
  8
1
  6
solid
 62
     7
100
AcDbLine
 10
0.942354486902748
 20
0.4971165047302857
 30
0.0
 11
0.9132847194608876
 21
0.4971165047302857
 31
0.0
  0
LINE
  5
92
330
A
100
AcDbEntity
  8
1
  6
solid
 62
     7
100
AcDbLine
 10
0.9132847194608876
 20
0.4971165047302857
 30
0.0
 11
0.8851921613213525
 21
0.5401755744977276
 31
0.0
  0
LINE
  5
93
330
A
100
AcDbEntity
  8
1
  6
solid
 62
     7
100
AcDbLine
 10
0.8851921613213525
 20
0.5401755744977276
 30
0.0
 11
0.8565837892283294
 21
0.4971165047302857
 31
0.0
  0
LINE
  5
94
330
A
100
AcDbEntity
  8
1
  6
solid
 62
     7
100
AcDbLine
 10
0.8275289055073992
 20
0.4971165047302857
 30
0.0
 11
0.8565837892283294
 21
0.4971165047302857
 31
0.0
  0
LINE
  5
95
330
A
100
AcDbEntity
  8
1
  6
solid
 62
     7
100
AcDbLine
 10
0.9877251845771667
 20
0.5336174349628439
 30
0.0
 11
1.009527510158561
 21
0.5363606907767973
 31
0.0
  0
SPLINE
  5
96
330
A
100
AcDbEntity
  8
1
  6
solid
 62
     7
100
AcDbSpline
210
0.0
220
0.0
230
1.0
 70
     8
 71
     2
 72
     7
 73
     4
 74
     0
 42
0.0000000001
 43
0.0000000001
 40
0.0
 40
0.0
 40
0.0
 40
1.0
 40
2.0
 40
2.0
 40
2.0
 10
1.009527510158561
 20
0.5363606907767973
 30
0.0
 10
1.010241928763212
 20
0.5276397605442391
 30
0.0
 10
1.021259603181817
 20
0.5174653419395882
 30
0.0
 10
1.02783262643763
 20
0.5174653419395882
 30
0.0
  0
SPLINE
  5
97
330
A
100
AcDbEntity
  8
1
  6
solid
 62
     7
100
AcDbSpline
210
0.0
220
0.0
230
1.0
 70
     8
 71
     2
 72
     7
 73
     4
 74
     0
 42
0.0000000001
 43
0.0000000001
 40
0.0
 40
0.0
 40
0.0
 40
1.0
 40
2.0
 40
2.0
 40
2.0
 10
1.02783262643763
 20
0.5174653419395882
 30
0.0
 10
1.036062393879491
 20
0.5174653419395882
 30
0.0
 10
1.047318207832979
 20
0.5270792954279601
 30
0.0
 10
1.047318207832979
 20
0.5372239465907508
 30
0.0
  0
SPLINE
  5
98
330
A
100
AcDbEntity
  8
1
  6
solid
 62
     7
100
AcDbSpline
210
0.0
220
0.0
230
1.0
 70
     8
 71
     2
 72
     7
 73
     4
 74
     0
 42
0.0000000001
 43
0.0000000001
 40
0.0
 40
0.0
 40
0.0
 40
1.0
 40
2.0
 40
2.0
 40
2.0
 10
1.047318207832979
 20
0.5372239465907508
 30
0.0
 10
1.047318207832979
 20
0.5469667372884253
 30
0.0
 10
1.037367045042282
 20
0.5567095279860998
 30
0.0
 10
1.029196812484143
 20
0.5567095279860998
 30
0.0
  0
SPLINE
  5
99
330
A
100
AcDbEntity
  8
1
  6
solid
 62
     7
100
AcDbSpline
210
0.0
220
0.0
230
1.0
 70
     8
 71
     2
 72
     6
 73
     3
 74
     0
 42
0.0000000001
 43
0.0000000001
 40
0.0
 40
0.0
 40
0.0
 40
1.0
 40
1.0
 40
1.0
 10
1.029196812484143
 20
0.5567095279860998
 30
0.0
 10
1.019746579926003
 20
0.5567095279860998
 30
0.0
 10
1.011635882251584
 20
0.5479885977535415
 30
0.0
  0
LINE
  5
9A
330
A
100
AcDbEntity
  8
1
  6
solid
 62
     7
100
AcDbLine
 10
1.011635882251584
 20
0.5479885977535415
 30
0.0
 11
0.9906321613213526
 21
0.5502458070558671
 31
0.0
  0
LINE
  5
9B
330
A
100
AcDbEntity
  8
1
  6
solid
 62
     7
100
AcDbLine
 10
0.9906321613213526
 20
0.5502458070558671
 30
0.0
 11
1.005167045042282
 21
0.6206630163581927
 31
0.0
  0
LINE
  5
9C
330
A
100
AcDbEntity
  8
1
  6
solid
 62
     7
100
AcDbLine
 10
1.005167045042282
 20
0.6206630163581927
 30
0.0
 11
1.066213556670188
 21
0.6206630163581927
 31
0.0
  0
LINE
  5
9D
330
A
100
AcDbEntity
  8
1
  6
solid
 62
     7
100
AcDbLine
 10
1.066213556670188
 20
0.6206630163581927
 30
0.0
 11
1.066213556670188
 21
0.5959537140326114
 31
0.0
  0
LINE
  5
9E
330
A
100
AcDbEntity
  8
1
  6
solid
 62
     7
100
AcDbLine
 10
1.066213556670188
 20
0.5959537140326114
 30
0.0
 11
1.024642858995771
 21
0.5959537140326114
 31
0.0
  0
LINE
  5
9F
330
A
100
AcDbEntity
  8
1
  6
solid
 62
     7
100
AcDbLine
 10
1.024642858995771
 20
0.5959537140326114
 30
0.0
 11
1.019865649693445
 21
0.573203946590751
 31
0.0
  0
SPLINE
  5
A0
330
A
100
AcDbEntity
  8
1
  6
solid
 62
     7
100
AcDbSpline
210
0.0
220
0.0
230
1.0
 70
     8
 71
     2
 72
     6
 73
     3
 74
     0
 42
0.0000000001
 43
0.0000000001
 40
0.0
 40
0.0
 40
0.0
 40
1.0
 40
1.0
 40
1.0
 10
1.019865649693445
 20
0.573203946590751
 30
0.0
 10
1.027386114809724
 20
0.5785118535674952
 30
0.0
 10
1.035129835739956
 20
0.5785118535674952
 30
0.0
  0
SPLINE
  5
A1
330
A
100
AcDbEntity
  8
1
  6
solid
 62
     7
100
AcDbSpline
210
0.0
220
0.0
230
1.0
 70
     8
 71
     2
 72
     7
 73
     4
 74
     0
 42
0.0000000001
 43
0.0000000001
 40
0.0
 40
0.0
 40
0.0
 40
1.0
 40
2.0
 40
2.0
 40
2.0
 10
1.035129835739956
 20
0.5785118535674952
 30
0.0
 10
1.050627045042282
 20
0.5785118535674952
 30
0.0
 10
1.072027510158561
 20
0.5558216210093554
 30
0.0
 10
1.072027510158561
 20
0.5380969698465649
 30
0.0
  0
SPLINE
  5
A2
330
A
100
AcDbEntity
  8
1
  6
solid
 62
     7
100
AcDbSpline
210
0.0
220
0.0
230
1.0
 70
     8
 71
     2
 72
     6
 73
     3
 74
     0
 42
0.0000000001
 43
0.0000000001
 40
0.0
 40
0.0
 40
0.0
 40
1.0
 40
1.0
 40
1.0
 10
1.072027510158561
 20
0.5380969698465649
 30
0.0
 10
1.072027510158561
 20
0.5233090628698207
 30
0.0
 10
1.062641928763212
 20
0.5111355744977275
 30
0.0
  0
SPLINE
  5
A3
330
A
100
AcDbEntity
  8
1
  6
solid
 62
     7
100
AcDbSpline
210
0.0
220
0.0
230
1.0
 70
     8
 71
     2
 72
     6
 73
     3
 74
     0
 42
0.0000000001
 43
0.0000000001
 40
0.0
 40
0.0
 40
0.0
 40
1.0
 40
1.0
 40
1.0
 10
1.062641928763212
 20
0.5111355744977275
 30
0.0
 10
1.050612161321351
 20
0.4956630163581928
 30
0.0
 10
1.028869370623678
 20
0.4956630163581928
 30
0.0
  0
SPLINE
  5
A4
330
A
100
AcDbEntity
  8
1
  6
solid
 62
     7
100
AcDbSpline
210
0.0
220
0.0
230
1.0
 70
     8
 71
     2
 72
     7
 73
     4
 74
     0
 42
0.0000000001
 43
0.0000000001
 40
0.0
 40
0.0
 40
0.0
 40
1.0
 40
2.0
 40
2.0
 40
2.0
 10
1.028869370623678
 20
0.4956630163581928
 30
0.0
 10
1.011487045042281
 20
0.4956630163581928
 30
0.0
 10
0.9896251845771665
 20
0.5161904582186577
 30
0.0
 10
0.9877251845771667
 20
0.5336174349628439
 30
0.0
  0
LINE
  5
A5
330
A
100
AcDbEntity
  8
1
  6
solid
 62
     7
100
AcDbLine
 10
1.09349751015856
 20
0.5305467372884252
 30
0.0
 11
1.09349751015856
 21
0.5523490628698206
 31
0.0
  0
LINE
  5
A6
330
A
100
AcDbEntity
  8
1
  6
solid
 62
     7
100
AcDbLine
 10
1.09349751015856
 20
0.5523490628698206
 30
0.0
 11
1.141462626437631
 21
0.5523490628698206
 31
0.0
  0
LINE
  5
A7
330
A
100
AcDbEntity
  8
1
  6
solid
 62
     7
100
AcDbLine
 10
1.141462626437631
 20
0.5523490628698206
 30
0.0
 11
1.141462626437631
 21
0.5305467372884252
 31
0.0
  0
LINE
  5
A8
330
A
100
AcDbEntity
  8
1
  6
solid
 62
     7
100
AcDbLine
 10
1.09349751015856
 20
0.5305467372884252
 30
0.0
 11
1.141462626437631
 21
0.5305467372884252
 31
0.0
  0
LINE
  5
A9
330
A
100
AcDbEntity
  8
1
  6
solid
 62
     7
100
AcDbLine
 10
1.16293262643763
 20
0.5334537140326114
 30
0.0
 11
1.187641928763212
 21
0.5363606907767973
 31
0.0
  0
SPLINE
  5
AA
330
A
100
AcDbEntity
  8
1
  6
solid
 62
     7
100
AcDbSpline
210
0.0
220
0.0
230
1.0
 70
     8
 71
     2
 72
     7
 73
     4
 74
     0
 42
0.0000000001
 43
0.0000000001
 40
0.0
 40
0.0
 40
0.0
 40
1.0
 40
2.0
 40
2.0
 40
2.0
 10
1.187641928763212
 20
0.5363606907767973
 30
0.0
 10
1.188326579926002
 20
0.5268411558930765
 30
0.0
 10
1.197875882251584
 20
0.5174653419395882
 30
0.0
 10
1.204166114809724
 20
0.5174653419395882
 30
0.0
  0
SPLINE
  5
AB
330
A
100
AcDbEntity
  8
1
  6
solid
 62
     7
100
AcDbSpline
210
0.0
220
0.0
230
1.0
 70
     8
 71
     2
 72
     7
 73
     4
 74
     0
 42
0.0000000001
 43
0.0000000001
 40
0.0
 40
0.0
 40
0.0
 40
1.0
 40
2.0
 40
2.0
 40
2.0
 10
1.204166114809724
 20
0.5174653419395882
 30
0.0
 10
1.211269835739956
 20
0.5174653419395882
 30
0.0
 10
1.221072161321351
 20
0.5271090628698207
 30
0.0
 10
1.221072161321351
 20
0.5357406907767973
 30
0.0
  0
SPLINE
  5
AC
330
A
100
AcDbEntity
  8
1
  6
solid
 62
     7
100
AcDbSpline
210
0.0
220
0.0
230
1.0
 70
     8
 71
     2
 72
     7
 73
     4
 74
     0
 42
0.0000000001
 43
0.0000000001
 40
0.0
 40
0.0
 40
0.0
 40
1.0
 40
2.0
 40
2.0
 40
2.0
 10
1.221072161321351
 20
0.5357406907767973
 30
0.0
 10
1.221072161321351
 20
0.5440597605442392
 30
0.0
 10
1.212380998530655
 20
0.5538025512419136
 30
0.0
 10
1.20579820783298
 20
0.5538025512419136
 30
0.0
  0
SPLINE
  5
AD
330
A
100
AcDbEntity
  8
1
  6
solid
 62
     7
100
AcDbSpline
210
0.0
220
0.0
230
1.0
 70
     8
 71
     2
 72
     6
 73
     3
 74
     0
 42
0.0000000001
 43
0.0000000001
 40
0.0
 40
0.0
 40
0.0
 40
1.0
 40
1.0
 40
1.0
 10
1.20579820783298
 20
0.5538025512419136
 30
0.0
 10
1.201601463646934
 20
0.5538025512419136
 30
0.0
 10
1.196362858995771
 20
0.551624876823309
 30
0.0
  0
LINE
  5
AE
330
A
100
AcDbEntity
  8
1
  6
solid
 62
     7
100
AcDbLine
 10
1.196362858995771
 20
0.551624876823309
 30
0.0
 11
1.198307510158562
 21
0.5726979000791231
 31
0.0
  0
SPLINE
  5
AF
330
A
100
AcDbEntity
  8
1
  6
solid
 62
     7
100
AcDbSpline
210
0.0
220
0.0
230
1.0
 70
     8
 71
     2
 72
     7
 73
     4
 74
     0
 42
0.0000000001
 43
0.0000000001
 40
0.0
 40
0.0
 40
0.0
 40
1.0
 40
2.0
 40
2.0
 40
2.0
 10
1.198307510158562
 20
0.5726979000791231
 30
0.0
 10
1.206641463646934
 20
0.572018365195402
 30
0.0
 10
1.21525820783298
 20
0.5804565047302857
 30
0.0
 10
1.21525820783298
 20
0.5874560396140068
 30
0.0
  0
SPLINE
  5
B0
330
A
100
AcDbEntity
  8
1
  6
solid
 62
     7
100
AcDbSpline
210
0.0
220
0.0
230
1.0
 70
     8
 71
     2
 72
     7
 73
     4
 74
     0
 42
0.0000000001
 43
0.0000000001
 40
0.0
 40
0.0
 40
0.0
 40
1.0
 40
2.0
 40
2.0
 40
2.0
 10
1.21525820783298
 20
0.5874560396140068
 30
0.0
 10
1.21525820783298
 20
0.5932699931023789
 30
0.0
 10
1.208630765972515
 20
0.6003141791488904
 30
0.0
 10
1.203719603181816
 20
0.6003141791488904
 30
0.0
  0
SPLINE
  5
B1
330
A
100
AcDbEntity
  8
1
  6
solid
 62
     7
100
AcDbSpline
210
0.0
220
0.0
230
1.0
 70
     8
 71
     2
 72
     7
 73
     4
 74
     0
 42
0.0000000001
 43
0.0000000001
 40
0.0
 40
0.0
 40
0.0
 40
1.0
 40
2.0
 40
2.0
 40
2.0
 10
1.203719603181816
 20
0.6003141791488904
 30
0.0
 10
1.198337277600421
 20
0.6003141791488904
 30
0.0
 10
1.191069835739956
 20
0.591965341939588
 30
0.0
 10
1.190548905507399
 20
0.5843258070558673
 30
0.0
  0
LINE
  5
B2
330
A
100
AcDbEntity
  8
1
  6
solid
 62
     7
100
AcDbLine
 10
1.190548905507399
 20
0.5843258070558673
 30
0.0
 11
1.165839603181817
 21
0.5876792954279602
 31
0.0
  0
SPLINE
  5
B3
330
A
100
AcDbEntity
  8
1
  6
solid
 62
     7
100
AcDbSpline
210
0.0
220
0.0
230
1.0
 70
     8
 71
     2
 72
     8
 73
     5
 74
     0
 42
0.0000000001
 43
0.0000000001
 40
0.0
 40
0.0
 40
0.0
 40
1.0
 40
2.0
 40
3.0
 40
3.0
 40
3.0
 10
1.165839603181817
 20
0.5876792954279602
 30
0.0
 10
1.167814021786468
 20
0.5994709233349368
 30
0.0
 10
1.17678797527484
 20
0.6137825512419136
 30
0.0
 10
1.193485649693444
 20
0.6221165047302857
 30
0.0
 10
1.203114486902747
 20
0.6221165047302857
 30
0.0
  0
SPLINE
  5
B4
330
A
100
AcDbEntity
  8
1
  6
solid
 62
     7
100
AcDbSpline
210
0.0
220
0.0
230
1.0
 70
     8
 71
     2
 72
     6
 73
     3
 74
     0
 42
0.0000000001
 43
0.0000000001
 40
0.0
 40
0.0
 40
0.0
 40
1.0
 40
1.0
 40
1.0
 10
1.203114486902747
 20
0.6221165047302857
 30
0.0
 10
1.220467045042282
 20
0.6221165047302857
 30
0.0
 10
1.231320998530655
 20
0.6106820861256346
 30
0.0
  0
SPLINE
  5
B5
330
A
100
AcDbEntity
  8
1
  6
solid
 62
     7
100
AcDbSpline
210
0.0
220
0.0
230
1.0
 70
     8
 71
     2
 72
     6
 73
     3
 74
     0
 42
0.0000000001
 43
0.0000000001
 40
0.0
 40
0.0
 40
0.0
 40
1.0
 40
1.0
 40
1.0
 10
1.231320998530655
 20
0.6106820861256346
 30
0.0
 10
1.239967510158562
 20
0.6011030163581928
 30
0.0
 10
1.239967510158562
 20
0.5894602256605183
 30
0.0
  0
SPLINE
  5
B6
330
A
100
AcDbEntity
  8
1
  6
solid
 62
     7
100
AcDbSpline
210
0.0
220
0.0
230
1.0
 70
     8
 71
     2
 72
     6
 73
     3
 74
     0
 42
0.0000000001
 43
0.0000000001
 40
0.0
 40
0.0
 40
0.0
 40
1.0
 40
1.0
 40
1.0
 10
1.239967510158562
 20
0.5894602256605183
 30
0.0
 10
1.239967510158562
 20
0.573084876823309
 30
0.0
 10
1.221340068298097
 20
0.563118830311681
 30
0.0
  0
SPLINE
  5
B7
330
A
100
AcDbEntity
  8
1
  6
solid
 62
     7
100
AcDbSpline
210
0.0
220
0.0
230
1.0
 70
     8
 71
     2
 72
     7
 73
     4
 74
     0
 42
0.0000000001
 43
0.0000000001
 40
0.0
 40
0.0
 40
0.0
 40
1.0
 40
2.0
 40
2.0
 40
2.0
 10
1.221340068298097
 20
0.563118830311681
 30
0.0
 10
1.232094952019026
 20
0.5611444117070299
 30
0.0
 10
1.245781463646933
 20
0.5453644117070299
 30
0.0
 10
1.245781463646933
 20
0.5340937140326113
 30
0.0
  0
SPLINE
  5
B8
330
A
100
AcDbEntity
  8
1
  6
solid
 62
     7
100
AcDbSpline
210
0.0
220
0.0
230
1.0
 70
     8
 71
     2
 72
     7
 73
     4
 74
     0
 42
0.0000000001
 43
0.0000000001
 40
0.0
 40
0.0
 40
0.0
 40
1.0
 40
2.0
 40
2.0
 40
2.0
 10
1.245781463646933
 20
0.5340937140326113
 30
0.0
 10
1.245781463646933
 20
0.518030923334937
 30
0.0
 10
1.22154844039112
 20
0.4956630163581928
 30
0.0
 10
1.203823789228328
 20
0.4956630163581928
 30
0.0
  0
SPLINE
  5
B9
330
A
100
AcDbEntity
  8
1
  6
solid
 62
     7
100
AcDbSpline
210
0.0
220
0.0
230
1.0
 70
     8
 71
     2
 72
     7
 73
     4
 74
     0
 42
0.0000000001
 43
0.0000000001
 40
0.0
 40
0.0
 40
0.0
 40
1.0
 40
2.0
 40
2.0
 40
2.0
 10
1.203823789228328
 20
0.4956630163581928
 30
0.0
 10
1.186724254344607
 20
0.4956630163581928
 30
0.0
 10
1.164609370623677
 20
0.5163690628698207
 30
0.0
 10
1.16293262643763
 20
0.5334537140326114
 30
0.0
  0
LINE
  5
BA
330
A
100
AcDbEntity
  8
1
  6
solid
 62
     7
100
AcDbLine
 10
1.26642309155391
 20
0.4971165047302857
 30
0.0
 11
1.295507742716701
 21
0.6221165047302857
 31
0.0
  0
LINE
  5
BB
330
A
100
AcDbEntity
  8
1
  6
solid
 62
     7
100
AcDbLine
 10
1.295507742716701
 20
0.6221165047302857
 30
0.0
 11
1.315216579926002
 21
0.6221165047302857
 31
0.0
  0
LINE
  5
BC
330
A
100
AcDbEntity
  8
1
  6
solid
 62
     7
100
AcDbLine
 10
1.315216579926002
 20
0.6221165047302857
 30
0.0
 11
1.286146812484143
 21
0.4971165047302857
 31
0.0
  0
LINE
  5
BD
330
A
100
AcDbEntity
  8
1
  6
solid
 62
     7
100
AcDbLine
 10
1.26642309155391
 20
0.4971165047302857
 30
0.0
 11
1.286146812484143
 21
0.4971165047302857
 31
0.0
  0
LINE
  5
BE
330
A
100
AcDbEntity
  8
1
  6
solid
 62
     7
100
AcDbLine
 10
1.391919138065538
 20
0.4971165047302857
 30
0.0
 11
1.367209835739956
 21
0.4971165047302857
 31
0.0
  0
LINE
  5
BF
330
A
100
AcDbEntity
  8
1
  6
solid
 62
     7
100
AcDbLine
 10
1.367209835739956
 20
0.4971165047302857
 30
0.0
 11
1.367209835739956
 21
0.5859727838000533
 31
0.0
  0
SPLINE
  5
C0
330
A
100
AcDbEntity
  8
1
  6
solid
 62
     7
100
AcDbSpline
210
0.0
220
0.0
230
1.0
 70
     8
 71
     2
 72
     6
 73
     3
 74
     0
 42
0.0000000001
 43
0.0000000001
 40
0.0
 40
0.0
 40
0.0
 40
1.0
 40
1.0
 40
1.0
 10
1.367209835739956
 20
0.5859727838000533
 30
0.0
 10
1.354217742716701
 20
0.5718099931023787
 30
0.0
 10
1.336686579926003
 20
0.5654304582186578
 30
0.0
  0
LINE
  5
C1
330
A
100
AcDbEntity
  8
1
  6
solid
 62
     7
100
AcDbLine
 10
1.336686579926003
 20
0.5654304582186578
 30
0.0
 11
1.336686579926003
 21
0.5901397605442391
 31
0.0
  0
SPLINE
  5
C2
330
A
100
AcDbEntity
  8
1
  6
solid
 62
     7
100
AcDbSpline
210
0.0
220
0.0
230
1.0
 70
     8
 71
     2
 72
     7
 73
     4
 74
     0
 42
0.0000000001
 43
0.0000000001
 40
0.0
 40
0.0
 40
0.0
 40
1.0
 40
2.0
 40
2.0
 40
2.0
 10
1.336686579926003
 20
0.5901397605442391
 30
0.0
 10
1.345868905507398
 20
0.5931806907767974
 30
0.0
 10
1.367894486902748
 20
0.6105332489163322
 30
0.0
 10
1.372091231088794
 20
0.6221165047302857
 30
0.0
  0
LINE
  5
C3
330
A
100
AcDbEntity
  8
1
  6
solid
 62
     7
100
AcDbLine
 10
1.372091231088794
 20
0.6221165047302857
 30
0.0
 11
1.391919138065538
 21
0.6221165047302857
 31
0.0
  0
LINE
  5
C4
330
A
100
AcDbEntity
  8
1
  6
solid
 62
     7
100
AcDbLine
 10
1.391919138065538
 20
0.4971165047302857
 30
0.0
 11
1.391919138065538
 21
0.6221165047302857
 31
0.0
  0
LINE
  5
C5
330
A
100
AcDbEntity
  8
1
  6
solid
 62
     7
100
AcDbLine
 10
1.493330998530655
 20
0.5880216210093554
 30
0.0
 11
1.468621696205073
 21
0.5857792954279601
 31
0.0
  0
SPLINE
  5
C6
330
A
100
AcDbEntity
  8
1
  6
solid
 62
     7
100
AcDbSpline
210
0.0
220
0.0
230
1.0
 70
     8
 71
     2
 72
     7
 73
     4
 74
     0
 42
0.0000000001
 43
0.0000000001
 40
0.0
 40
0.0
 40
0.0
 40
1.0
 40
2.0
 40
2.0
 40
2.0
 10
1.468621696205073
 20
0.5857792954279601
 30
0.0
 10
1.467570068298097
 20
0.5931658070558671
 30
0.0
 10
1.460481231088794
 20
0.6003141791488904
 30
0.0
 10
1.454816114809724
 20
0.6003141791488904
 30
0.0
  0
SPLINE
  5
C7
330
A
100
AcDbEntity
  8
1
  6
solid
 62
     7
100
AcDbSpline
210
0.0
220
0.0
230
1.0
 70
     8
 71
     2
 72
     7
 73
     4
 74
     0
 42
0.0000000001
 43
0.0000000001
 40
0.0
 40
0.0
 40
0.0
 40
1.0
 40
2.0
 40
2.0
 40
2.0
 10
1.454816114809724
 20
0.6003141791488904
 30
0.0
 10
1.447459370623677
 20
0.6003141791488904
 30
0.0
 10
1.437240300856235
 20
0.5858090628698207
 30
0.0
 10
1.435861231088793
 20
0.5632230163581928
 30
0.0
  0
SPLINE
  5
C8
330
A
100
AcDbEntity
  8
1
  6
solid
 62
     7
100
AcDbSpline
210
0.0
220
0.0
230
1.0
 70
     8
 71
     2
 72
     6
 73
     3
 74
     0
 42
0.0000000001
 43
0.0000000001
 40
0.0
 40
0.0
 40
0.0
 40
1.0
 40
1.0
 40
1.0
 10
1.435861231088793
 20
0.5632230163581928
 30
0.0
 10
1.445365882251584
 20
0.5741513884512159
 30
0.0
 10
1.458804486902748
 20
0.5741513884512159
 30
0.0
  0
SPLINE
  5
C9
330
A
100
AcDbEntity
  8
1
  6
solid
 62
     7
100
AcDbSpline
210
0.0
220
0.0
230
1.0
 70
     8
 71
     2
 72
     7
 73
     4
 74
     0
 42
0.0000000001
 43
0.0000000001
 40
0.0
 40
0.0
 40
0.0
 40
1.0
 40
2.0
 40
2.0
 40
2.0
 10
1.458804486902748
 20
0.5741513884512159
 30
0.0
 10
1.473875184577166
 20
0.5741513884512159
 30
0.0
 10
1.49623797527484
 20
0.5525276675209834
 30
0.0
 10
1.49623797527484
 20
0.5353537140326114
 30
0.0
  0
SPLINE
  5
CA
330
A
100
AcDbEntity
  8
1
  6
solid
 62
     7
100
AcDbSpline
210
0.0
220
0.0
230
1.0
 70
     8
 71
     2
 72
     7
 73
     4
 74
     0
 42
0.0000000001
 43
0.0000000001
 40
0.0
 40
0.0
 40
0.0
 40
1.0
 40
2.0
 40
2.0
 40
2.0
 10
1.49623797527484
 20
0.5353537140326114
 30
0.0
 10
1.49623797527484
 20
0.5174951093814486
 30
0.0
 10
1.473577510158562
 20
0.4956630163581928
 30
0.0
 10
1.456090998530654
 20
0.4956630163581928
 30
0.0
  0
SPLINE
  5
CB
330
A
100
AcDbEntity
  8
1
  6
solid
 62
     7
100
AcDbSpline
210
0.0
220
0.0
230
1.0
 70
     8
 71
     2
 72
     7
 73
     4
 74
     0
 42
0.0000000001
 43
0.0000000001
 40
0.0
 40
0.0
 40
0.0
 40
1.0
 40
2.0
 40
2.0
 40
2.0
 10
1.456090998530654
 20
0.4956630163581928
 30
0.0
 10
1.437270068298095
 20
0.4956630163581928
 30
0.0
 10
1.413389138065537
 20
0.5247774349628438
 30
0.0
 10
1.413389138065537
 20
0.5575579000791229
 30
0.0
  0
SPLINE
  5
CC
330
A
100
AcDbEntity
  8
1
  6
solid
 62
     7
100
AcDbSpline
210
0.0
220
0.0
230
1.0
 70
     8
 71
     2
 72
     7
 73
     4
 74
     0
 42
0.0000000001
 43
0.0000000001
 40
0.0
 40
0.0
 40
0.0
 40
1.0
 40
2.0
 40
2.0
 40
2.0
 10
1.413389138065537
 20
0.5575579000791229
 30
0.0
 10
1.413389138065537
 20
0.5918909233349369
 30
0.0
 10
1.438306812484142
 20
0.6221165047302857
 30
0.0
 10
1.457916579926003
 20
0.6221165047302857
 30
0.0
  0
SPLINE
  5
CD
330
A
100
AcDbEntity
  8
1
  6
solid
 62
     7
100
AcDbSpline
210
0.0
220
0.0
230
1.0
 70
     8
 71
     2
 72
     7
 73
     4
 74
     0
 42
0.0000000001
 43
0.0000000001
 40
0.0
 40
0.0
 40
0.0
 40
1.0
 40
2.0
 40
2.0
 40
2.0
 10
1.457916579926003
 20
0.6221165047302857
 30
0.0
 10
1.472109138065538
 20
0.6221165047302857
 30
0.0
 10
1.490677045042283
 20
0.6047937140326113
 30
0.0
 10
1.493330998530655
 20
0.5880216210093554
 30
0.0
  0
SPLINE
  5
CE
330
A
100
AcDbEntity
  8
1
  6
solid
 62
     7
100
AcDbSpline
210
0.0
220
0.0
230
1.0
 70
     8
 71
     2
 72
     7
 73
     4
 74
     0
 42
0.0000000001
 43
0.0000000001
 40
0.0
 40
0.0
 40
0.0
 40
1.0
 40
2.0
 40
2.0
 40
2.0
 10
1.438098440391119
 20
0.535651388451216
 30
0.0
 10
1.438098440391119
 20
0.526811388451216
 30
0.0
 10
1.448704486902747
 20
0.5174653419395882
 30
0.0
 10
1.455763556670189
 20
0.5174653419395882
 30
0.0
  0
SPLINE
  5
CF
330
A
100
AcDbEntity
  8
1
  6
solid
 62
     7
100
AcDbSpline
210
0.0
220
0.0
230
1.0
 70
     8
 71
     2
 72
     7
 73
     4
 74
     0
 42
0.0000000001
 43
0.0000000001
 40
0.0
 40
0.0
 40
0.0
 40
1.0
 40
2.0
 40
2.0
 40
2.0
 10
1.455763556670189
 20
0.5174653419395882
 30
0.0
 10
1.462157975274839
 20
0.5174653419395882
 30
0.0
 10
1.471528672949258
 20
0.5251644117070299
 30
0.0
 10
1.471528672949258
 20
0.5340937140326113
 30
0.0
  0
SPLINE
  5
D0
330
A
100
AcDbEntity
  8
1
  6
solid
 62
     7
100
AcDbSpline
210
0.0
220
0.0
230
1.0
 70
     8
 71
     2
 72
     7
 73
     4
 74
     0
 42
0.0000000001
 43
0.0000000001
 40
0.0
 40
0.0
 40
0.0
 40
1.0
 40
2.0
 40
2.0
 40
2.0
 10
1.471528672949258
 20
0.5340937140326113
 30
0.0
 10
1.471528672949258
 20
0.5436876675209836
 30
0.0
 10
1.461711463646933
 20
0.5523490628698206
 30
0.0
 10
1.454473789228329
 20
0.5523490628698206
 30
0.0
  0
SPLINE
  5
D1
330
A
100
AcDbEntity
  8
1
  6
solid
 62
     7
100
AcDbSpline
210
0.0
220
0.0
230
1.0
 70
     8
 71
     2
 72
     7
 73
     4
 74
     0
 42
0.0000000001
 43
0.0000000001
 40
0.0
 40
0.0
 40
0.0
 40
1.0
 40
2.0
 40
2.0
 40
2.0
 10
1.454473789228329
 20
0.5523490628698206
 30
0.0
 10
1.447414719460887
 20
0.5523490628698206
 30
0.0
 10
1.438098440391119
 20
0.5439406907767973
 30
0.0
 10
1.438098440391119
 20
0.535651388451216
 30
0.0
  0
LINE
  5
E9
330
A
100
AcDbEntity
  8
0
  6
solid
 62
     7
100
AcDbLine
 10
2.809605122993573
 20
4.263889998981383
 30
0.0
 11
2.809605122993573
 21
4.268519628611013
 31
0.0
  0
SPLINE
  5
EA
330
A
100
AcDbEntity
  8
0
  6
solid
 62
     7
100
AcDbSpline
210
0.0
220
0.0
230
1.0
 70
     8
 71
     2
 72
     6
 73
     3
 74
     0
 42
0.0000000001
 43
0.0000000001
 40
0.0
 40
0.0
 40
0.0
 40
1.0
 40
1.0
 40
1.0
 10
2.809605122993573
 20
4.268519628611013
 30
0.0
 10
2.819775493363944
 20
4.268519628611013
 30
0.0
 10
2.824278703240487
 20
4.273165060709779
 30
0.0
  0
SPLINE
  5
EB
330
A
100
AcDbEntity
  8
0
  6
solid
 62
     7
100
AcDbSpline
210
0.0
220
0.0
230
1.0
 70
     8
 71
     2
 72
     7
 73
     4
 74
     0
 42
0.0000000001
 43
0.0000000001
 40
0.0
 40
0.0
 40
0.0
 40
1.0
 40
2.0
 40
2.0
 40
2.0
 10
2.824278703240487
 20
4.273165060709779
 30
0.0
 10
2.826422406944191
 20
4.275387776759161
 30
0.0
 10
2.828750308178759
 20
4.284078147129531
 30
0.0
 10
2.828750308178759
 20
4.292615924907309
 30
0.0
  0
LINE
  5
EC
330
A
100
AcDbEntity
  8
0
  6
solid
 62
     7
100
AcDbLine
 10
2.828750308178759
 20
4.292615924907309
 30
0.0
 11
2.828750308178759
 21
4.359569011327062
 31
0.0
  0
SPLINE
  5
ED
330
A
100
AcDbEntity
  8
0
  6
solid
 62
     7
100
AcDbSpline
210
0.0
220
0.0
230
1.0
 70
     8
 71
     2
 72
     7
 73
     4
 74
     0
 42
0.0000000001
 43
0.0000000001
 40
0.0
 40
0.0
 40
0.0
 40
1.0
 40
2.0
 40
2.0
 40
2.0
 10
2.828750308178759
 20
4.359569011327062
 30
0.0
 10
2.828750308178759
 20
4.368828270586321
 30
0.0
 10
2.826327592129376
 20
4.377113208857926
 30
0.0
 10
2.823494011882462
 20
4.379867776759161
 30
0.0
  0
SPLINE
  5
EE
330
A
100
AcDbEntity
  8
0
  6
solid
 62
     7
100
AcDbSpline
210
0.0
220
0.0
230
1.0
 70
     8
 71
     2
 72
     7
 73
     4
 74
     0
 42
0.0000000001
 43
0.0000000001
 40
0.0
 40
0.0
 40
0.0
 40
1.0
 40
2.0
 40
2.0
 40
2.0
 10
2.823494011882462
 20
4.379867776759161
 30
0.0
 10
2.821492530400981
 20
4.381774443425827
 30
0.0
 10
2.81565154274666
 20
4.383617900215951
 30
0.0
 10
2.809605122993573
 20
4.384291974290025
 30
0.0
  0
LINE
  5
EF
330
A
100
AcDbEntity
  8
0
  6
solid
 62
     7
100
AcDbLine
 10
2.809605122993573
 20
4.384291974290025
 30
0.0
 11
2.809605122993573
 21
4.388889998981383
 31
0.0
  0
LINE
  5
F0
330
A
100
AcDbEntity
  8
0
  6
solid
 62
     7
100
AcDbLine
 10
2.809605122993573
 20
4.388889998981383
 30
0.0
 11
2.870669814351598
 21
4.388889998981383
 31
0.0
  0
LINE
  5
F1
330
A
100
AcDbEntity
  8
0
  6
solid
 62
     7
100
AcDbLine
 10
2.870669814351598
 20
4.388889998981383
 30
0.0
 11
2.870669814351598
 21
4.384370986635704
 31
0.0
  0
SPLINE
  5
F2
330
A
100
AcDbEntity
  8
0
  6
solid
 62
     7
100
AcDbSpline
210
0.0
220
0.0
230
1.0
 70
     8
 71
     2
 72
     7
 73
     4
 74
     0
 42
0.0000000001
 43
0.0000000001
 40
0.0
 40
0.0
 40
0.0
 40
1.0
 40
2.0
 40
2.0
 40
2.0
 10
2.870669814351598
 20
4.384370986635704
 30
0.0
 10
2.863333024228141
 20
4.383586295277679
 30
0.0
 10
2.858434752623203
 20
4.381916665648049
 30
0.0
 10
2.855759197067648
 20
4.379804566882618
 30
0.0
  0
SPLINE
  5
F3
330
A
100
AcDbEntity
  8
0
  6
solid
 62
     7
100
AcDbSpline
210
0.0
220
0.0
230
1.0
 70
     8
 71
     2
 72
     7
 73
     4
 74
     0
 42
0.0000000001
 43
0.0000000001
 40
0.0
 40
0.0
 40
0.0
 40
1.0
 40
2.0
 40
2.0
 40
2.0
 10
2.855759197067648
 20
4.379804566882618
 30
0.0
 10
2.853805122993573
 20
4.377350245894963
 30
0.0
 10
2.851898456326907
 20
4.368907282932
 30
0.0
 10
2.851898456326907
 20
4.358942344660396
 30
0.0
  0
LINE
  5
F4
330
A
100
AcDbEntity
  8
0
  6
solid
 62
     7
100
AcDbLine
 10
2.851898456326907
 20
4.358942344660396
 30
0.0
 11
2.851898456326907
 21
4.307115677993729
 31
0.0
  0
SPLINE
  5
F5
330
A
100
AcDbEntity
  8
0
  6
solid
 62
     7
100
AcDbSpline
210
0.0
220
0.0
230
1.0
 70
     8
 71
     2
 72
     7
 73
     4
 74
     0
 42
0.0000000001
 43
0.0000000001
 40
0.0
 40
0.0
 40
0.0
 40
1.0
 40
2.0
 40
2.0
 40
2.0
 10
2.851898456326907
 20
4.307115677993729
 30
0.0
 10
2.851898456326907
 20
4.294754196512247
 30
0.0
 10
2.852704382252833
 20
4.282993208857926
 30
0.0
 10
2.854215987191104
 20
4.27990678910484
 30
0.0
  0
SPLINE
  5
F6
330
A
100
AcDbEntity
  8
0
  6
solid
 62
     7
100
AcDbSpline
210
0.0
220
0.0
230
1.0
 70
     8
 71
     2
 72
     7
 73
     4
 74
     0
 42
0.0000000001
 43
0.0000000001
 40
0.0
 40
0.0
 40
0.0
 40
1.0
 40
2.0
 40
2.0
 40
2.0
 10
2.854215987191104
 20
4.27990678910484
 30
0.0
 10
2.857318209413326
 20
4.273544319969038
 30
0.0
 10
2.868057468672586
 20
4.268519628611013
 30
0.0
 10
2.877332530400981
 20
4.268519628611013
 30
0.0
  0
SPLINE
  5
F7
330
A
100
AcDbEntity
  8
0
  6
solid
 62
     7
100
AcDbSpline
210
0.0
220
0.0
230
1.0
 70
     8
 71
     2
 72
     7
 73
     4
 74
     0
 42
0.0000000001
 43
0.0000000001
 40
0.0
 40
0.0
 40
0.0
 40
1.0
 40
2.0
 40
2.0
 40
2.0
 10
2.877332530400981
 20
4.268519628611013
 30
0.0
 10
2.887897962499746
 20
4.268519628611013
 30
0.0
 10
2.901834258796042
 20
4.273670739722124
 30
0.0
 10
2.906337468672586
 20
4.279511727376445
 30
0.0
  0
SPLINE
  5
F8
330
A
100
AcDbEntity
  8
0
  6
solid
 62
     7
100
AcDbSpline
210
0.0
220
0.0
230
1.0
 70
     8
 71
     2
 72
     7
 73
     4
 74
     0
 42
0.0000000001
 43
0.0000000001
 40
0.0
 40
0.0
 40
0.0
 40
1.0
 40
2.0
 40
2.0
 40
2.0
 10
2.906337468672586
 20
4.279511727376445
 30
0.0
 10
2.909376481018265
 20
4.283119628611013
 30
0.0
 10
2.913015987191104
 20
4.293384813796198
 30
0.0
 10
2.915359690894808
 20
4.302849505154223
 30
0.0
  0
LINE
  5
F9
330
A
100
AcDbEntity
  8
0
  6
solid
 62
     7
100
AcDbLine
 10
2.915359690894808
 20
4.302849505154223
 30
0.0
 11
2.921342900771351
 21
4.302517653302371
 31
0.0
  0
LINE
  5
FA
330
A
100
AcDbEntity
  8
0
  6
solid
 62
     7
100
AcDbLine
 10
2.921342900771351
 20
4.302517653302371
 30
0.0
 11
2.921342900771351
 21
4.263889998981383
 31
0.0
  0
LINE
  5
FB
330
A
100
AcDbEntity
  8
0
  6
solid
 62
     7
100
AcDbLine
 10
2.809605122993573
 20
4.263889998981383
 30
0.0
 11
2.921342900771351
 21
4.263889998981383
 31
0.0
  0
SPLINE
  5
FC
330
A
100
AcDbEntity
  8
0
  6
solid
 62
     7
100
AcDbSpline
210
0.0
220
0.0
230
1.0
 70
     8
 71
     2
 72
     7
 73
     4
 74
     0
 42
0.0000000001
 43
0.0000000001
 40
0.0
 40
0.0
 40
0.0
 40
1.0
 40
2.0
 40
2.0
 40
2.0
 10
2.933836234104684
 20
4.267924566882618
 30
0.0
 10
2.940667345215795
 20
4.268661850833235
 30
0.0
 10
2.945976481018265
 20
4.270600122438174
 30
0.0
 10
2.948509814351598
 20
4.273212468117185
 30
0.0
  0
SPLINE
  5
FD
330
A
100
AcDbEntity
  8
0
  6
solid
 62
     7
100
AcDbSpline
210
0.0
220
0.0
230
1.0
 70
     8
 71
     2
 72
     7
 73
     4
 74
     0
 42
0.0000000001
 43
0.0000000001
 40
0.0
 40
0.0
 40
0.0
 40
1.0
 40
2.0
 40
2.0
 40
2.0
 10
2.948509814351598
 20
4.273212468117185
 30
0.0
 10
2.950653518055302
 20
4.275450986635704
 30
0.0
 10
2.95298141928987
 20
4.284125554536939
 30
0.0
 10
2.95298141928987
 20
4.292663332314717
 30
0.0
  0
LINE
  5
FE
330
A
100
AcDbEntity
  8
0
  6
solid
 62
     7
100
AcDbLine
 10
2.95298141928987
 20
4.292663332314717
 30
0.0
 11
2.95298141928987
 21
4.359584813796198
 31
0.0
  0
SPLINE
  5
FF
330
A
100
AcDbEntity
  8
0
  6
solid
 62
     7
100
AcDbSpline
210
0.0
220
0.0
230
1.0
 70
     8
 71
     2
 72
     7
 73
     4
 74
     0
 42
0.0000000001
 43
0.0000000001
 40
0.0
 40
0.0
 40
0.0
 40
1.0
 40
2.0
 40
2.0
 40
2.0
 10
2.95298141928987
 20
4.359584813796198
 30
0.0
 10
2.95298141928987
 20
4.369128517499902
 30
0.0
 10
2.950463888425672
 20
4.377381850833235
 30
0.0
 10
2.94736166620345
 20
4.380183826141877
 30
0.0
  0
SPLINE
  5
100
330
A
100
AcDbEntity
  8
0
  6
solid
 62
     7
100
AcDbSpline
210
0.0
220
0.0
230
1.0
 70
     8
 71
     2
 72
     6
 73
     3
 74
     0
 42
0.0000000001
 43
0.0000000001
 40
0.0
 40
0.0
 40
0.0
 40
1.0
 40
1.0
 40
1.0
 10
2.94736166620345
 20
4.380183826141877
 30
0.0
 10
2.943174505709622
 20
4.383444073055457
 30
0.0
 10
2.933836234104684
 20
4.384307776759161
 30
0.0
  0
LINE
  5
101
330
A
100
AcDbEntity
  8
0
  6
solid
 62
     7
100
AcDbLine
 10
2.933836234104684
 20
4.384307776759161
 30
0.0
 11
2.933836234104684
 21
4.388889998981383
 31
0.0
  0
LINE
  5
102
330
A
100
AcDbEntity
  8
0
  6
solid
 62
     7
100
AcDbLine
 10
2.933836234104684
 20
4.388889998981383
 30
0.0
 11
2.984240678549129
 21
4.388889998981383
 31
0.0
  0
SPLINE
  5
103
330
A
100
AcDbEntity
  8
0
  6
solid
 62
     7
100
AcDbSpline
210
0.0
220
0.0
230
1.0
 70
     8
 71
     2
 72
     6
 73
     3
 74
     0
 42
0.0000000001
 43
0.0000000001
 40
0.0
 40
0.0
 40
0.0
 40
1.0
 40
1.0
 40
1.0
 10
2.984240678549129
 20
4.388889998981383
 30
0.0
 10
3.000210061265178
 20
4.388342344660395
 30
0.0
 10
3.004744876079993
 20
4.388105307623359
 30
0.0
  0
SPLINE
  5
104
330
A
100
AcDbEntity
  8
0
  6
solid
 62
     7
100
AcDbSpline
210
0.0
220
0.0
230
1.0
 70
     8
 71
     2
 72
     6
 73
     3
 74
     0
 42
0.0000000001
 43
0.0000000001
 40
0.0
 40
0.0
 40
0.0
 40
1.0
 40
1.0
 40
1.0
 10
3.004744876079993
 20
4.388105307623359
 30
0.0
 10
3.024695987191104
 20
4.386577900215951
 30
0.0
 10
3.038126604475055
 20
4.377176418734469
 30
0.0
  0
SPLINE
  5
105
330
A
100
AcDbEntity
  8
0
  6
solid
 62
     7
100
AcDbSpline
210
0.0
220
0.0
230
1.0
 70
     8
 71
     2
 72
     7
 73
     4
 74
     0
 42
0.0000000001
 43
0.0000000001
 40
0.0
 40
0.0
 40
0.0
 40
1.0
 40
2.0
 40
2.0
 40
2.0
 10
3.038126604475055
 20
4.377176418734469
 30
0.0
 10
3.05115178966024
 20
4.367680122438173
 30
0.0
 10
3.065635740277524
 20
4.338453949598667
 30
0.0
 10
3.065635740277524
 20
4.321573455771507
 30
0.0
  0
SPLINE
  5
106
330
A
100
AcDbEntity
  8
0
  6
solid
 62
     7
100
AcDbSpline
210
0.0
220
0.0
230
1.0
 70
     8
 71
     2
 72
     7
 73
     4
 74
     0
 42
0.0000000001
 43
0.0000000001
 40
0.0
 40
0.0
 40
0.0
 40
1.0
 40
2.0
 40
2.0
 40
2.0
 10
3.065635740277524
 20
4.321573455771507
 30
0.0
 10
3.065635740277524
 20
4.309243579228296
 30
0.0
 10
3.057245616820734
 20
4.287259381697433
 30
0.0
 10
3.049529567438018
 20
4.279337900215951
 30
0.0
  0
SPLINE
  5
107
330
A
100
AcDbEntity
  8
0
  6
solid
 62
     7
100
AcDbSpline
210
0.0
220
0.0
230
1.0
 70
     8
 71
     2
 72
     6
 73
     3
 74
     0
 42
0.0000000001
 43
0.0000000001
 40
0.0
 40
0.0
 40
0.0
 40
1.0
 40
1.0
 40
1.0
 10
3.049529567438018
 20
4.279337900215951
 30
0.0
 10
3.039843641512092
 20
4.268851480462864
 30
0.0
 10
3.023389814351598
 20
4.265780863178914
 30
0.0
  0
SPLINE
  5
108
330
A
100
AcDbEntity
  8
0
  6
solid
 62
     7
100
AcDbSpline
210
0.0
220
0.0
230
1.0
 70
     8
 71
     2
 72
     6
 73
     3
 74
     0
 42
0.0000000001
 43
0.0000000001
 40
0.0
 40
0.0
 40
0.0
 40
1.0
 40
1.0
 40
1.0
 10
3.023389814351598
 20
4.265780863178914
 30
0.0
 10
3.012413518055302
 20
4.263889998981383
 30
0.0
 10
3.000994752623203
 20
4.263889998981383
 30
0.0
  0
LINE
  5
109
330
A
100
AcDbEntity
  8
0
  6
solid
 62
     7
100
AcDbLine
 10
3.000994752623203
 20
4.263889998981383
 30
0.0
 11
2.933836234104684
 21
4.263889998981383
 31
0.0
  0
LINE
  5
10A
330
A
100
AcDbEntity
  8
0
  6
solid
 62
     7
100
AcDbLine
 10
2.933836234104684
 20
4.267924566882618
 30
0.0
 11
2.933836234104684
 21
4.263889998981383
 31
0.0
  0
LINE
  5
10B
330
A
100
AcDbEntity
  8
0
  6
solid
 62
     7
100
AcDbLine
 10
2.976129567438018
 20
4.382717159475211
 30
0.0
 11
2.976129567438018
 21
4.29500703601842
 31
0.0
  0
SPLINE
  5
10C
330
A
100
AcDbEntity
  8
0
  6
solid
 62
     7
100
AcDbSpline
210
0.0
220
0.0
230
1.0
 70
     8
 71
     2
 72
     7
 73
     4
 74
     0
 42
0.0000000001
 43
0.0000000001
 40
0.0
 40
0.0
 40
0.0
 40
1.0
 40
2.0
 40
2.0
 40
2.0
 10
2.976129567438018
 20
4.29500703601842
 30
0.0
 10
2.976129567438018
 20
4.285969011327062
 30
0.0
 10
2.977941419289869
 20
4.276962591573976
 30
0.0
 10
2.979800678549129
 20
4.274850492808544
 30
0.0
  0
SPLINE
  5
10D
330
A
100
AcDbEntity
  8
0
  6
solid
 62
     7
100
AcDbSpline
210
0.0
220
0.0
230
1.0
 70
     8
 71
     2
 72
     6
 73
     3
 74
     0
 42
0.0000000001
 43
0.0000000001
 40
0.0
 40
0.0
 40
0.0
 40
1.0
 40
1.0
 40
1.0
 10
2.979800678549129
 20
4.274850492808544
 30
0.0
 10
2.985420431635549
 20
4.268519628611013
 30
0.0
 10
2.996475740277524
 20
4.268519628611013
 30
0.0
  0
SPLINE
  5
10E
330
A
100
AcDbEntity
  8
0
  6
solid
 62
     7
100
AcDbSpline
210
0.0
220
0.0
230
1.0
 70
     8
 71
     2
 72
     7
 73
     4
 74
     0
 42
0.0000000001
 43
0.0000000001
 40
0.0
 40
0.0
 40
0.0
 40
1.0
 40
2.0
 40
2.0
 40
2.0
 10
2.996475740277524
 20
4.268519628611013
 30
0.0
 10
3.007278209413327
 20
4.268519628611013
 30
0.0
 10
3.022583888425672
 20
4.275213949598667
 30
0.0
 10
3.028630308178759
 20
4.283009011327062
 30
0.0
  0
SPLINE
  5
10F
330
A
100
AcDbEntity
  8
0
  6
solid
 62
     7
100
AcDbSpline
210
0.0
220
0.0
230
1.0
 70
     8
 71
     2
 72
     7
 73
     4
 74
     0
 42
0.0000000001
 43
0.0000000001
 40
0.0
 40
0.0
 40
0.0
 40
1.0
 40
2.0
 40
2.0
 40
2.0
 10
3.028630308178759
 20
4.283009011327062
 30
0.0
 10
3.034144876079993
 20
4.290709258240642
 30
0.0
 10
3.040944382252833
 20
4.310691974290025
 30
0.0
 10
3.040944382252833
 20
4.321731480462864
 30
0.0
  0
SPLINE
  5
110
330
A
100
AcDbEntity
  8
0
  6
solid
 62
     7
100
AcDbSpline
210
0.0
220
0.0
230
1.0
 70
     8
 71
     2
 72
     7
 73
     4
 74
     0
 42
0.0000000001
 43
0.0000000001
 40
0.0
 40
0.0
 40
0.0
 40
1.0
 40
2.0
 40
2.0
 40
2.0
 10
3.040944382252833
 20
4.321731480462864
 30
0.0
 10
3.040944382252833
 20
4.334140369351754
 30
0.0
 10
3.03329154274666
 20
4.356846048364099
 30
0.0
 10
3.02600216003061
 20
4.364988764413482
 30
0.0
  0
SPLINE
  5
111
330
A
100
AcDbEntity
  8
0
  6
solid
 62
     7
100
AcDbSpline
210
0.0
220
0.0
230
1.0
 70
     8
 71
     2
 72
     6
 73
     3
 74
     0
 42
0.0000000001
 43
0.0000000001
 40
0.0
 40
0.0
 40
0.0
 40
1.0
 40
1.0
 40
1.0
 10
3.02600216003061
 20
4.364988764413482
 30
0.0
 10
3.016411048919499
 20
4.376828764413482
 30
0.0
 10
3.002790802005919
 20
4.380326048364099
 30
0.0
  0
SPLINE
  5
112
330
A
100
AcDbEntity
  8
0
  6
solid
 62
     7
100
AcDbSpline
210
0.0
220
0.0
230
1.0
 70
     8
 71
     2
 72
     6
 73
     3
 74
     0
 42
0.0000000001
 43
0.0000000001
 40
0.0
 40
0.0
 40
0.0
 40
1.0
 40
1.0
 40
1.0
 10
3.002790802005919
 20
4.380326048364099
 30
0.0
 10
2.995232777314561
 20
4.382717159475211
 30
0.0
 10
2.983956234104685
 20
4.382717159475211
 30
0.0
  0
LINE
  5
113
330
A
100
AcDbEntity
  8
0
  6
solid
 62
     7
100
AcDbLine
 10
2.976129567438018
 20
4.382717159475211
 30
0.0
 11
2.983956234104685
 21
4.382717159475211
 31
0.0
  0
SPLINE
  5
114
330
A
100
AcDbEntity
  8
0
  6
solid
 62
     7
100
AcDbSpline
210
0.0
220
0.0
230
1.0
 70
     8
 71
     2
 72
     6
 73
     3
 74
     0
 42
0.0000000001
 43
0.0000000001
 40
0.0
 40
0.0
 40
0.0
 40
1.0
 40
1.0
 40
1.0
 10
3.131888579783697
 20
4.32952654219126
 30
0.0
 10
3.160545863734314
 20
4.32311666564805
 30
0.0
 10
3.160545863734314
 20
4.299873702685087
 30
0.0
  0
SPLINE
  5
115
330
A
100
AcDbEntity
  8
0
  6
solid
 62
     7
100
AcDbSpline
210
0.0
220
0.0
230
1.0
 70
     8
 71
     2
 72
     6
 73
     3
 74
     0
 42
0.0000000001
 43
0.0000000001
 40
0.0
 40
0.0
 40
0.0
 40
1.0
 40
1.0
 40
1.0
 10
3.160545863734314
 20
4.299873702685087
 30
0.0
 10
3.160545863734314
 20
4.292110245894964
 30
0.0
 10
3.156453518055302
 20
4.28434678910484
 30
0.0
  0
SPLINE
  5
116
330
A
100
AcDbEntity
  8
0
  6
solid
 62
     7
100
AcDbSpline
210
0.0
220
0.0
230
1.0
 70
     8
 71
     2
 72
     7
 73
     4
 74
     0
 42
0.0000000001
 43
0.0000000001
 40
0.0
 40
0.0
 40
0.0
 40
1.0
 40
2.0
 40
2.0
 40
2.0
 10
3.156453518055302
 20
4.28434678910484
 30
0.0
 10
3.151634258796042
 20
4.274034196512247
 30
0.0
 10
3.128960184721968
 20
4.26234678910484
 30
0.0
 10
3.114502406944191
 20
4.26234678910484
 30
0.0
  0
SPLINE
  5
117
330
A
100
AcDbEntity
  8
0
  6
solid
 62
     7
100
AcDbSpline
210
0.0
220
0.0
230
1.0
 70
     8
 71
     2
 72
     7
 73
     4
 74
     0
 42
0.0000000001
 43
0.0000000001
 40
0.0
 40
0.0
 40
0.0
 40
1.0
 40
2.0
 40
2.0
 40
2.0
 10
3.114502406944191
 20
4.26234678910484
 30
0.0
 10
3.105748826697277
 20
4.26234678910484
 30
0.0
 10
3.091243641512092
 20
4.26708703601842
 30
0.0
 10
3.08658240694419
 20
4.270931974290025
 30
0.0
  0
SPLINE
  5
118
330
A
100
AcDbEntity
  8
0
  6
solid
 62
     7
100
AcDbSpline
210
0.0
220
0.0
230
1.0
 70
     8
 71
     2
 72
     7
 73
     4
 74
     0
 42
0.0000000001
 43
0.0000000001
 40
0.0
 40
0.0
 40
0.0
 40
1.0
 40
2.0
 40
2.0
 40
2.0
 10
3.08658240694419
 20
4.270931974290025
 30
0.0
 10
3.082553271141721
 20
4.274739875524593
 30
0.0
 10
3.078755740277524
 20
4.283983332314717
 30
0.0
 10
3.078755740277524
 20
4.288723579228297
 30
0.0
  0
SPLINE
  5
119
330
A
100
AcDbEntity
  8
0
  6
solid
 62
     7
100
AcDbSpline
210
0.0
220
0.0
230
1.0
 70
     8
 71
     2
 72
     7
 73
     4
 74
     0
 42
0.0000000001
 43
0.0000000001
 40
0.0
 40
0.0
 40
0.0
 40
1.0
 40
2.0
 40
2.0
 40
2.0
 10
3.078755740277524
 20
4.288723579228297
 30
0.0
 10
3.078755740277524
 20
4.296818887870272
 30
0.0
 10
3.089969073610857
 20
4.308643085401136
 30
0.0
 10
3.100897962499746
 20
4.308643085401136
 30
0.0
  0
LINE
  5
11A
330
A
100
AcDbEntity
  8
0
  6
solid
 62
     7
100
AcDbLine
 10
3.100897962499746
 20
4.308643085401136
 30
0.0
 11
3.101903888425672
 21
4.304803579228297
 31
0.0
  0
SPLINE
  5
11B
330
A
100
AcDbEntity
  8
0
  6
solid
 62
     7
100
AcDbSpline
210
0.0
220
0.0
230
1.0
 70
     8
 71
     2
 72
     7
 73
     4
 74
     0
 42
0.0000000001
 43
0.0000000001
 40
0.0
 40
0.0
 40
0.0
 40
1.0
 40
2.0
 40
2.0
 40
2.0
 10
3.101903888425672
 20
4.304803579228297
 30
0.0
 10
3.097400678549129
 20
4.301322097746815
 30
0.0
 10
3.094187839042956
 20
4.294754196512247
 30
0.0
 10
3.094187839042956
 20
4.289229258240642
 30
0.0
  0
SPLINE
  5
11C
330
A
100
AcDbEntity
  8
0
  6
solid
 62
     7
100
AcDbSpline
210
0.0
220
0.0
230
1.0
 70
     8
 71
     2
 72
     6
 73
     3
 74
     0
 42
0.0000000001
 43
0.0000000001
 40
0.0
 40
0.0
 40
0.0
 40
1.0
 40
1.0
 40
1.0
 10
3.094187839042956
 20
4.289229258240642
 30
0.0
 10
3.094187839042956
 20
4.281481603919655
 30
0.0
 10
3.097748332870116
 20
4.276330492808543
 30
0.0
  0
SPLINE
  5
11D
330
A
100
AcDbEntity
  8
0
  6
solid
 62
     7
100
AcDbSpline
210
0.0
220
0.0
230
1.0
 70
     8
 71
     2
 72
     7
 73
     4
 74
     0
 42
0.0000000001
 43
0.0000000001
 40
0.0
 40
0.0
 40
0.0
 40
1.0
 40
2.0
 40
2.0
 40
2.0
 10
3.097748332870116
 20
4.276330492808543
 30
0.0
 10
3.101024382252832
 20
4.270947776759161
 30
0.0
 10
3.110030802005919
 20
4.266976418734469
 30
0.0
 10
3.114976481018265
 20
4.266976418734469
 30
0.0
  0
SPLINE
  5
11E
330
A
100
AcDbEntity
  8
0
  6
solid
 62
     7
100
AcDbSpline
210
0.0
220
0.0
230
1.0
 70
     8
 71
     2
 72
     6
 73
     3
 74
     0
 42
0.0000000001
 43
0.0000000001
 40
0.0
 40
0.0
 40
0.0
 40
1.0
 40
1.0
 40
1.0
 10
3.114976481018265
 20
4.266976418734469
 30
0.0
 10
3.126595246450363
 20
4.266976418734469
 30
0.0
 10
3.13313154274666
 20
4.275356171820889
 30
0.0
  0
SPLINE
  5
11F
330
A
100
AcDbEntity
  8
0
  6
solid
 62
     7
100
AcDbSpline
210
0.0
220
0.0
230
1.0
 70
     8
 71
     2
 72
     7
 73
     4
 74
     0
 42
0.0000000001
 43
0.0000000001
 40
0.0
 40
0.0
 40
0.0
 40
1.0
 40
2.0
 40
2.0
 40
2.0
 10
3.13313154274666
 20
4.275356171820889
 30
0.0
 10
3.136375987191104
 20
4.279764566882618
 30
0.0
 10
3.140484135339252
 20
4.291873208857927
 30
0.0
 10
3.140484135339252
 20
4.297998640956691
 30
0.0
  0
SPLINE
  5
120
330
A
100
AcDbEntity
  8
0
  6
solid
 62
     7
100
AcDbSpline
210
0.0
220
0.0
230
1.0
 70
     8
 71
     2
 72
     7
 73
     4
 74
     0
 42
0.0000000001
 43
0.0000000001
 40
0.0
 40
0.0
 40
0.0
 40
1.0
 40
2.0
 40
2.0
 40
2.0
 10
3.140484135339252
 20
4.297998640956691
 30
0.0
 10
3.140484135339252
 20
4.30456654219126
 30
0.0
 10
3.135275246450363
 20
4.317291480462865
 30
0.0
 10
3.13176216003061
 20
4.321257406388791
 30
0.0
  0
SPLINE
  5
121
330
A
100
AcDbEntity
  8
0
  6
solid
 62
     7
100
AcDbSpline
210
0.0
220
0.0
230
1.0
 70
     8
 71
     2
 72
     6
 73
     3
 74
     0
 42
0.0000000001
 43
0.0000000001
 40
0.0
 40
0.0
 40
0.0
 40
1.0
 40
1.0
 40
1.0
 10
3.13176216003061
 20
4.321257406388791
 30
0.0
 10
3.127306357561475
 20
4.325618394043112
 30
0.0
 10
3.122455493363943
 20
4.325618394043112
 30
0.0
  0
SPLINE
  5
122
330
A
100
AcDbEntity
  8
0
  6
solid
 62
     7
100
AcDbSpline
210
0.0
220
0.0
230
1.0
 70
     8
 71
     2
 72
     7
 73
     4
 74
     0
 42
0.0000000001
 43
0.0000000001
 40
0.0
 40
0.0
 40
0.0
 40
1.0
 40
2.0
 40
2.0
 40
2.0
 10
3.122455493363943
 20
4.325618394043112
 30
0.0
 10
3.122013024228141
 20
4.325618394043112
 30
0.0
 10
3.119795740277524
 20
4.324628270586321
 30
0.0
 10
3.11754141928987
 20
4.322832221203605
 30
0.0
  0
SPLINE
  5
123
330
A
100
AcDbEntity
  8
0
  6
solid
 62
     7
100
AcDbSpline
210
0.0
220
0.0
230
1.0
 70
     8
 71
     2
 72
     6
 73
     3
 74
     0
 42
0.0000000001
 43
0.0000000001
 40
0.0
 40
0.0
 40
0.0
 40
1.0
 40
1.0
 40
1.0
 10
3.11754141928987
 20
4.322832221203605
 30
0.0
 10
3.112706357561474
 20
4.319445554536939
 30
0.0
 10
3.107465863734314
 20
4.319445554536939
 30
0.0
  0
SPLINE
  5
124
330
A
100
AcDbEntity
  8
0
  6
solid
 62
     7
100
AcDbSpline
210
0.0
220
0.0
230
1.0
 70
     8
 71
     2
 72
     7
 73
     4
 74
     0
 42
0.0000000001
 43
0.0000000001
 40
0.0
 40
0.0
 40
0.0
 40
1.0
 40
2.0
 40
2.0
 40
2.0
 10
3.107465863734314
 20
4.319445554536939
 30
0.0
 10
3.10433203657382
 20
4.319445554536939
 30
0.0
 10
3.100360678549129
 20
4.322895431080149
 30
0.0
 10
3.100360678549129
 20
4.325871233549285
 30
0.0
  0
SPLINE
  5
125
330
A
100
AcDbEntity
  8
0
  6
solid
 62
     7
100
AcDbSpline
210
0.0
220
0.0
230
1.0
 70
     8
 71
     2
 72
     7
 73
     4
 74
     0
 42
0.0000000001
 43
0.0000000001
 40
0.0
 40
0.0
 40
0.0
 40
1.0
 40
2.0
 40
2.0
 40
2.0
 10
3.100360678549129
 20
4.325871233549285
 30
0.0
 10
3.100360678549129
 20
4.329099875524593
 30
0.0
 10
3.105480184721968
 20
4.333334443425828
 30
0.0
 10
3.109619937808388
 20
4.333334443425828
 30
0.0
  0
SPLINE
  5
126
330
A
100
AcDbEntity
  8
0
  6
solid
 62
     7
100
AcDbSpline
210
0.0
220
0.0
230
1.0
 70
     8
 71
     2
 72
     6
 73
     3
 74
     0
 42
0.0000000001
 43
0.0000000001
 40
0.0
 40
0.0
 40
0.0
 40
1.0
 40
1.0
 40
1.0
 10
3.109619937808388
 20
4.333334443425828
 30
0.0
 10
3.111479197067647
 20
4.33278678910484
 30
0.0
 10
3.113133024228141
 20
4.332565554536938
 30
0.0
  0
LINE
  5
127
330
A
100
AcDbEntity
  8
0
  6
solid
 62
     7
100
AcDbLine
 10
3.113133024228141
 20
4.332565554536938
 30
0.0
 11
3.116424876079993
 21
4.332028270586321
 31
0.0
  0
SPLINE
  5
128
330
A
100
AcDbEntity
  8
0
  6
solid
 62
     7
100
AcDbSpline
210
0.0
220
0.0
230
1.0
 70
     8
 71
     2
 72
     6
 73
     3
 74
     0
 42
0.0000000001
 43
0.0000000001
 40
0.0
 40
0.0
 40
0.0
 40
1.0
 40
1.0
 40
1.0
 10
3.116424876079993
 20
4.332028270586321
 30
0.0
 10
3.117904876079993
 20
4.331791233549284
 30
0.0
 10
3.119274258796042
 20
4.331791233549284
 30
0.0
  0
SPLINE
  5
129
330
A
100
AcDbEntity
  8
0
  6
solid
 62
     7
100
AcDbSpline
210
0.0
220
0.0
230
1.0
 70
     8
 71
     2
 72
     6
 73
     3
 74
     0
 42
0.0000000001
 43
0.0000000001
 40
0.0
 40
0.0
 40
0.0
 40
1.0
 40
1.0
 40
1.0
 10
3.119274258796042
 20
4.331791233549284
 30
0.0
 10
3.124441172376289
 20
4.331791233549284
 30
0.0
 10
3.129950308178758
 20
4.336926542191259
 30
0.0
  0
SPLINE
  5
12A
330
A
100
AcDbEntity
  8
0
  6
solid
 62
     7
100
AcDbSpline
210
0.0
220
0.0
230
1.0
 70
     8
 71
     2
 72
     6
 73
     3
 74
     0
 42
0.0000000001
 43
0.0000000001
 40
0.0
 40
0.0
 40
0.0
 40
1.0
 40
1.0
 40
1.0
 10
3.129950308178758
 20
4.336926542191259
 30
0.0
 10
3.137397715586166
 20
4.344642591573975
 30
0.0
 10
3.137397715586166
 20
4.357383332314716
 30
0.0
  0
SPLINE
  5
12B
330
A
100
AcDbEntity
  8
0
  6
solid
 62
     7
100
AcDbSpline
210
0.0
220
0.0
230
1.0
 70
     8
 71
     2
 72
     7
 73
     4
 74
     0
 42
0.0000000001
 43
0.0000000001
 40
0.0
 40
0.0
 40
0.0
 40
1.0
 40
2.0
 40
2.0
 40
2.0
 10
3.137397715586166
 20
4.357383332314716
 30
0.0
 10
3.137397715586166
 20
4.363635184166568
 30
0.0
 10
3.133321172376289
 20
4.375554196512247
 30
0.0
 10
3.129997715586166
 20
4.37994678910484
 30
0.0
  0
SPLINE
  5
12C
330
A
100
AcDbEntity
  8
0
  6
solid
 62
     7
100
AcDbSpline
210
0.0
220
0.0
230
1.0
 70
     8
 71
     2
 72
     6
 73
     3
 74
     0
 42
0.0000000001
 43
0.0000000001
 40
0.0
 40
0.0
 40
0.0
 40
1.0
 40
1.0
 40
1.0
 10
3.129997715586166
 20
4.37994678910484
 30
0.0
 10
3.124093518055301
 20
4.38734678910484
 30
0.0
 10
3.115982406944191
 20
4.38734678910484
 30
0.0
  0
SPLINE
  5
12D
330
A
100
AcDbEntity
  8
0
  6
solid
 62
     7
100
AcDbSpline
210
0.0
220
0.0
230
1.0
 70
     8
 71
     2
 72
     7
 73
     4
 74
     0
 42
0.0000000001
 43
0.0000000001
 40
0.0
 40
0.0
 40
0.0
 40
1.0
 40
2.0
 40
2.0
 40
2.0
 10
3.115982406944191
 20
4.38734678910484
 30
0.0
 10
3.110014999536783
 20
4.38734678910484
 30
0.0
 10
3.101903888425672
 20
4.378909258240643
 30
0.0
 10
3.101903888425672
 20
4.372088517499902
 30
0.0
  0
SPLINE
  5
12E
330
A
100
AcDbEntity
  8
0
  6
solid
 62
     7
100
AcDbSpline
210
0.0
220
0.0
230
1.0
 70
     8
 71
     2
 72
     7
 73
     4
 74
     0
 42
0.0000000001
 43
0.0000000001
 40
0.0
 40
0.0
 40
0.0
 40
1.0
 40
2.0
 40
2.0
 40
2.0
 10
3.101903888425672
 20
4.372088517499902
 30
0.0
 10
3.101903888425672
 20
4.366405554536939
 30
0.0
 10
3.105780431635548
 20
4.359837653302371
 30
0.0
 10
3.110378456326906
 20
4.358452468117185
 30
0.0
  0
LINE
  5
12F
330
A
100
AcDbEntity
  8
0
  6
solid
 62
     7
100
AcDbLine
 10
3.110378456326906
 20
4.358452468117185
 30
0.0
 11
3.111163147684931
 21
4.355334443425828
 31
0.0
  0
SPLINE
  5
130
330
A
100
AcDbEntity
  8
0
  6
solid
 62
     7
100
AcDbSpline
210
0.0
220
0.0
230
1.0
 70
     8
 71
     2
 72
     6
 73
     3
 74
     0
 42
0.0000000001
 43
0.0000000001
 40
0.0
 40
0.0
 40
0.0
 40
1.0
 40
1.0
 40
1.0
 10
3.111163147684931
 20
4.355334443425828
 30
0.0
 10
3.105480184721968
 20
4.35339617182089
 30
0.0
 10
3.101919690894808
 20
4.35339617182089
 30
0.0
  0
SPLINE
  5
131
330
A
100
AcDbEntity
  8
0
  6
solid
 62
     7
100
AcDbSpline
210
0.0
220
0.0
230
1.0
 70
     8
 71
     2
 72
     7
 73
     4
 74
     0
 42
0.0000000001
 43
0.0000000001
 40
0.0
 40
0.0
 40
0.0
 40
1.0
 40
2.0
 40
2.0
 40
2.0
 10
3.101919690894808
 20
4.35339617182089
 30
0.0
 10
3.094756727931845
 20
4.35339617182089
 30
0.0
 10
3.08647178966024
 20
4.361617900215951
 30
0.0
 10
3.08647178966024
 20
4.368169998981383
 30
0.0
  0
SPLINE
  5
132
330
A
100
AcDbEntity
  8
0
  6
solid
 62
     7
100
AcDbSpline
210
0.0
220
0.0
230
1.0
 70
     8
 71
     2
 72
     7
 73
     4
 74
     0
 42
0.0000000001
 43
0.0000000001
 40
0.0
 40
0.0
 40
0.0
 40
1.0
 40
2.0
 40
2.0
 40
2.0
 10
3.08647178966024
 20
4.368169998981383
 30
0.0
 10
3.08647178966024
 20
4.378292961944346
 30
0.0
 10
3.104300431635548
 20
4.391976418734469
 30
0.0
 10
3.117430802005919
 20
4.391976418734469
 30
0.0
  0
SPLINE
  5
133
330
A
100
AcDbEntity
  8
0
  6
solid
 62
     7
100
AcDbSpline
210
0.0
220
0.0
230
1.0
 70
     8
 71
     2
 72
     7
 73
     4
 74
     0
 42
0.0000000001
 43
0.0000000001
 40
0.0
 40
0.0
 40
0.0
 40
1.0
 40
2.0
 40
2.0
 40
2.0
 10
3.117430802005919
 20
4.391976418734469
 30
0.0
 10
3.125383888425672
 20
4.391976418734469
 30
0.0
 10
3.140547345215795
 20
4.386404073055457
 30
0.0
 10
3.145224382252832
 20
4.382043085401136
 30
0.0
  0
SPLINE
  5
134
330
A
100
AcDbEntity
  8
0
  6
solid
 62
     7
100
AcDbSpline
210
0.0
220
0.0
230
1.0
 70
     8
 71
     2
 72
     7
 73
     4
 74
     0
 42
0.0000000001
 43
0.0000000001
 40
0.0
 40
0.0
 40
0.0
 40
1.0
 40
2.0
 40
2.0
 40
2.0
 10
3.145224382252832
 20
4.382043085401136
 30
0.0
 10
3.150422900771351
 20
4.377208023672741
 30
0.0
 10
3.155916234104684
 20
4.365820863178914
 30
0.0
 10
3.155916234104684
 20
4.359569011327062
 30
0.0
  0
SPLINE
  5
135
330
A
100
AcDbEntity
  8
0
  6
solid
 62
     7
100
AcDbSpline
210
0.0
220
0.0
230
1.0
 70
     8
 71
     2
 72
     6
 73
     3
 74
     0
 42
0.0000000001
 43
0.0000000001
 40
0.0
 40
0.0
 40
0.0
 40
1.0
 40
1.0
 40
1.0
 10
3.155916234104684
 20
4.359569011327062
 30
0.0
 10
3.155916234104684
 20
4.34580654219126
 30
0.0
 10
3.144297468672585
 20
4.33574678910484
 30
0.0
  0
SPLINE
  5
136
330
A
100
AcDbEntity
  8
0
  6
solid
 62
     7
100
AcDbSpline
210
0.0
220
0.0
230
1.0
 70
     8
 71
     2
 72
     6
 73
     3
 74
     0
 42
0.0000000001
 43
0.0000000001
 40
0.0
 40
0.0
 40
0.0
 40
1.0
 40
1.0
 40
1.0
 10
3.144297468672585
 20
4.33574678910484
 30
0.0
 10
3.139667839042956
 20
4.332075677993729
 30
0.0
 10
3.131888579783697
 20
4.32952654219126
 30
0.0
  0
SPLINE
  5
137
330
A
100
AcDbEntity
  8
0
  6
solid
 62
     7
100
AcDbSpline
210
0.0
220
0.0
230
1.0
 70
     8
 71
     2
 72
     6
 73
     3
 74
     0
 42
0.0000000001
 43
0.0000000001
 40
0.0
 40
0.0
 40
0.0
 40
1.0
 40
1.0
 40
1.0
 10
3.213789320524437
 20
4.391976418734469
 30
0.0
 10
3.224876234104684
 20
4.391976418734469
 30
0.0
 10
3.233192777314561
 20
4.382843579228297
 30
0.0
  0
SPLINE
  5
138
330
A
100
AcDbEntity
  8
0
  6
solid
 62
     7
100
AcDbSpline
210
0.0
220
0.0
230
1.0
 70
     8
 71
     2
 72
     7
 73
     4
 74
     0
 42
0.0000000001
 43
0.0000000001
 40
0.0
 40
0.0
 40
0.0
 40
1.0
 40
2.0
 40
2.0
 40
2.0
 10
3.233192777314561
 20
4.382843579228297
 30
0.0
 10
3.237933024228141
 20
4.37747666564805
 30
0.0
 10
3.246354752623203
 20
4.364388270586322
 30
0.0
 10
3.248624876079993
 20
4.357430739722124
 30
0.0
  0
SPLINE
  5
139
330
A
100
AcDbEntity
  8
0
  6
solid
 62
     7
100
AcDbSpline
210
0.0
220
0.0
230
1.0
 70
     8
 71
     2
 72
     6
 73
     3
 74
     0
 42
0.0000000001
 43
0.0000000001
 40
0.0
 40
0.0
 40
0.0
 40
1.0
 40
1.0
 40
1.0
 10
3.248624876079993
 20
4.357430739722124
 30
0.0
 10
3.255455987191104
 20
4.341287529845581
 30
0.0
 10
3.255455987191104
 20
4.327193208857926
 30
0.0
  0
SPLINE
  5
13A
330
A
100
AcDbEntity
  8
0
  6
solid
 62
     7
100
AcDbSpline
210
0.0
220
0.0
230
1.0
 70
     8
 71
     2
 72
     6
 73
     3
 74
     0
 42
0.0000000001
 43
0.0000000001
 40
0.0
 40
0.0
 40
0.0
 40
1.0
 40
1.0
 40
1.0
 10
3.255455987191104
 20
4.327193208857926
 30
0.0
 10
3.255455987191104
 20
4.31256703601842
 30
0.0
 10
3.248624876079993
 20
4.296344813796198
 30
0.0
  0
SPLINE
  5
13B
330
A
100
AcDbEntity
  8
0
  6
solid
 62
     7
100
AcDbSpline
210
0.0
220
0.0
230
1.0
 70
     8
 71
     2
 72
     7
 73
     4
 74
     0
 42
0.0000000001
 43
0.0000000001
 40
0.0
 40
0.0
 40
0.0
 40
1.0
 40
2.0
 40
2.0
 40
2.0
 10
3.248624876079993
 20
4.296344813796198
 30
0.0
 10
3.246386357561474
 20
4.289387282932
 30
0.0
 10
3.237869814351598
 20
4.276298887870272
 30
0.0
 10
3.233192777314561
 20
4.270995184166569
 30
0.0
  0
SPLINE
  5
13C
330
A
100
AcDbEntity
  8
0
  6
solid
 62
     7
100
AcDbSpline
210
0.0
220
0.0
230
1.0
 70
     8
 71
     2
 72
     6
 73
     3
 74
     0
 42
0.0000000001
 43
0.0000000001
 40
0.0
 40
0.0
 40
0.0
 40
1.0
 40
1.0
 40
1.0
 10
3.233192777314561
 20
4.270995184166569
 30
0.0
 10
3.224828826697277
 20
4.26234678910484
 30
0.0
 10
3.213789320524437
 20
4.26234678910484
 30
0.0
  0
SPLINE
  5
13D
330
A
100
AcDbEntity
  8
0
  6
solid
 62
     7
100
AcDbSpline
210
0.0
220
0.0
230
1.0
 70
     8
 71
     2
 72
     6
 73
     3
 74
     0
 42
0.0000000001
 43
0.0000000001
 40
0.0
 40
0.0
 40
0.0
 40
1.0
 40
1.0
 40
1.0
 10
3.213789320524437
 20
4.26234678910484
 30
0.0
 10
3.203524135339252
 20
4.26234678910484
 30
0.0
 10
3.194549320524437
 20
4.270995184166569
 30
0.0
  0
SPLINE
  5
13E
330
A
100
AcDbEntity
  8
0
  6
solid
 62
     7
100
AcDbSpline
210
0.0
220
0.0
230
1.0
 70
     8
 71
     2
 72
     7
 73
     4
 74
     0
 42
0.0000000001
 43
0.0000000001
 40
0.0
 40
0.0
 40
0.0
 40
1.0
 40
2.0
 40
2.0
 40
2.0
 10
3.194549320524437
 20
4.270995184166569
 30
0.0
 10
3.190830802005919
 20
4.275387776759161
 30
0.0
 10
3.182282653857771
 20
4.288944813796198
 30
0.0
 10
3.179933518055301
 20
4.296344813796198
 30
0.0
  0
SPLINE
  5
13F
330
A
100
AcDbEntity
  8
0
  6
solid
 62
     7
100
AcDbSpline
210
0.0
220
0.0
230
1.0
 70
     8
 71
     2
 72
     6
 73
     3
 74
     0
 42
0.0000000001
 43
0.0000000001
 40
0.0
 40
0.0
 40
0.0
 40
1.0
 40
1.0
 40
1.0
 10
3.179933518055301
 20
4.296344813796198
 30
0.0
 10
3.173665863734314
 20
4.31237740638879
 30
0.0
 10
3.173665863734314
 20
4.327193208857926
 30
0.0
  0
SPLINE
  5
140
330
A
100
AcDbEntity
  8
0
  6
solid
 62
     7
100
AcDbSpline
210
0.0
220
0.0
230
1.0
 70
     8
 71
     2
 72
     6
 73
     3
 74
     0
 42
0.0000000001
 43
0.0000000001
 40
0.0
 40
0.0
 40
0.0
 40
1.0
 40
1.0
 40
1.0
 10
3.173665863734314
 20
4.327193208857926
 30
0.0
 10
3.173665863734314
 20
4.341540369351753
 30
0.0
 10
3.179933518055301
 20
4.357430739722124
 30
0.0
  0
SPLINE
  5
141
330
A
100
AcDbEntity
  8
0
  6
solid
 62
     7
100
AcDbSpline
210
0.0
220
0.0
230
1.0
 70
     8
 71
     2
 72
     7
 73
     4
 74
     0
 42
0.0000000001
 43
0.0000000001
 40
0.0
 40
0.0
 40
0.0
 40
1.0
 40
2.0
 40
2.0
 40
2.0
 10
3.179933518055301
 20
4.357430739722124
 30
0.0
 10
3.182266851388635
 20
4.364704319969037
 30
0.0
 10
3.190846604475054
 20
4.378482591573976
 30
0.0
 10
3.194549320524437
 20
4.382843579228297
 30
0.0
  0
SPLINE
  5
142
330
A
100
AcDbEntity
  8
0
  6
solid
 62
     7
100
AcDbSpline
210
0.0
220
0.0
230
1.0
 70
     8
 71
     2
 72
     6
 73
     3
 74
     0
 42
0.0000000001
 43
0.0000000001
 40
0.0
 40
0.0
 40
0.0
 40
1.0
 40
1.0
 40
1.0
 10
3.194549320524437
 20
4.382843579228297
 30
0.0
 10
3.203476727931845
 20
4.391976418734469
 30
0.0
 10
3.213789320524437
 20
4.391976418734469
 30
0.0
  0
SPLINE
  5
143
330
A
100
AcDbEntity
  8
0
  6
solid
 62
     7
100
AcDbSpline
210
0.0
220
0.0
230
1.0
 70
     8
 71
     2
 72
     7
 73
     4
 74
     0
 42
0.0000000001
 43
0.0000000001
 40
0.0
 40
0.0
 40
0.0
 40
1.0
 40
2.0
 40
2.0
 40
2.0
 10
3.213225863734314
 20
4.38734678910484
 30
0.0
 10
3.211382406944191
 20
4.38734678910484
 30
0.0
 10
3.206247098302215
 20
4.382811974290025
 30
0.0
 10
3.203350308178758
 20
4.377255431080149
 30
0.0
  0
SPLINE
  5
144
330
A
100
AcDbEntity
  8
0
  6
solid
 62
     7
100
AcDbSpline
210
0.0
220
0.0
230
1.0
 70
     8
 71
     2
 72
     7
 73
     4
 74
     0
 42
0.0000000001
 43
0.0000000001
 40
0.0
 40
0.0
 40
0.0
 40
1.0
 40
2.0
 40
2.0
 40
2.0
 10
3.203350308178758
 20
4.377255431080149
 30
0.0
 10
3.201664876079993
 20
4.374058394043111
 30
0.0
 10
3.197493518055301
 20
4.361728517499901
 30
0.0
 10
3.196045122993573
 20
4.355239628611013
 30
0.0
  0
SPLINE
  5
145
330
A
100
AcDbEntity
  8
0
  6
solid
 62
     7
100
AcDbSpline
210
0.0
220
0.0
230
1.0
 70
     8
 71
     2
 72
     6
 73
     3
 74
     0
 42
0.0000000001
 43
0.0000000001
 40
0.0
 40
0.0
 40
0.0
 40
1.0
 40
1.0
 40
1.0
 10
3.196045122993573
 20
4.355239628611013
 30
0.0
 10
3.193727592129376
 20
4.34136654219126
 30
0.0
 10
3.193727592129376
 20
4.327161603919654
 30
0.0
  0
SPLINE
  5
146
330
A
100
AcDbEntity
  8
0
  6
solid
 62
     7
100
AcDbSpline
210
0.0
220
0.0
230
1.0
 70
     8
 71
     2
 72
     6
 73
     3
 74
     0
 42
0.0000000001
 43
0.0000000001
 40
0.0
 40
0.0
 40
0.0
 40
1.0
 40
1.0
 40
1.0
 10
3.193727592129376
 20
4.327161603919654
 30
0.0
 10
3.193727592129376
 20
4.31237740638879
 30
0.0
 10
3.196045122993573
 20
4.298520122438174
 30
0.0
  0
SPLINE
  5
147
330
A
100
AcDbEntity
  8
0
  6
solid
 62
     7
100
AcDbSpline
210
0.0
220
0.0
230
1.0
 70
     8
 71
     2
 72
     7
 73
     4
 74
     0
 42
0.0000000001
 43
0.0000000001
 40
0.0
 40
0.0
 40
0.0
 40
1.0
 40
2.0
 40
2.0
 40
2.0
 10
3.196045122993573
 20
4.298520122438174
 30
0.0
 10
3.197493518055301
 20
4.291904813796198
 30
0.0
 10
3.201680678549129
 20
4.279574937252988
 30
0.0
 10
3.203334505709622
 20
4.276520122438173
 30
0.0
  0
SPLINE
  5
148
330
A
100
AcDbEntity
  8
0
  6
solid
 62
     7
100
AcDbSpline
210
0.0
220
0.0
230
1.0
 70
     8
 71
     2
 72
     7
 73
     4
 74
     0
 42
0.0000000001
 43
0.0000000001
 40
0.0
 40
0.0
 40
0.0
 40
1.0
 40
2.0
 40
2.0
 40
2.0
 10
3.203334505709622
 20
4.276520122438173
 30
0.0
 10
3.206294505709623
 20
4.270837159475211
 30
0.0
 10
3.211398209413326
 20
4.266976418734469
 30
0.0
 10
3.21393154274666
 20
4.266976418734469
 30
0.0
  0
SPLINE
  5
149
330
A
100
AcDbEntity
  8
0
  6
solid
 62
     7
100
AcDbSpline
210
0.0
220
0.0
230
1.0
 70
     8
 71
     2
 72
     7
 73
     4
 74
     0
 42
0.0000000001
 43
0.0000000001
 40
0.0
 40
0.0
 40
0.0
 40
1.0
 40
2.0
 40
2.0
 40
2.0
 10
3.21393154274666
 20
4.266976418734469
 30
0.0
 10
3.216233271141721
 20
4.266976418734469
 30
0.0
 10
3.222406110647894
 20
4.271858887870272
 30
0.0
 10
3.225097468672585
 20
4.276520122438173
 30
0.0
  0
SPLINE
  5
14A
330
A
100
AcDbEntity
  8
0
  6
solid
 62
     7
100
AcDbSpline
210
0.0
220
0.0
230
1.0
 70
     8
 71
     2
 72
     7
 73
     4
 74
     0
 42
0.0000000001
 43
0.0000000001
 40
0.0
 40
0.0
 40
0.0
 40
1.0
 40
2.0
 40
2.0
 40
2.0
 10
3.225097468672585
 20
4.276520122438173
 30
0.0
 10
3.226893518055302
 20
4.279954196512248
 30
0.0
 10
3.2311122834874
 20
4.292205060709778
 30
0.0
 10
3.232450061265178
 20
4.298520122438174
 30
0.0
  0
SPLINE
  5
14B
330
A
100
AcDbEntity
  8
0
  6
solid
 62
     7
100
AcDbSpline
210
0.0
220
0.0
230
1.0
 70
     8
 71
     2
 72
     6
 73
     3
 74
     0
 42
0.0000000001
 43
0.0000000001
 40
0.0
 40
0.0
 40
0.0
 40
1.0
 40
1.0
 40
1.0
 10
3.232450061265178
 20
4.298520122438174
 30
0.0
 10
3.235394258796042
 20
4.312646048364099
 30
0.0
 10
3.235394258796042
 20
4.327161603919654
 30
0.0
  0
SPLINE
  5
14C
330
A
100
AcDbEntity
  8
0
  6
solid
 62
     7
100
AcDbSpline
210
0.0
220
0.0
230
1.0
 70
     8
 71
     2
 72
     6
 73
     3
 74
     0
 42
0.0000000001
 43
0.0000000001
 40
0.0
 40
0.0
 40
0.0
 40
1.0
 40
1.0
 40
1.0
 10
3.235394258796042
 20
4.327161603919654
 30
0.0
 10
3.235394258796042
 20
4.341097900215951
 30
0.0
 10
3.232450061265178
 20
4.355255431080149
 30
0.0
  0
SPLINE
  5
14D
330
A
100
AcDbEntity
  8
0
  6
solid
 62
     7
100
AcDbSpline
210
0.0
220
0.0
230
1.0
 70
     8
 71
     2
 72
     7
 73
     4
 74
     0
 42
0.0000000001
 43
0.0000000001
 40
0.0
 40
0.0
 40
0.0
 40
1.0
 40
2.0
 40
2.0
 40
2.0
 10
3.232450061265178
 20
4.355255431080149
 30
0.0
 10
3.231096481018265
 20
4.361475677993729
 30
0.0
 10
3.22686191311703
 20
4.37383715947521
 30
0.0
 10
3.225097468672585
 20
4.377255431080149
 30
0.0
  0
SPLINE
  5
14E
330
A
100
AcDbEntity
  8
0
  6
solid
 62
     7
100
AcDbSpline
210
0.0
220
0.0
230
1.0
 70
     8
 71
     2
 72
     7
 73
     4
 74
     0
 42
0.0000000001
 43
0.0000000001
 40
0.0
 40
0.0
 40
0.0
 40
1.0
 40
2.0
 40
2.0
 40
2.0
 10
3.225097468672585
 20
4.377255431080149
 30
0.0
 10
3.222390308178758
 20
4.381932468117185
 30
0.0
 10
3.216280678549129
 20
4.38734678910484
 30
0.0
 10
3.213225863734314
 20
4.38734678910484
 30
0.0
  0
LINE
  5
14F
330
A
100
AcDbEntity
  8
0
  6
solid
 62
     7
100
AcDbLine
 10
3.301283641512092
 20
4.388889998981383
 30
0.0
 11
3.307156234104684
 21
4.388889998981383
 31
0.0
  0
LINE
  5
150
330
A
100
AcDbEntity
  8
0
  6
solid
 62
     7
100
AcDbLine
 10
3.307156234104684
 20
4.388889998981383
 30
0.0
 11
3.307156234104684
 21
4.288944813796198
 31
0.0
  0
SPLINE
  5
151
330
A
100
AcDbEntity
  8
0
  6
solid
 62
     7
100
AcDbSpline
210
0.0
220
0.0
230
1.0
 70
     8
 71
     2
 72
     7
 73
     4
 74
     0
 42
0.0000000001
 43
0.0000000001
 40
0.0
 40
0.0
 40
0.0
 40
1.0
 40
2.0
 40
2.0
 40
2.0
 10
3.307156234104684
 20
4.288944813796198
 30
0.0
 10
3.307156234104684
 20
4.28168703601842
 30
0.0
 10
3.309157715586166
 20
4.273639134783852
 30
0.0
 10
3.310685122993573
 20
4.272253949598667
 30
0.0
  0
SPLINE
  5
152
330
A
100
AcDbEntity
  8
0
  6
solid
 62
     7
100
AcDbSpline
210
0.0
220
0.0
230
1.0
 70
     8
 71
     2
 72
     6
 73
     3
 74
     0
 42
0.0000000001
 43
0.0000000001
 40
0.0
 40
0.0
 40
0.0
 40
1.0
 40
1.0
 40
1.0
 10
3.310685122993573
 20
4.272253949598667
 30
0.0
 10
3.314903888425672
 20
4.26894629527768
 30
0.0
 10
3.325127098302215
 20
4.267813949598667
 30
0.0
  0
LINE
  5
153
330
A
100
AcDbEntity
  8
0
  6
solid
 62
     7
100
AcDbLine
 10
3.325127098302215
 20
4.267813949598667
 30
0.0
 11
3.325127098302215
 21
4.263889998981383
 31
0.0
  0
LINE
  5
154
330
A
100
AcDbEntity
  8
0
  6
solid
 62
     7
100
AcDbLine
 10
3.325127098302215
 20
4.263889998981383
 30
0.0
 11
3.268765616820734
 21
4.263889998981383
 31
0.0
  0
LINE
  5
155
330
A
100
AcDbEntity
  8
0
  6
solid
 62
     7
100
AcDbLine
 10
3.268765616820734
 20
4.263889998981383
 30
0.0
 11
3.268765616820734
 21
4.267892961944346
 31
0.0
  0
SPLINE
  5
156
330
A
100
AcDbEntity
  8
0
  6
solid
 62
     7
100
AcDbSpline
210
0.0
220
0.0
230
1.0
 70
     8
 71
     2
 72
     7
 73
     4
 74
     0
 42
0.0000000001
 43
0.0000000001
 40
0.0
 40
0.0
 40
0.0
 40
1.0
 40
2.0
 40
2.0
 40
2.0
 10
3.268765616820734
 20
4.267892961944346
 30
0.0
 10
3.275586357561474
 20
4.268804073055457
 30
0.0
 10
3.281253518055302
 20
4.270552715030766
 30
0.0
 10
3.283128579783697
 20
4.272538394043111
 30
0.0
  0
SPLINE
  5
157
330
A
100
AcDbEntity
  8
0
  6
solid
 62
     7
100
AcDbSpline
210
0.0
220
0.0
230
1.0
 70
     8
 71
     2
 72
     7
 73
     4
 74
     0
 42
0.0000000001
 43
0.0000000001
 40
0.0
 40
0.0
 40
0.0
 40
1.0
 40
2.0
 40
2.0
 40
2.0
 10
3.283128579783697
 20
4.272538394043111
 30
0.0
 10
3.285003641512092
 20
4.275024319969038
 30
0.0
 10
3.287094505709623
 20
4.281465801450519
 30
0.0
 10
3.287094505709623
 20
4.288597159475211
 30
0.0
  0
LINE
  5
158
330
A
100
AcDbEntity
  8
0
  6
solid
 62
     7
100
AcDbLine
 10
3.287094505709623
 20
4.288597159475211
 30
0.0
 11
3.287094505709623
 21
4.372262344660396
 31
0.0
  0
SPLINE
  5
159
330
A
100
AcDbEntity
  8
0
  6
solid
 62
     7
100
AcDbSpline
210
0.0
220
0.0
230
1.0
 70
     8
 71
     2
 72
     6
 73
     3
 74
     0
 42
0.0000000001
 43
0.0000000001
 40
0.0
 40
0.0
 40
0.0
 40
1.0
 40
1.0
 40
1.0
 10
3.287094505709623
 20
4.372262344660396
 30
0.0
 10
3.284055493363943
 20
4.371914690339408
 30
0.0
 10
3.281253518055302
 20
4.371914690339408
 30
0.0
  0
SPLINE
  5
15A
330
A
100
AcDbEntity
  8
0
  6
solid
 62
     7
100
AcDbSpline
210
0.0
220
0.0
230
1.0
 70
     8
 71
     2
 72
     6
 73
     3
 74
     0
 42
0.0000000001
 43
0.0000000001
 40
0.0
 40
0.0
 40
0.0
 40
1.0
 40
1.0
 40
1.0
 10
3.281253518055302
 20
4.371914690339408
 30
0.0
 10
3.274153764968882
 20
4.371914690339408
 30
0.0
 10
3.269050061265178
 20
4.373758147129532
 30
0.0
  0
LINE
  5
15B
330
A
100
AcDbEntity
  8
0
  6
solid
 62
     7
100
AcDbLine
 10
3.269050061265178
 20
4.373758147129532
 30
0.0
 11
3.269050061265178
 21
4.378087529845581
 31
0.0
  0
LINE
  5
15C
330
A
100
AcDbEntity
  8
0
  6
solid
 62
     7
100
AcDbLine
 10
3.269050061265178
 20
4.378087529845581
 30
0.0
 11
3.272468332870116
 21
4.378087529845581
 31
0.0
  0
SPLINE
  5
15D
330
A
100
AcDbEntity
  8
0
  6
solid
 62
     7
100
AcDbSpline
210
0.0
220
0.0
230
1.0
 70
     8
 71
     2
 72
     7
 73
     4
 74
     0
 42
0.0000000001
 43
0.0000000001
 40
0.0
 40
0.0
 40
0.0
 40
1.0
 40
2.0
 40
2.0
 40
2.0
 10
3.272468332870116
 20
4.378087529845581
 30
0.0
 10
3.27944166620345
 20
4.378087529845581
 30
0.0
 10
3.291065863734314
 20
4.381948270586321
 30
0.0
 10
3.2985922834874
 20
4.386735924907309
 30
0.0
  0
LINE
  5
15E
330
A
100
AcDbEntity
  8
0
  6
solid
 62
     7
100
AcDbLine
 10
3.301283641512092
 20
4.388889998981383
 30
0.0
 11
3.2985922834874
 21
4.386735924907309
 31
0.0
  0
LINE
  5
15F
330
A
100
AcDbEntity
  8
1
  6
solid
 62
     7
100
AcDbLine
 10
-1.889227097388162
 20
3.352464774958804
 30
0.0
 11
-1.713068067388244
 21
3.166403050172661
 31
0.0
  0
ARC
  5
160
330
A
100
AcDbEntity
  8
1
  6
solid
 62
     7
100
AcDbCircle
 10
-1.498311550995631
 20
3.124329286757974
 30
0.0
 40
0.2188391131232195
100
AcDbArc
 50
22.50871684977184
 51
168.915365087134
  0
LINE
  5
161
330
A
100
AcDbEntity
  8
1
  6
solid
 62
     7
100
AcDbLine
 10
-1.198332506978161
 20
3.300711209090638
 30
0.0
 11
-1.103096620390932
 21
3.200121683138061
 31
0.0
  0
LINE
  5
162
330
A
100
AcDbEntity
  8
1
  6
solid
 62
     7
100
AcDbLine
 10
-1.103096620357601
 20
3.200121683102857
 30
0.0
 11
-1.591841151076774
 21
2.73738942289075
 31
0.0
  0
LINE
  5
163
330
A
100
AcDbEntity
  8
1
  6
solid
 62
     7
100
AcDbLine
 10
-1.591841188620392
 20
2.737389383779519
 30
0.0
 11
-5.922677747040334
 21
2.737389012647041
 31
0.0
  0
LINE
  5
164
330
A
100
AcDbEntity
  8
1
  6
solid
 62
     7
100
AcDbLine
 10
-6.290058887159241
 20
3.125422306142187
 30
0.0
 11
-6.136630769744363
 21
3.270684575260588
 31
0.0
  0
LINE
  5
165
330
A
100
AcDbEntity
  8
1
  6
solid
 62
     7
100
AcDbLine
 10
-6.136630769727003
 20
3.270684575277023
 30
0.0
 11
-6.006310710059214
 21
3.1330386363999
 31
0.0
  0
ARC
  5
166
330
A
100
AcDbEntity
  8
1
  6
solid
 62
     7
100
AcDbCircle
 10
-5.888477436166322
 20
3.123114891256524
 30
0.0
 40
0.1182502959347239
100
AcDbArc
 50
50.66459305865766
 51
175.1859148045691
  0
ARC
  5
167
330
A
100
AcDbEntity
  8
1
  6
solid
 62
     7
100
AcDbCircle
 10
-5.326693773973783
 20
3.058402743469855
 30
0.0
 40
0.511266220263612
100
AcDbArc
 50
39.59698234339179
 51
162.2140048258194
  0
ARC
  5
168
330
A
100
AcDbEntity
  8
1
  6
solid
 62
     7
100
AcDbCircle
 10
-4.851514658002984
 20
3.38687429892095
 30
0.0
 40
0.0812660873593299
100
AcDbArc
 50
39.16839751941996
 51
181.8327274347021
  0
ARC
  5
169
330
A
100
AcDbEntity
  8
1
  6
solid
 62
     7
100
AcDbCircle
 10
-4.639987688653331
 20
3.371773732235885
 30
0.0
 40
0.1627005658343663
100
AcDbArc
 50
1.812389857030871
 51
155.9028067997392
  0
ARC
  5
16A
330
A
100
AcDbEntity
  8
1
  6
solid
 62
     7
100
AcDbCircle
 10
-4.457281022064136
 20
3.265248785973294
 30
0.0
 40
0.1134628993711704
100
AcDbArc
 50
11.3450674939881
 51
100.1974160607384
  0
ARC
  5
16B
330
A
100
AcDbEntity
  8
1
  6
solid
 62
     7
100
AcDbCircle
 10
-4.315900331522573
 20
3.224509513015739
 30
0.0
 40
0.0698899841233421
100
AcDbArc
 50
3.265170702323011
 51
115.542251761836
  0
ARC
  5
16C
330
A
100
AcDbEntity
  8
1
  6
solid
 62
     7
100
AcDbCircle
 10
-3.571436097742881
 20
2.757125201229152
 30
0.0
 40
0.8230360716794844
100
AcDbArc
 50
105.3600339743374
 51
145.0602367881076
  0
ARC
  5
16D
330
A
100
AcDbEntity
  8
1
  6
solid
 62
     7
100
AcDbCircle
 10
-3.654396843120284
 20
3.061488556093756
 30
0.0
 40
0.5075698429543261
100
AcDbArc
 50
67.04384267523344
 51
105.4304141346429
  0
ARC
  5
16E
330
A
100
AcDbEntity
  8
1
  6
solid
 62
     7
100
AcDbCircle
 10
-4.868044650535224
 20
1.266227084193138
 30
0.0
 40
2.666864012404068
100
AcDbArc
 50
50.30498318829129
 51
58.04075425971242
  0
ARC
  5
16F
330
A
100
AcDbEntity
  8
1
  6
solid
 62
     7
100
AcDbCircle
 10
-2.549873896166613
 20
4.189361407383856
 30
0.0
 40
1.066231760031453
100
AcDbArc
 50
234.7847489476951
 51
308.2875874876631
  0
LINE
  5
170
330
A
100
AcDbEntity
  8
1
  6
solid
 62
     7
100
AcDbLine
 10
-6.290058887174418
 20
3.125422306127819
 30
0.0
 11
-5.922677747040334
 21
2.737389012647041
 31
0.0
  0
LINE
  5
171
330
A
100
AcDbEntity
  8
1
  6
solid
 62
     7
100
AcDbLine
 10
-1.296143126728935
 20
3.208106094199486
 30
0.0
 11
-1.198332316965582
 21
3.300711155187838
 31
0.0
  0
LINE
  5
1E9
330
A
100
AcDbEntity
  8
0
  6
solid
 62
     7
370
     0
100
AcDbLine
 10
-6.308775378216563
 20
2.737389087677001
 30
0.0
 11
-6.569873239495871
 21
2.737389087677001
 31
0.0
  0
LINE
  5
1EA
330
A
100
AcDbEntity
  8
0
  6
solid
 62
     7
370
     0
100
AcDbLine
 10
-5.697827389550052
 20
3.567964076995849
 30
0.0
 11
-6.56987323949587
 21
3.567964076995851
 31
0.0
  0
LINE
  5
1EB
330
A
100
AcDbEntity
  8
0
  6
solid
 62
     7
370
     0
100
AcDbLine
 10
-6.507373239495871
 20
2.737389087677001
 30
0.0
 11
-6.507373239495871
 21
3.152676582336426
 31
0.0
  0
LINE
  5
1EC
330
A
100
AcDbEntity
  8
0
  6
solid
 62
     7
370
     0
100
AcDbLine
 10
-6.50737323949587
 20
3.567964076995851
 30
0.0
 11
-6.507373239495871
 21
3.152676582336426
 31
0.0
  0
MTEXT
  5
1ED
330
A
100
AcDbEntity
  8
0
  6
solid
 62
     7
370
     0
100
AcDbMText
 10
-6.896835739495871
 20
3.152676582336426
 30
0.0
 40
0.125
 41
0.0
 71
     5
 72
     1
  1
{\H0.125000;13/16}
 73
     1
 44
1.0
  0
SOLID
  5
1EE
330
A
100
AcDbEntity
  8
0
  6
solid
 62
     7
370
     0
100
AcDbTrace
 10
-6.528188239495872
 20
2.862389087677001
 30
0.0
 11
-6.486558239495872
 21
2.862389087677001
 31
0.0
 12
-6.507373239495871
 22
2.737389087677001
 32
0.0
 13
-6.507373239495871
 23
2.737389087677001
 33
0.0
  0
SOLID
  5
1EF
330
A
100
AcDbEntity
  8
0
  6
solid
 62
     7
370
     0
100
AcDbTrace
 10
-6.486558239495871
 20
3.442964076995851
 30
0.0
 11
-6.528188239495871
 21
3.442964076995851
 31
0.0
 12
-6.50737323949587
 22
3.567964076995851
 32
0.0
 13
-6.50737323949587
 23
3.567964076995851
 33
0.0
  0
LINE
  5
1F2
330
A
100
AcDbEntity
  8
0
  6
solid
 62
     7
370
     0
100
AcDbLine
 10
-6.290059089660644
 20
2.631331432051726
 30
0.0
 11
-6.290059089660644
 21
2.262240624799863
 31
0.0
  0
LINE
  5
1F3
330
A
100
AcDbEntity
  8
0
  6
solid
 62
     7
370
     0
100
AcDbLine
 10
-1.103096604347229
 20
3.075121641159057
 30
0.0
 11
-1.103096604347229
 21
2.262240624799863
 31
0.0
  0
LINE
  5
1F4
330
A
100
AcDbEntity
  8
0
  6
solid
 62
     7
370
     0
100
AcDbLine
 10
-6.290059089660644
 20
2.324740624799863
 30
0.0
 11
-3.696577847003936
 21
2.324740624799863
 31
0.0
  0
LINE
  5
1F5
330
A
100
AcDbEntity
  8
0
  6
solid
 62
     7
370
     0
100
AcDbLine
 10
-1.103096604347229
 20
2.324740624799863
 30
0.0
 11
-3.696577847003936
 21
2.324740624799863
 31
0.0
  0
MTEXT
  5
1F6
330
A
100
AcDbEntity
  8
0
  6
solid
 62
     7
370
     0
100
AcDbMText
 10
-3.696577847003936
 20
2.42832572095371
 30
0.0
 40
0.125
 41
0.0
 71
     5
 72
     1
  1
{\H0.125000;5 3/16}
 73
     1
 44
1.0
  0
SOLID
  5
1F7
330
A
100
AcDbEntity
  8
0
  6
solid
 62
     7
370
     0
100
AcDbTrace
 10
-6.165059089660644
 20
2.345555624799863
 30
0.0
 11
-6.165059089660644
 21
2.303925624799863
 31
0.0
 12
-6.290059089660644
 22
2.324740624799863
 32
0.0
 13
-6.290059089660644
 23
2.324740624799863
 33
0.0
  0
SOLID
  5
1F8
330
A
100
AcDbEntity
  8
0
  6
solid
 62
     7
370
     0
100
AcDbTrace
 10
-1.228096604347229
 20
2.303925624799863
 30
0.0
 11
-1.228096604347229
 21
2.345555624799863
 31
0.0
 12
-1.103096604347229
 22
2.324740624799863
 32
0.0
 13
-1.103096604347229
 23
2.324740624799863
 33
0.0
  0
LINE
  5
206
330
A
100
AcDbEntity
  8
1
  6
solid
 62
     7
370
     0
100
AcDbLine
 10
0.073869839310646
 20
1.170561909675597
 30
0.0
 11
-0.2362433172089644
 21
1.170561909675598
 31
0.0
  0
LINE
  5
207
330
A
100
AcDbEntity
  8
1
  6
solid
 62
     7
370
     0
100
AcDbLine
 10
0.1206962357090262
 20
4.9885196685791
 30
0.0
 11
-0.2362433172089617
 21
4.988519668579103
 31
0.0
  0
LINE
  5
208
330
A
100
AcDbEntity
  8
1
  6
solid
 62
     7
370
     0
100
AcDbLine
 10
-0.1737433172089644
 20
1.170561909675598
 30
0.0
 11
-0.1737433172089631
 21
2.919668192973503
 31
0.0
  0
LINE
  5
209
330
A
100
AcDbEntity
  8
1
  6
solid
 62
     7
370
     0
100
AcDbLine
 10
-0.1737433172089616
 20
4.988519668579103
 30
0.0
 11
-0.1737433172089629
 21
3.239413385281195
 31
0.0
  0
MTEXT
  5
20A
330
A
100
AcDbEntity
  8
1
  6
solid
 62
     7
370
     0
100
AcDbMText
 10
-0.173743317208963
 20
3.079540789127349
 30
0.0
 40
0.125
 41
0.0
 71
     5
 72
     1
  1
{\H0.125000;3 7/8}
 73
     1
 44
1.0
  0
SOLID
  5
20B
330
A
100
AcDbEntity
  8
1
  6
solid
 62
     7
370
     0
100
AcDbTrace
 10
-0.1945558172089642
 20
1.295561909675598
 30
0.0
 11
-0.1529308172089641
 21
1.295561909675598
 31
0.0
 12
-0.1737433172089644
 22
1.170561909675598
 32
0.0
 13
-0.1737433172089644
 23
1.170561909675598
 33
0.0
  0
SOLID
  5
20C
330
A
100
AcDbEntity
  8
1
  6
solid
 62
     7
370
     0
100
AcDbTrace
 10
-0.1529308172089617
 20
4.863519668579103
 30
0.0
 11
-0.1945558172089617
 21
4.863519668579103
 31
0.0
 12
-0.1737433172089616
 22
4.988519668579103
 32
0.0
 13
-0.1737433172089616
 23
4.988519668579103
 33
0.0
  0
LINE
  5
20D
330
A
100
AcDbEntity
  8
1
  6
solid
 62
     7
370
     0
100
AcDbLine
 10
0.198869839310646
 20
5.05450358300105
 30
0.0
 11
0.198869839310646
 21
5.238770497757109
 31
0.0
  0
LINE
  5
20E
330
A
100
AcDbEntity
  8
1
  6
solid
 62
     7
370
     0
100
AcDbLine
 10
3.710757732391356
 20
5.1135196685791
 30
0.0
 11
3.710757732391356
 21
5.238770497757109
 31
0.0
  0
LINE
  5
20F
330
A
100
AcDbEntity
  8
1
  6
solid
 62
     7
370
     0
100
AcDbLine
 10
0.198869839310646
 20
5.176270497757109
 30
0.0
 11
1.483436033509782
 21
5.176270497757109
 31
0.0
  0
LINE
  5
210
330
A
100
AcDbEntity
  8
1
  6
solid
 62
     7
370
     0
100
AcDbLine
 10
3.710757732391356
 20
5.176270497757109
 30
0.0
 11
2.387909338153303
 21
5.176270497757109
 31
0.0
  0
MTEXT
  5
211
330
A
100
AcDbEntity
  8
1
  6
solid
 62
     7
370
     0
100
AcDbMText
 10
1.954813785851001
 20
5.176270497757109
 30
0.0
 40
0.125
 41
0.0
 71
     5
 72
     1
  1
{\H0.125000;3 1/2}
 73
     1
 44
1.0
  0
SOLID
  5
212
330
A
100
AcDbEntity
  8
1
  6
solid
 62
     7
370
     0
100
AcDbTrace
 10
0.3238698393106461
 20
5.197082997757109
 30
0.0
 11
0.3238698393106461
 21
5.155457997757108
 31
0.0
 12
0.198869839310646
 22
5.176270497757109
 32
0.0
 13
0.198869839310646
 23
5.176270497757109
 33
0.0
  0
SOLID
  5
213
330
A
100
AcDbEntity
  8
1
  6
solid
 62
     7
370
     0
100
AcDbTrace
 10
3.585757732391356
 20
5.155457997757108
 30
0.0
 11
3.585757732391356
 21
5.197082997757109
 31
0.0
 12
3.710757732391356
 22
5.176270497757109
 32
0.0
 13
3.710757732391356
 23
5.176270497757109
 33
0.0
  0
VIEWPORT
  5
1A5
330
B
100
AcDbEntity
 67
     1
  8
0
  6
Continuous
370
     0
100
AcDbViewport
 10
5.142952356186205
 20
3.968749910906531
 30
0.0
 40
15.41157581003263
 41
8.154357679112901
 68
     1
 69
     1
 12
5.142952356186205
 22
3.968749910906531
 13
0.0
 23
0.0
 14
0.5
 24
0.5
 15
0.5
 25
0.5
 16
0.0
 26
0.0
 36
1.0
 17
0.0
 27
0.0
 37
0.0
 42
50.0
 43
0.0
 44
0.0
 45
8.154357679112901
 50
0.0
 51
0.0
 72
   100
 90
   819232
  1

281
     0
 71
     1
 74
     0
110
0.0
120
0.0
130
0.0
111
1.0
121
0.0
131
0.0
112
0.0
122
1.0
132
0.0
 79
     0
146
0.0
170
     0
  0
VIEWPORT
  5
1A8
330
B
100
AcDbEntity
 67
     1
  8
0
  6
Continuous
370
     0
100
AcDbViewport
 10
5.142913548933869
 20
3.96874996762399
 30
0.0
 40
10.46623009689723
 41
8.058433111493609
 68
     2
 69
     2
 12
-1.510098655358175
 22
2.867216537382697
 13
0.0
 23
0.0
 14
0.5
 24
0.5
 15
0.5
 25
0.5
 16
0.0
 26
0.0
 36
1.0
 17
0.0
 27
0.0
 37
0.0
 42
50.0
 43
0.0
 44
0.0
 45
11.19298134100054
 50
0.0
 51
0.0
 72
   100
 90
   819232
  1

281
     0
 71
     1
 74
     0
110
0.0
120
0.0
130
0.0
111
1.0
121
0.0
131
0.0
112
0.0
122
1.0
132
0.0
 79
     0
146
0.0
170
     0
  0
ENDSEC
  0
SECTION
  2
OBJECTS
  0
DICTIONARY
  5
19
330
0
100
AcDbDictionary
281
     1
  3
ACAD_COLOR
350
19E
  3
ACAD_GROUP
350
1A
  3
ACAD_LAYOUT
350
1E
  3
ACAD_MATERIAL
350
189
  3
ACAD_MLEADERSTYLE
350
1D2
  3
ACAD_MLINESTYLE
350
1B
  3
ACAD_PLOTSETTINGS
350
22
  3
ACAD_PLOTSTYLENAME
350
1F
  3
ACAD_SCALELIST
350
1B0
  3
ACAD_TABLESTYLE
350
19F
  3
ACAD_VISUALSTYLE
350
18D
  3
ACAD_WIPEOUT_VARS
350
23
  3
ACDB_RECOMPOSE_DATA
350
22A
  3
AcDbVariableDictionary
350
1AD
  3
ASE_INDEX_DICTIONARY
350
1AA
  0
DICTIONARY
  5
1DB
330
14
100
AcDbDictionary
280
     1
281
     1
  3
ADSK_XREC_LAYER_RECONCILED
360
1DC
  0
DICTIONARY
  5
1DD
330
27
100
AcDbDictionary
280
     1
281
     1
  3
ADSK_XREC_LAYER_RECONCILED
360
1DE
  0
DICTIONARY
  5
1DF
330
E8
100
AcDbDictionary
280
     1
281
     1
  3
ADSK_XREC_LAYER_RECONCILED
360
1E0
  0
DICTIONARY
  5
1F0
330
A
100
AcDbDictionary
280
     1
281
     1
  3
ACAD_SORTENTS
360
1F1
  0
DICTIONARY
  5
19E
102
{ACAD_REACTORS
330
19
102
}
330
19
100
AcDbDictionary
281
     1
  0
DICTIONARY
  5
1A
102
{ACAD_REACTORS
330
19
102
}
330
19
100
AcDbDictionary
281
     1
  0
DICTIONARY
  5
1E
102
{ACAD_REACTORS
330
19
102
}
330
19
100
AcDbDictionary
281
     1
  3
Layout1
350
21
  3
Model
350
20
  0
DICTIONARY
  5
189
102
{ACAD_REACTORS
330
19
102
}
330
19
100
AcDbDictionary
281
     1
  3
ByBlock
350
18B
  3
ByLayer
350
18A
  3
Global
350
18C
  0
DICTIONARY
  5
1D2
102
{ACAD_REACTORS
330
19
102
}
330
19
100
AcDbDictionary
281
     1
  3
Standard
350
1D3
  0
DICTIONARY
  5
1B
102
{ACAD_REACTORS
330
19
102
}
330
19
100
AcDbDictionary
281
     1
  3
Standard
350
1C
  0
DICTIONARY
  5
22
102
{ACAD_REACTORS
330
19
102
}
330
19
100
AcDbDictionary
281
     1
  0
ACDBDICTIONARYWDFLT
  5
1F
102
{ACAD_REACTORS
330
19
102
}
330
19
100
AcDbDictionary
281
     1
  3
Normal
350
1D
100
AcDbDictionaryWithDefault
340
1D
  0
DICTIONARY
  5
1B0
102
{ACAD_REACTORS
330
19
102
}
330
19
100
AcDbDictionary
281
     1
  3
A0
350
1B1
  3
A1
350
1B2
  3
A2
350
1B3
  3
A3
350
1B4
  3
A4
350
1B5
  3
A5
350
1B6
  3
A6
350
1B7
  3
A7
350
1B8
  3
A8
350
1B9
  3
A9
350
1BA
  3
B0
350
1BB
  3
B1
350
1BC
  3
B2
350
1BD
  3
B3
350
1BE
  3
B4
350
1BF
  3
B5
350
1C0
  3
B6
350
1C1
  3
B7
350
1C2
  3
B8
350
1C3
  3
B9
350
1C4
  3
C0
350
1C5
  3
C1
350
1C6
  3
C2
350
1C7
  3
C3
350
1C8
  3
C4
350
1C9
  3
C5
350
1CA
  3
C6
350
1CB
  3
C7
350
1CC
  3
C8
350
1CD
  3
C9
350
1CE
  3
D0
350
1CF
  3
D1
350
1D0
  3
D2
350
1D1
  0
DICTIONARY
  5
19F
102
{ACAD_REACTORS
330
19
102
}
330
19
100
AcDbDictionary
281
     1
  3
Standard
350
1A0
  0
DICTIONARY
  5
18D
102
{ACAD_REACTORS
330
19
102
}
330
19
100
AcDbDictionary
281
     1
  3
2dWireframe
350
193
  3
3D Hidden
350
195
  3
3dWireframe
350
194
  3
Basic
350
192
  3
Brighten
350
199
  3
ColorChange
350
19D
  3
Conceptual
350
196
  3
Dim
350
198
  3
Facepattern
350
19C
  3
Flat
350
18E
  3
FlatWithEdges
350
18F
  3
Gouraud
350
190
  3
GouraudWithEdges
350
191
  3
Linepattern
350
19B
  3
Realistic
350
197
  3
Thicken
350
19A
  0
WIPEOUTVARIABLES
  5
23
330
19
100
AcDbWipeoutVariables
 70
     1
  0
XRECORD
  5
22A
102
{ACAD_REACTORS
330
19
102
}
330
19
100
AcDbXrecord
280
     1
 90
        1
330
1A0
  0
DICTIONARY
  5
1AD
102
{ACAD_REACTORS
330
19
102
}
330
19
100
AcDbDictionary
281
     1
  3
CANNOSCALE
350
227
  3
CMLEADERSTYLE
350
226
  3
CTABLESTYLE
350
1AE
  0
DICTIONARY
  5
1AA
102
{ACAD_REACTORS
330
19
102
}
330
19
100
AcDbDictionary
281
     1
  3
ASEBlockHierarchyIndexRecord
350
1AC
1001
DCO15
1040
1645033079.44
  0
XRECORD
  5
1DC
102
{ACAD_REACTORS
330
1DB
102
}
330
1DB
100
AcDbXrecord
280
     1
290
     1
  0
XRECORD
  5
1DE
102
{ACAD_REACTORS
330
1DD
102
}
330
1DD
100
AcDbXrecord
280
     1
290
     1
  0
XRECORD
  5
1E0
102
{ACAD_REACTORS
330
1DF
102
}
330
1DF
100
AcDbXrecord
280
     1
290
     1
  0
SORTENTSTABLE
  5
1F1
102
{ACAD_REACTORS
330
1F0
102
}
330
1F0
100
AcDbSortentsTable
330
A
331
137
  5
145
331
115
  5
123
331
F3
  5
101
331
159
  5
167
331
1F3
  5
20E
331
EA
  5
F8
331
148
  5
156
331
126
  5
134
331
104
  5
112
331
C8
  5
C8
331
A6
  5
A6
331
84
  5
84
331
6C
  5
6C
331
4A
  5
4A
331
B7
  5
B7
331
95
  5
95
331
5B
  5
5B
331
39
  5
39
331
28
  5
28
331
157
  5
165
331
135
  5
143
331
113
  5
121
331
F1
  5
FF
331
171
  5
1F8
331
102
  5
110
331
146
  5
154
331
124
  5
132
331
213
  5
EF
331
C6
  5
C6
331
A4
  5
A4
331
82
  5
82
331
6A
  5
6A
331
48
  5
48
331
B5
  5
B5
331
93
  5
93
331
59
  5
59
331
37
  5
37
331
155
  5
163
331
133
  5
141
331
111
  5
11F
331
16F
  5
1F6
331
1EF
  5
20C
331
100
  5
10E
331
144
  5
152
331
122
  5
130
331
211
  5
ED
331
C4
  5
C4
331
A2
  5
A2
331
80
  5
80
331
68
  5
68
331
46
  5
46
331
166
  5
1EA
331
B3
  5
B3
331
91
  5
91
331
57
  5
57
331
35
  5
35
331
153
  5
161
331
131
  5
13F
331
16D
  5
1F4
331
1ED
  5
20A
331
FE
  5
10C
331
142
  5
150
331
120
  5
12E
331
20F
  5
EB
331
C2
  5
C2
331
A0
  5
A0
331
7E
  5
7E
331
66
  5
66
331
44
  5
44
331
164
  5
187
331
10F
  5
11D
331
B1
  5
B1
331
8F
  5
8F
331
77
  5
77
331
55
  5
55
331
33
  5
33
331
151
  5
15F
331
16B
  5
1F2
331
1EB
  5
208
331
FC
  5
10A
331
140
  5
14E
331
11E
  5
12C
331
20D
  5
E9
331
C0
  5
C0
331
9E
  5
9E
331
7C
  5
7C
331
64
  5
64
331
42
  5
42
331
162
  5
170
331
12F
  5
13D
331
10D
  5
11B
331
D1
  5
D1
331
AF
  5
AF
331
8D
  5
8D
331
75
  5
75
331
53
  5
53
331
31
  5
31
331
169
  5
1ED
331
1E9
  5
206
331
FA
  5
108
331
13E
  5
14C
331
11C
  5
12A
331
20B
  5
F5
331
BE
  5
BE
331
9C
  5
9C
331
7A
  5
7A
331
62
  5
62
331
40
  5
40
331
160
  5
16E
331
14F
  5
15D
331
12D
  5
13B
331
10B
  5
119
331
CF
  5
CF
331
AD
  5
AD
331
8B
  5
8B
331
73
  5
73
331
51
  5
51
331
2F
  5
2F
331
F8
  5
106
331
13C
  5
14A
331
11A
  5
128
331
209
  5
F3
331
BC
  5
BC
331
9A
  5
9A
331
78
  5
78
331
60
  5
60
331
15E
  5
16C
331
1F8
  5
213
331
EF
  5
FD
331
14D
  5
15B
331
12B
  5
139
331
109
  5
117
331
CD
  5
CD
331
AB
  5
AB
331
89
  5
89
331
71
  5
71
331
4F
  5
4F
331
3E
  5
3E
331
2D
  5
2D
331
F6
  5
104
331
13A
  5
148
331
118
  5
126
331
207
  5
F1
331
BA
  5
BA
331
98
  5
98
331
15C
  5
16A
331
1F6
  5
211
331
ED
  5
FB
331
14B
  5
159
331
129
  5
137
331
107
  5
115
331
CB
  5
CB
331
A9
  5
A9
331
87
  5
87
331
6F
  5
6F
331
4D
  5
4D
331
5E
  5
5E
331
3C
  5
3C
331
2B
  5
2B
331
138
  5
146
331
116
  5
124
331
F4
  5
102
331
B8
  5
B8
331
15A
  5
168
331
1F4
  5
20F
331
EB
  5
F9
331
149
  5
157
331
127
  5
135
331
105
  5
113
331
C9
  5
C9
331
A7
  5
A7
331
85
  5
85
331
6D
  5
6D
331
4B
  5
4B
331
96
  5
96
331
5C
  5
5C
331
3A
  5
3A
331
29
  5
29
331
158
  5
166
331
136
  5
144
331
114
  5
122
331
F2
  5
100
331
1F2
  5
20D
331
E9
  5
F7
331
147
  5
155
331
125
  5
133
331
103
  5
111
331
C7
  5
C7
331
A5
  5
A5
331
83
  5
83
331
6B
  5
6B
331
49
  5
49
331
B6
  5
B6
331
94
  5
94
331
5A
  5
5A
331
38
  5
38
331
156
  5
164
331
134
  5
142
331
112
  5
120
331
F0
  5
FE
331
170
  5
1F7
331
101
  5
10F
331
145
  5
153
331
123
  5
131
331
212
  5
EE
331
C5
  5
C5
331
A3
  5
A3
331
81
  5
81
331
69
  5
69
331
47
  5
47
331
167
  5
1EB
331
B4
  5
B4
331
92
  5
92
331
58
  5
58
331
36
  5
36
331
154
  5
162
331
132
  5
140
331
110
  5
11E
331
16E
  5
1F5
331
1EE
  5
20B
331
FF
  5
10D
331
143
  5
151
331
121
  5
12F
331
210
  5
EC
331
C3
  5
C3
331
A1
  5
A1
331
7F
  5
7F
331
67
  5
67
331
45
  5
45
331
165
  5
1E9
331
B2
  5
B2
331
90
  5
90
331
56
  5
56
331
34
  5
34
331
152
  5
160
331
130
  5
13E
331
16C
  5
1F3
331
1EC
  5
209
331
FD
  5
10B
331
141
  5
14F
331
11F
  5
12D
331
20E
  5
EA
331
C1
  5
C1
331
9F
  5
9F
331
7D
  5
7D
331
65
  5
65
331
43
  5
43
331
163
  5
171
331
10E
  5
11C
331
B0
  5
B0
331
8E
  5
8E
331
76
  5
76
331
54
  5
54
331
32
  5
32
331
150
  5
15E
331
16A
  5
1EE
331
1EA
  5
207
331
FB
  5
109
331
13F
  5
14D
331
11D
  5
12B
331
20C
  5
F6
331
BF
  5
BF
331
9D
  5
9D
331
7B
  5
7B
331
63
  5
63
331
41
  5
41
331
161
  5
16F
331
12E
  5
13C
331
10C
  5
11A
331
D0
  5
D0
331
AE
  5
AE
331
8C
  5
8C
331
74
  5
74
331
52
  5
52
331
30
  5
30
331
168
  5
1EC
331
F9
  5
107
331
13D
  5
14B
331
11B
  5
129
331
20A
  5
F4
331
BD
  5
BD
331
9B
  5
9B
331
79
  5
79
331
61
  5
61
331
15F
  5
16D
331
14E
  5
15C
331
12C
  5
13A
331
10A
  5
118
331
CE
  5
CE
331
AC
  5
AC
331
8A
  5
8A
331
72
  5
72
331
50
  5
50
331
3F
  5
3F
331
2E
  5
2E
331
F7
  5
105
331
13B
  5
149
331
119
  5
127
331
208
  5
F2
331
BB
  5
BB
331
99
  5
99
331
15D
  5
16B
331
1F7
  5
212
331
EE
  5
FC
331
14C
  5
15A
331
12A
  5
138
331
108
  5
116
331
CC
  5
CC
331
AA
  5
AA
331
88
  5
88
331
70
  5
70
331
4E
  5
4E
331
5F
  5
5F
331
3D
  5
3D
331
2C
  5
2C
331
F5
  5
103
331
139
  5
147
331
117
  5
125
331
206
  5
F0
331
B9
  5
B9
331
15B
  5
169
331
1F5
  5
210
331
EC
  5
FA
331
14A
  5
158
331
128
  5
136
331
106
  5
114
331
CA
  5
CA
331
A8
  5
A8
331
86
  5
86
331
6E
  5
6E
331
4C
  5
4C
331
97
  5
97
331
5D
  5
5D
331
3B
  5
3B
331
2A
  5
2A
  0
LAYOUT
  5
21
102
{ACAD_REACTORS
330
1E
102
}
330
1E
100
AcDbPlotSettings
  1

  2
Foxit PDF Printer
  4
Letter
  6

 40
3.174999952316284
 41
3.174999952316284
 42
3.17498779296875
 43
3.175003051757812
 44
279.3999938964844
 45
215.8999938964844
 46
31.47715384821894
 47
24.12875752349356
 48
0.0
 49
0.0
140
0.0
141
0.0
142
1.0
143
1.0
 70
     4
 72
     0
 73
     0
 74
     1
  7

 75
     0
147
1.0
 76
     0
 77
     2
 78
   300
148
-26.25461124795212
149
-20.16000981431432
100
AcDbLayout
  1
Layout1
 70
     0
 71
     1
 10
-0.3306119115190196
 20
-0.2812499079328949
 11
10.66938784818509
 21
8.218749851771214
 12
0.0
 22
0.0
 32
0.0
 14
-0.0909266185249429
 24
-0.0610198723760078
 34
-0.0015258207003583
 15
10.37683133089736
 25
7.99851969418907
 35
0.0000000349246037
146
0.0
 13
0.0
 23
0.0
 33
0.0
 16
1.0
 26
0.0
 36
0.0
 17
0.0
 27
1.0
 37
0.0
 76
     0
330
B
331
1A5
1001
ACAD_PSEXT
1000
Foxit PDF Printer
1000
Foxit PDF Printer Driver
1000
FOXIT_PDF
1000

1070
     0
  0
LAYOUT
  5
20
102
{ACAD_REACTORS
330
1E
102
}
330
1E
100
AcDbPlotSettings
  1

  2

  4

  6

 40
0.0
 41
0.0
 42
0.0
 43
0.0
 44
0.0
 45
0.0
 46
0.0
 47
0.0
 48
0.0
 49
0.0
140
0.0
141
0.0
142
1.0
143
1.0
 70
  1024
 72
     0
 73
     0
 74
     0
  7

 75
     0
147
1.0
 76
     0
 77
     2
 78
   300
148
0.0
149
0.0
100
AcDbLayout
  1
Model
 70
     0
 71
     0
 10
0.0
 20
0.0
 11
0.0
 21
0.0
 12
0.0
 22
0.0
 32
0.0
 14
0.0
 24
0.0
 34
0.0
 15
0.0
 25
0.0
 35
0.0
146
0.0
 13
0.0
 23
0.0
 33
0.0
 16
0.0
 26
0.0
 36
0.0
 17
0.0
 27
0.0
 37
0.0
 76
     0
330
A
  0
MATERIAL
  5
18B
102
{ACAD_XDICTIONARY
360
22D
102
}
102
{ACAD_REACTORS
330
189
102
}
330
189
100
AcDbMaterial
  1
ByBlock
 73
     1
 78
     1
172
     1
176
     1
270
     1
274
     1
  0
MATERIAL
  5
18A
102
{ACAD_XDICTIONARY
360
22B
102
}
102
{ACAD_REACTORS
330
189
102
}
330
189
100
AcDbMaterial
  1
ByLayer
 73
     1
 78
     1
172
     1
176
     1
270
     1
274
     1
  0
MATERIAL
  5
18C
102
{ACAD_XDICTIONARY
360
22F
102
}
102
{ACAD_REACTORS
330
189
102
}
330
189
100
AcDbMaterial
  1
Global
 73
     1
 78
     1
172
     1
176
     1
270
     1
274
     1
  0
MLEADERSTYLE
  5
1D3
102
{ACAD_REACTORS
330
1D2
102
}
330
1D2
100
AcDbMLeaderStyle
170
     2
171
     1
172
     0
 90
        2
 40
0.0
 41
0.0
173
     1
 91
-1056964608
340
11
 92
       -2
290
     1
 42
0.09
291
     1
 43
0.36
  3
Standard
 44
0.18
300

342
17
174
     1
178
     6
175
     1
176
     0
 93
-1056964608
 45
0.18
292
     0
297
     0
 46
0.18
 94
-1056964608
 47
1.0
 49
1.0
140
1.0
293
     1
141
0.0
294
     1
177
     0
142
1.0
295
     0
296
     0
143
0.125
1001
ACAD_MLEADERVER
1070
     2
  0
MLINESTYLE
  5
1C
102
{ACAD_REACTORS
330
1B
102
}
330
1B
100
AcDbMlineStyle
  2
STANDARD
 70
     0
  3

 62
     0
 51
90.0
 52
90.0
 71
     2
 49
0.5
 62
   256
  6
BYLAYER
 49
-0.5
 62
   256
  6
BYLAYER
  0
ACDBPLACEHOLDER
  5
1D
102
{ACAD_REACTORS
330
1F
102
}
330
1F
  0
SCALE
  5
1B1
102
{ACAD_REACTORS
330
1B0
102
}
330
1B0
100
AcDbScale
 70
     0
300
1:1
140
1.0
141
1.0
290
     1
  0
SCALE
  5
1B2
102
{ACAD_REACTORS
330
1B0
102
}
330
1B0
100
AcDbScale
 70
     0
300
1:2
140
1.0
141
2.0
290
     0
  0
SCALE
  5
1B3
102
{ACAD_REACTORS
330
1B0
102
}
330
1B0
100
AcDbScale
 70
     0
300
1:4
140
1.0
141
4.0
290
     0
  0
SCALE
  5
1B4
102
{ACAD_REACTORS
330
1B0
102
}
330
1B0
100
AcDbScale
 70
     0
300
1:5
140
1.0
141
5.0
290
     0
  0
SCALE
  5
1B5
102
{ACAD_REACTORS
330
1B0
102
}
330
1B0
100
AcDbScale
 70
     0
300
1:8
140
1.0
141
8.0
290
     0
  0
SCALE
  5
1B6
102
{ACAD_REACTORS
330
1B0
102
}
330
1B0
100
AcDbScale
 70
     0
300
1:10
140
1.0
141
10.0
290
     0
  0
SCALE
  5
1B7
102
{ACAD_REACTORS
330
1B0
102
}
330
1B0
100
AcDbScale
 70
     0
300
1:16
140
1.0
141
16.0
290
     0
  0
SCALE
  5
1B8
102
{ACAD_REACTORS
330
1B0
102
}
330
1B0
100
AcDbScale
 70
     0
300
1:20
140
1.0
141
20.0
290
     0
  0
SCALE
  5
1B9
102
{ACAD_REACTORS
330
1B0
102
}
330
1B0
100
AcDbScale
 70
     0
300
1:30
140
1.0
141
30.0
290
     0
  0
SCALE
  5
1BA
102
{ACAD_REACTORS
330
1B0
102
}
330
1B0
100
AcDbScale
 70
     0
300
1:40
140
1.0
141
40.0
290
     0
  0
SCALE
  5
1BB
102
{ACAD_REACTORS
330
1B0
102
}
330
1B0
100
AcDbScale
 70
     0
300
1:50
140
1.0
141
50.0
290
     0
  0
SCALE
  5
1BC
102
{ACAD_REACTORS
330
1B0
102
}
330
1B0
100
AcDbScale
 70
     0
300
1:100
140
1.0
141
100.0
290
     0
  0
SCALE
  5
1BD
102
{ACAD_REACTORS
330
1B0
102
}
330
1B0
100
AcDbScale
 70
     0
300
2:1
140
2.0
141
1.0
290
     0
  0
SCALE
  5
1BE
102
{ACAD_REACTORS
330
1B0
102
}
330
1B0
100
AcDbScale
 70
     0
300
4:1
140
4.0
141
1.0
290
     0
  0
SCALE
  5
1BF
102
{ACAD_REACTORS
330
1B0
102
}
330
1B0
100
AcDbScale
 70
     0
300
8:1
140
8.0
141
1.0
290
     0
  0
SCALE
  5
1C0
102
{ACAD_REACTORS
330
1B0
102
}
330
1B0
100
AcDbScale
 70
     0
300
10:1
140
10.0
141
1.0
290
     0
  0
SCALE
  5
1C1
102
{ACAD_REACTORS
330
1B0
102
}
330
1B0
100
AcDbScale
 70
     0
300
100:1
140
100.0
141
1.0
290
     0
  0
SCALE
  5
1C2
102
{ACAD_REACTORS
330
1B0
102
}
330
1B0
100
AcDbScale
 70
     0
300
1/128" = 1'-0"
140
0.0078125
141
12.0
290
     0
  0
SCALE
  5
1C3
102
{ACAD_REACTORS
330
1B0
102
}
330
1B0
100
AcDbScale
 70
     0
300
1/64" = 1'-0"
140
0.015625
141
12.0
290
     0
  0
SCALE
  5
1C4
102
{ACAD_REACTORS
330
1B0
102
}
330
1B0
100
AcDbScale
 70
     0
300
1/32" = 1'-0"
140
0.03125
141
12.0
290
     0
  0
SCALE
  5
1C5
102
{ACAD_REACTORS
330
1B0
102
}
330
1B0
100
AcDbScale
 70
     0
300
1/16" = 1'-0"
140
0.0625
141
12.0
290
     0
  0
SCALE
  5
1C6
102
{ACAD_REACTORS
330
1B0
102
}
330
1B0
100
AcDbScale
 70
     0
300
3/32" = 1'-0"
140
0.09375
141
12.0
290
     0
  0
SCALE
  5
1C7
102
{ACAD_REACTORS
330
1B0
102
}
330
1B0
100
AcDbScale
 70
     0
300
1/8" = 1'-0"
140
0.125
141
12.0
290
     0
  0
SCALE
  5
1C8
102
{ACAD_REACTORS
330
1B0
102
}
330
1B0
100
AcDbScale
 70
     0
300
3/16" = 1'-0"
140
0.1875
141
12.0
290
     0
  0
SCALE
  5
1C9
102
{ACAD_REACTORS
330
1B0
102
}
330
1B0
100
AcDbScale
 70
     0
300
1/4" = 1'-0"
140
0.25
141
12.0
290
     0
  0
SCALE
  5
1CA
102
{ACAD_REACTORS
330
1B0
102
}
330
1B0
100
AcDbScale
 70
     0
300
3/8" = 1'-0"
140
0.375
141
12.0
290
     0
  0
SCALE
  5
1CB
102
{ACAD_REACTORS
330
1B0
102
}
330
1B0
100
AcDbScale
 70
     0
300
1/2" = 1'-0"
140
0.5
141
12.0
290
     0
  0
SCALE
  5
1CC
102
{ACAD_REACTORS
330
1B0
102
}
330
1B0
100
AcDbScale
 70
     0
300
3/4" = 1'-0"
140
0.75
141
12.0
290
     0
  0
SCALE
  5
1CD
102
{ACAD_REACTORS
330
1B0
102
}
330
1B0
100
AcDbScale
 70
     0
300
1" = 1'-0"
140
1.0
141
12.0
290
     0
  0
SCALE
  5
1CE
102
{ACAD_REACTORS
330
1B0
102
}
330
1B0
100
AcDbScale
 70
     0
300
1-1/2" = 1'-0"
140
1.5
141
12.0
290
     0
  0
SCALE
  5
1CF
102
{ACAD_REACTORS
330
1B0
102
}
330
1B0
100
AcDbScale
 70
     0
300
3" = 1'-0"
140
3.0
141
12.0
290
     0
  0
SCALE
  5
1D0
102
{ACAD_REACTORS
330
1B0
102
}
330
1B0
100
AcDbScale
 70
     0
300
6" = 1'-0"
140
6.0
141
12.0
290
     0
  0
SCALE
  5
1D1
102
{ACAD_REACTORS
330
1B0
102
}
330
1B0
100
AcDbScale
 70
     0
300
1'-0" = 1'-0"
140
12.0
141
12.0
290
     0
  0
TABLESTYLE
  5
1A0
102
{ACAD_XDICTIONARY
360
228
102
}
102
{ACAD_REACTORS
330
19F
102
}
330
19F
100
AcDbTableStyle
  3
Standard
 70
     0
 71
     0
 40
0.06
 41
0.06
280
     0
281
     0
  7
Standard
140
0.18
170
     2
 62
     0
 63
     7
283
     0
274
    -2
284
     1
 64
     0
275
    -2
285
     1
 65
     0
276
    -2
286
     1
 66
     0
277
    -2
287
     1
 67
     0
278
    -2
288
     1
 68
     0
279
    -2
289
     1
 69
     0
  7
Standard
140
0.25
170
     5
 62
     0
 63
     7
283
     0
274
    -2
284
     1
 64
     0
275
    -2
285
     1
 65
     0
276
    -2
286
     1
 66
     0
277
    -2
287
     1
 67
     0
278
    -2
288
     1
 68
     0
279
    -2
289
     1
 69
     0
  7
Standard
140
0.18
170
     5
 62
     0
 63
     7
283
     0
274
    -2
284
     1
 64
     0
275
    -2
285
     1
 65
     0
276
    -2
286
     1
 66
     0
277
    -2
287
     1
 67
     0
278
    -2
288
     1
 68
     0
279
    -2
289
     1
 69
     0
  0
VISUALSTYLE
  5
193
102
{ACAD_REACTORS
330
18D
102
}
330
18D
100
AcDbVisualStyle
  2
2dWireframe
 70
     4
 71
     0
 72
     2
 73
     0
 90
        0
 40
-0.6
 41
-30.0
 62
     5
 63
     7
421
 16777215
 74
     1
 91
        4
 64
     7
 65
   257
 75
     1
175
     1
 42
1.0
 92
        0
 66
   257
 43
1.0
 76
     1
 77
     6
 78
     2
 67
     7
 79
     5
170
     0
171
     0
290
     0
174
     0
 93
        1
 44
0.0
173
     0
291
     0
 45
0.0
1001
ACAD
1000
AcDbSavedByObjectVersion
1070
     0
  0
VISUALSTYLE
  5
195
102
{ACAD_REACTORS
330
18D
102
}
330
18D
100
AcDbVisualStyle
  2
3D Hidden
 70
     6
 71
     1
 72
     2
 73
     2
 90
        0
 40
-0.6
 41
-30.0
 62
     5
 63
     7
421
 16777215
 74
     2
 91
        2
 64
     7
 65
   257
 75
     2
175
     1
 42
40.0
 92
        0
 66
   257
 43
1.0
 76
     1
 77
     6
 78
     2
 67
     7
 79
     3
170
     0
171
     0
290
     0
174
     0
 93
        1
 44
0.0
173
     0
291
     0
 45
0.0
1001
ACAD
1000
AcDbSavedByObjectVersion
1070
     0
  0
VISUALSTYLE
  5
194
102
{ACAD_REACTORS
330
18D
102
}
330
18D
100
AcDbVisualStyle
  2
3dWireframe
 70
     5
 71
     0
 72
     2
 73
     0
 90
        0
 40
-0.6
 41
-30.0
 62
     5
 63
     7
421
 16777215
 74
     1
 91
        4
 64
     7
 65
   257
 75
     1
175
     1
 42
1.0
 92
        0
 66
   257
 43
1.0
 76
     1
 77
     6
 78
     2
 67
     7
 79
     5
170
     0
171
     0
290
     0
174
     0
 93
        1
 44
0.0
173
     0
291
     0
 45
0.0
1001
ACAD
1000
AcDbSavedByObjectVersion
1070
     0
  0
VISUALSTYLE
  5
192
102
{ACAD_REACTORS
330
18D
102
}
330
18D
100
AcDbVisualStyle
  2
Basic
 70
     7
 71
     1
 72
     0
 73
     1
 90
        0
 40
-0.6
 41
-30.0
 62
     5
 63
     7
421
 16777215
 74
     0
 91
        4
 64
     7
 65
   257
 75
     1
175
     1
 42
1.0
 92
        8
 66
     7
 43
1.0
 76
     1
 77
     6
 78
     2
 67
     7
 79
     5
170
     0
171
     0
290
     0
174
     0
 93
        1
 44
0.0
173
     0
291
     1
 45
0.0
1001
ACAD
1000
AcDbSavedByObjectVersion
1070
     0
  0
VISUALSTYLE
  5
199
102
{ACAD_REACTORS
330
18D
102
}
330
18D
100
AcDbVisualStyle
  2
Brighten
 70
    12
 71
     2
 72
     2
 73
     0
 90
        0
 40
-0.6
 41
-30.0
 62
     5
 63
     7
421
 16777215
 74
     1
 91
        4
 64
     7
 65
   257
 75
     1
175
     1
 42
1.0
 92
        8
 66
     7
 43
1.0
 76
     1
 77
     6
 78
     2
 67
     7
 79
     5
170
     0
171
     0
290
     0
174
     0
 93
        1
 44
50.0
173
     0
291
     1
 45
0.0
1001
ACAD
1000
AcDbSavedByObjectVersion
1070
     0
  0
VISUALSTYLE
  5
19D
102
{ACAD_REACTORS
330
18D
102
}
330
18D
100
AcDbVisualStyle
  2
ColorChange
 70
    16
 71
     2
 72
     2
 73
     3
 90
        0
 40
-0.6
 41
-30.0
 62
     5
 63
     8
421
  8421504
 74
     1
 91
        4
 64
     7
 65
   257
 75
     1
175
     1
 42
1.0
 92
        8
 66
     8
424
  8421504
 43
1.0
 76
     1
 77
     6
 78
     2
 67
     7
 79
     5
170
     0
171
     0
290
     0
174
     0
 93
        1
 44
0.0
173
     0
291
     1
 45
0.0
1001
ACAD
1000
AcDbSavedByObjectVersion
1070
     0
  0
VISUALSTYLE
  5
196
102
{ACAD_REACTORS
330
18D
102
}
330
18D
100
AcDbVisualStyle
  2
Conceptual
 70
     9
 71
     3
 72
     2
 73
     0
 90
        0
 40
-0.6
 41
-30.0
 62
     5
 63
     7
421
 16777215
 74
     2
 91
        2
 64
     7
 65
   257
 75
     1
175
     1
 42
40.0
 92
        8
 66
     7
 43
1.0
 76
     1
 77
     6
 78
     2
 67
     7
 79
     3
170
     0
171
     0
290
     0
174
     0
 93
        1
 44
0.0
173
     0
291
     0
 45
0.0
1001
ACAD
1000
AcDbSavedByObjectVersion
1070
     0
  0
VISUALSTYLE
  5
198
102
{ACAD_REACTORS
330
18D
102
}
330
18D
100
AcDbVisualStyle
  2
Dim
 70
    11
 71
     2
 72
     2
 73
     0
 90
        0
 40
-0.6
 41
-30.0
 62
     5
 63
     7
421
 16777215
 74
     1
 91
        4
 64
     7
 65
   257
 75
     1
175
     1
 42
1.0
 92
        8
 66
     7
 43
1.0
 76
     1
 77
     6
 78
     2
 67
     7
 79
     5
170
     0
171
     0
290
     0
174
     0
 93
        1
 44
-50.0
173
     0
291
     1
 45
0.0
1001
ACAD
1000
AcDbSavedByObjectVersion
1070
     0
  0
VISUALSTYLE
  5
19C
102
{ACAD_REACTORS
330
18D
102
}
330
18D
100
AcDbVisualStyle
  2
Facepattern
 70
    15
 71
     2
 72
     2
 73
     0
 90
        0
 40
-0.6
 41
-30.0
 62
     5
 63
     7
421
 16777215
 74
     1
 91
        4
 64
     7
 65
   257
 75
     1
175
     1
 42
1.0
 92
        8
 66
     7
 43
1.0
 76
     1
 77
     6
 78
     2
 67
     7
 79
     5
170
     0
171
     0
290
     0
174
     0
 93
        1
 44
0.0
173
     0
291
     1
 45
0.0
1001
ACAD
1000
AcDbSavedByObjectVersion
1070
     0
  0
VISUALSTYLE
  5
18E
102
{ACAD_REACTORS
330
18D
102
}
330
18D
100
AcDbVisualStyle
  2
Flat
 70
     0
 71
     2
 72
     1
 73
     1
 90
        2
 40
-0.6
 41
30.0
 62
     5
 63
     7
421
 16777215
 74
     0
 91
        4
 64
     7
 65
   257
 75
     1
175
     1
 42
1.0
 92
        8
 66
     7
 43
1.0
 76
     1
 77
     6
 78
     2
 67
     7
 79
     5
170
     0
171
     0
290
     0
174
     0
 93
       13
 44
0.0
173
     0
291
     1
 45
0.0
1001
ACAD
1000
AcDbSavedByObjectVersion
1070
     0
  0
VISUALSTYLE
  5
18F
102
{ACAD_REACTORS
330
18D
102
}
330
18D
100
AcDbVisualStyle
  2
FlatWithEdges
 70
     1
 71
     2
 72
     1
 73
     1
 90
        2
 40
-0.6
 41
30.0
 62
     5
 63
     7
421
 16777215
 74
     1
 91
        4
 64
     7
 65
   257
 75
     1
175
     1
 42
1.0
 92
        0
 66
   257
 43
1.0
 76
     1
 77
     6
 78
     2
 67
     7
 79
     5
170
     0
171
     0
290
     0
174
     0
 93
       13
 44
0.0
173
     0
291
     1
 45
0.0
1001
ACAD
1000
AcDbSavedByObjectVersion
1070
     0
  0
VISUALSTYLE
  5
190
102
{ACAD_REACTORS
330
18D
102
}
330
18D
100
AcDbVisualStyle
  2
Gouraud
 70
     2
 71
     2
 72
     2
 73
     1
 90
        2
 40
-0.6
 41
30.0
 62
     5
 63
     7
421
 16777215
 74
     0
 91
        4
 64
     7
 65
   257
 75
     1
175
     1
 42
1.0
 92
        0
 66
     7
 43
1.0
 76
     1
 77
     6
 78
     2
 67
     7
 79
     5
170
     0
171
     0
290
     0
174
     0
 93
       13
 44
0.0
173
     0
291
     1
 45
0.0
1001
ACAD
1000
AcDbSavedByObjectVersion
1070
     0
  0
VISUALSTYLE
  5
191
102
{ACAD_REACTORS
330
18D
102
}
330
18D
100
AcDbVisualStyle
  2
GouraudWithEdges
 70
     3
 71
     2
 72
     2
 73
     1
 90
        2
 40
-0.6
 41
30.0
 62
     5
 63
     7
421
 16777215
 74
     1
 91
        4
 64
     7
 65
   257
 75
     1
175
     1
 42
1.0
 92
        0
 66
   257
 43
1.0
 76
     1
 77
     6
 78
     2
 67
     7
 79
     5
170
     0
171
     0
290
     0
174
     0
 93
       13
 44
0.0
173
     0
291
     1
 45
0.0
1001
ACAD
1000
AcDbSavedByObjectVersion
1070
     0
  0
VISUALSTYLE
  5
19B
102
{ACAD_REACTORS
330
18D
102
}
330
18D
100
AcDbVisualStyle
  2
Linepattern
 70
    14
 71
     2
 72
     2
 73
     0
 90
        0
 40
-0.6
 41
-30.0
 62
     5
 63
     7
421
 16777215
 74
     1
 91
        4
 64
     7
 65
   257
 75
     7
175
     7
 42
1.0
 92
        8
 66
     7
 43
1.0
 76
     1
 77
     6
 78
     2
 67
     7
 79
     5
170
     0
171
     0
290
     0
174
     0
 93
        1
 44
0.0
173
     0
291
     1
 45
0.0
1001
ACAD
1000
AcDbSavedByObjectVersion
1070
     0
  0
VISUALSTYLE
  5
197
102
{ACAD_REACTORS
330
18D
102
}
330
18D
100
AcDbVisualStyle
  2
Realistic
 70
     8
 71
     2
 72
     2
 73
     0
 90
        0
 40
-0.6
 41
-30.0
 62
     5
 63
     7
421
 16777215
 74
     1
 91
        0
 64
     7
 65
   257
 75
     1
175
     1
 42
1.0
 92
        8
 66
     8
424
  7895160
 43
1.0
 76
     1
 77
     6
 78
     2
 67
     7
 79
     5
170
     0
171
     0
290
     0
174
     0
 93
       13
 44
0.0
173
     0
291
     0
 45
0.0
1001
ACAD
1000
AcDbSavedByObjectVersion
1070
     0
  0
VISUALSTYLE
  5
19A
102
{ACAD_REACTORS
330
18D
102
}
330
18D
100
AcDbVisualStyle
  2
Thicken
 70
    13
 71
     2
 72
     2
 73
     0
 90
        0
 40
-0.6
 41
-30.0
 62
     5
 63
     7
421
 16777215
 74
     1
 91
        4
 64
     7
 65
   257
 75
     1
175
     1
 42
1.0
 92
       12
 66
     7
 43
1.0
 76
     1
 77
     6
 78
     2
 67
     7
 79
     5
170
     0
171
     0
290
     0
174
     0
 93
        1
 44
0.0
173
     0
291
     1
 45
0.0
1001
ACAD
1000
AcDbSavedByObjectVersion
1070
     0
  0
DICTIONARYVAR
  5
227
102
{ACAD_REACTORS
330
1AD
102
}
330
1AD
100
DictionaryVariables
280
     0
  1
1:1
  0
DICTIONARYVAR
  5
226
102
{ACAD_REACTORS
330
1AD
102
}
330
1AD
100
DictionaryVariables
280
     0
  1
STANDARD
  0
DICTIONARYVAR
  5
1AE
102
{ACAD_REACTORS
330
1AD
102
}
330
1AD
100
DictionaryVariables
280
     0
  1
STANDARD
  0
XRECORD
  5
1AC
102
{ACAD_REACTORS
330
1AA
102
}
330
1AA
100
AcDbXrecord
280
     1
  0
DICTIONARY
  5
22D
330
18B
100
AcDbDictionary
280
     1
281
     1
  3
ACAD_XREC_ROUNDTRIP
360
22E
  0
DICTIONARY
  5
22B
330
18A
100
AcDbDictionary
280
     1
281
     1
  3
ACAD_XREC_ROUNDTRIP
360
22C
  0
DICTIONARY
  5
22F
330
18C
100
AcDbDictionary
280
     1
281
     1
  3
ACAD_XREC_ROUNDTRIP
360
230
  0
DICTIONARY
  5
228
330
1A0
100
AcDbDictionary
280
     1
281
     1
  3
ACAD_ROUNDTRIP_2008_TABLESTYLE_CELLSTYLEMAP
360
229
  3
ACAD_XREC_ROUNDTRIP
360
231
  0
XRECORD
  5
22E
102
{ACAD_REACTORS
330
22D
102
}
330
22D
100
AcDbXrecord
280
     1
102
MATERIAL
148
0.0
149
0.0
149
0.0
 93
        0
 94
       63
282
     0
 72
     1
 77
     1
171
     1
175
     1
179
     1
273
     0
  0
XRECORD
  5
22C
102
{ACAD_REACTORS
330
22B
102
}
330
22B
100
AcDbXrecord
280
     1
102
MATERIAL
148
0.0
149
0.0
149
0.0
 93
        0
 94
       63
282
     0
 72
     1
 77
     1
171
     1
175
     1
179
     1
273
     0
  0
XRECORD
  5
230
102
{ACAD_REACTORS
330
22F
102
}
330
22F
100
AcDbXrecord
280
     1
102
MATERIAL
148
0.0
149
0.0
149
0.0
 93
        0
 94
       63
282
     0
 72
     1
 77
     1
171
     1
175
     1
179
     1
273
     0
  0
CELLSTYLEMAP
  5
229
102
{ACAD_REACTORS
330
228
102
}
330
228
100
AcDbCellStyleMap
 90
        3
300
CELLSTYLE
  1
TABLEFORMAT_BEGIN
 90
        5
170
     1
 91
        0
 92
    32768
 62
   257
 93
        1
300
CONTENTFORMAT
  1
CONTENTFORMAT_BEGIN
 90
        0
 91
        0
 92
      512
 93
        0
300

 40
0.0
140
1.0
 94
        5
 62
     0
340
17
144
0.25
309
CONTENTFORMAT_END
171
     0
 94
        6
 95
        1
302
GRIDFORMAT
  1
GRIDFORMAT_BEGIN
 90
        0
 91
        1
 62
     0
 92
       -2
340
0
 93
        0
 40
0.045
309
GRIDFORMAT_END
 95
        2
302
GRIDFORMAT
  1
GRIDFORMAT_BEGIN
 90
        0
 91
        1
 62
     0
 92
       -2
340
0
 93
        0
 40
0.045
309
GRIDFORMAT_END
 95
        4
302
GRIDFORMAT
  1
GRIDFORMAT_BEGIN
 90
        0
 91
        1
 62
     0
 92
       -2
340
0
 93
        0
 40
0.045
309
GRIDFORMAT_END
 95
        8
302
GRIDFORMAT
  1
GRIDFORMAT_BEGIN
 90
        0
 91
        1
 62
     0
 92
       -2
340
0
 93
        0
 40
0.045
309
GRIDFORMAT_END
 95
       16
302
GRIDFORMAT
  1
GRIDFORMAT_BEGIN
 90
        0
 91
        1
 62
     0
 92
       -2
340
0
 93
        0
 40
0.045
309
GRIDFORMAT_END
 95
       32
302
GRIDFORMAT
  1
GRIDFORMAT_BEGIN
 90
        0
 91
        1
 62
     0
 92
       -2
340
0
 93
        0
 40
0.045
309
GRIDFORMAT_END
309
TABLEFORMAT_END
  1
CELLSTYLE_BEGIN
 90
        1
 91
        1
300
_TITLE
309
CELLSTYLE_END
300
CELLSTYLE
  1
TABLEFORMAT_BEGIN
 90
        5
170
     1
 91
        0
 92
        0
 62
   257
 93
        1
300
CONTENTFORMAT
  1
CONTENTFORMAT_BEGIN
 90
        0
 91
        0
 92
      512
 93
        0
300

 40
0.0
140
1.0
 94
        5
 62
     0
340
17
144
0.18
309
CONTENTFORMAT_END
171
     0
 94
        6
 95
        1
302
GRIDFORMAT
  1
GRIDFORMAT_BEGIN
 90
        0
 91
        1
 62
     0
 92
       -2
340
0
 93
        0
 40
0.045
309
GRIDFORMAT_END
 95
        2
302
GRIDFORMAT
  1
GRIDFORMAT_BEGIN
 90
        0
 91
        1
 62
     0
 92
       -2
340
0
 93
        0
 40
0.045
309
GRIDFORMAT_END
 95
        4
302
GRIDFORMAT
  1
GRIDFORMAT_BEGIN
 90
        0
 91
        1
 62
     0
 92
       -2
340
0
 93
        0
 40
0.045
309
GRIDFORMAT_END
 95
        8
302
GRIDFORMAT
  1
GRIDFORMAT_BEGIN
 90
        0
 91
        1
 62
     0
 92
       -2
340
0
 93
        0
 40
0.045
309
GRIDFORMAT_END
 95
       16
302
GRIDFORMAT
  1
GRIDFORMAT_BEGIN
 90
        0
 91
        1
 62
     0
 92
       -2
340
0
 93
        0
 40
0.045
309
GRIDFORMAT_END
 95
       32
302
GRIDFORMAT
  1
GRIDFORMAT_BEGIN
 90
        0
 91
        1
 62
     0
 92
       -2
340
0
 93
        0
 40
0.045
309
GRIDFORMAT_END
309
TABLEFORMAT_END
  1
CELLSTYLE_BEGIN
 90
        2
 91
        1
300
_HEADER
309
CELLSTYLE_END
300
CELLSTYLE
  1
TABLEFORMAT_BEGIN
 90
        5
170
     1
 91
        0
 92
        0
 62
   257
 93
        1
300
CONTENTFORMAT
  1
CONTENTFORMAT_BEGIN
 90
        0
 91
        0
 92
      512
 93
        0
300

 40
0.0
140
1.0
 94
        2
 62
     0
340
17
144
0.18
309
CONTENTFORMAT_END
171
     0
 94
        6
 95
        1
302
GRIDFORMAT
  1
GRIDFORMAT_BEGIN
 90
        0
 91
        1
 62
     0
 92
       -2
340
0
 93
        0
 40
0.045
309
GRIDFORMAT_END
 95
        2
302
GRIDFORMAT
  1
GRIDFORMAT_BEGIN
 90
        0
 91
        1
 62
     0
 92
       -2
340
0
 93
        0
 40
0.045
309
GRIDFORMAT_END
 95
        4
302
GRIDFORMAT
  1
GRIDFORMAT_BEGIN
 90
        0
 91
        1
 62
     0
 92
       -2
340
0
 93
        0
 40
0.045
309
GRIDFORMAT_END
 95
        8
302
GRIDFORMAT
  1
GRIDFORMAT_BEGIN
 90
        0
 91
        1
 62
     0
 92
       -2
340
0
 93
        0
 40
0.045
309
GRIDFORMAT_END
 95
       16
302
GRIDFORMAT
  1
GRIDFORMAT_BEGIN
 90
        0
 91
        1
 62
     0
 92
       -2
340
0
 93
        0
 40
0.045
309
GRIDFORMAT_END
 95
       32
302
GRIDFORMAT
  1
GRIDFORMAT_BEGIN
 90
        0
 91
        1
 62
     0
 92
       -2
340
0
 93
        0
 40
0.045
309
GRIDFORMAT_END
309
TABLEFORMAT_END
  1
CELLSTYLE_BEGIN
 90
        3
 91
        2
300
_DATA
309
CELLSTYLE_END
  0
XRECORD
  5
231
102
{ACAD_REACTORS
330
228
102
}
330
228
100
AcDbXrecord
280
     1
102
ACAD_ROUNDTRIP_PRE2007_TABLESTYLE
 90
      512
 91
        0
  1

 92
      512
 93
        0
  2

 94
      512
 95
        0
  3

  0
ENDSEC
  0
EOF
