  0
SECTION
  2
HEADER
  9
$ACADVER
  1
AC1018
  9
$ACADMAINTVER
 70
   104
  9
$DWGCODEPAGE
  3
ANSI_1252
  9
$LASTSAVEDBY
  1
EARL
  9
$INSBASE
 10
0.0
 20
0.0
 30
0.0
  9
$EXTMIN
 10
-10.34378685051195
 20
1.255716091421869
 30
0.0
  9
$EXTMAX
 10
7.069019504050914
 20
7.69023150145828
 30
0.0
  9
$LIMMIN
 10
0.0
 20
0.0
  9
$LIMMAX
 10
0.0
 20
0.0
  9
$ORTHOMODE
 70
     1
  9
$REGENMODE
 70
     1
  9
$FILLMODE
 70
     1
  9
$QTEXTMODE
 70
     0
  9
$MIRRTEXT
 70
     1
  9
$LTSCALE
 40
1.0
  9
$ATTMODE
 70
     1
  9
$TEXTSIZE
 40
0.0
  9
$TRACEWID
 40
0.05
  9
$TEXTSTYLE
  7
Standard
  9
$CLAYER
  8
0
  9
$CELTYPE
  6
Continuous
  9
$CECOLOR
 62
   256
  9
$CELTSCALE
 40
1.0
  9
$DISPSILH
 70
     0
  9
$DIMSCALE
 40
1.0
  9
$DIMASZ
 40
0.18
  9
$DIMEXO
 40
0.0625
  9
$DIMDLI
 40
0.38
  9
$DIMRND
 40
0.0
  9
$DIMDLE
 40
0.0
  9
$DIMEXE
 40
0.18
  9
$DIMTP
 40
0.0
  9
$DIMTM
 40
0.0
  9
$DIMTXT
 40
0.18
  9
$DIMCEN
 40
0.09
  9
$DIMTSZ
 40
0.0
  9
$DIMTOL
 70
     0
  9
$DIMLIM
 70
     0
  9
$DIMTIH
 70
     1
  9
$DIMTOH
 70
     1
  9
$DIMSE1
 70
     0
  9
$DIMSE2
 70
     0
  9
$DIMTAD
 70
     0
  9
$DIMZIN
 70
     0
  9
$DIMBLK
  1

  9
$DIMASO
 70
     1
  9
$DIMSHO
 70
     1
  9
$DIMPOST
  1

  9
$DIMAPOST
  1

  9
$DIMALT
 70
     0
  9
$DIMALTD
 70
     2
  9
$DIMALTF
 40
25.4
  9
$DIMLFAC
 40
1.0
  9
$DIMTOFL
 70
     0
  9
$DIMTVP
 40
0.0
  9
$DIMTIX
 70
     0
  9
$DIMSOXD
 70
     0
  9
$DIMSAH
 70
     0
  9
$DIMBLK1
  1

  9
$DIMBLK2
  1

  9
$DIMSTYLE
  2
Standard
  9
$DIMCLRD
 70
     0
  9
$DIMCLRE
 70
     0
  9
$DIMCLRT
 70
     0
  9
$DIMTFAC
 40
1.0
  9
$DIMGAP
 40
0.09
  9
$DIMJUST
 70
     0
  9
$DIMSD1
 70
     0
  9
$DIMSD2
 70
     0
  9
$DIMTOLJ
 70
     1
  9
$DIMTZIN
 70
     0
  9
$DIMALTZ
 70
     0
  9
$DIMALTTZ
 70
     0
  9
$DIMUPT
 70
     0
  9
$DIMDEC
 70
     4
  9
$DIMTDEC
 70
     4
  9
$DIMALTU
 70
     2
  9
$DIMALTTD
 70
     2
  9
$DIMTXSTY
  7
Standard
  9
$DIMAUNIT
 70
     0
  9
$DIMADEC
 70
     0
  9
$DIMALTRND
 40
0.0
  9
$DIMAZIN
 70
     0
  9
$DIMDSEP
 70
    46
  9
$DIMATFIT
 70
     0
  9
$DIMFRAC
 70
     0
  9
$DIMLDRBLK
  1

  9
$DIMLUNIT
 70
     2
  9
$DIMLWD
 70
    -2
  9
$DIMLWE
 70
    -2
  9
$DIMTMOVE
 70
     0
  9
$LUNITS
 70
     2
  9
$LUPREC
 70
     4
  9
$SKETCHINC
 40
0.1
  9
$FILLETRAD
 40
0.0
  9
$AUNITS
 70
     0
  9
$AUPREC
 70
     0
  9
$MENU
  1
acad
  9
$ELEVATION
 40
0.0
  9
$PELEVATION
 40
0.0
  9
$THICKNESS
 40
0.0
  9
$LIMCHECK
 70
     0
  9
$CHAMFERA
 40
0.0
  9
$CHAMFERB
 40
0.0
  9
$CHAMFERC
 40
0.0
  9
$CHAMFERD
 40
0.0
  9
$SKPOLY
 70
     0
  9
$TDCREATE
 40
2454842.736087963
  9
$TDUCREATE
 40
2454842.902754630
  9
$TDUPDATE
 40
2455104.563367512
  9
$TDUUPDATE
 40
2455104.730034178
  9
$TDINDWG
 40
0.0037943287
  9
$TDUSRTIMER
 40
0.0037943287
  9
$USRTIMER
 70
     1
  9
$ANGBASE
 50
0.0
  9
$ANGDIR
 70
     0
  9
$PDMODE
 70
     0
  9
$PDSIZE
 40
0.0
  9
$PLINEWID
 40
0.0
  9
$SPLFRAME
 70
     0
  9
$SPLINETYPE
 70
     6
  9
$SPLINESEGS
 70
     8
  9
$HANDSEED
  5
1FA
  9
$SURFTAB1
 70
     6
  9
$SURFTAB2
 70
     6
  9
$SURFTYPE
 70
     6
  9
$SURFU
 70
     6
  9
$SURFV
 70
     6
  9
$UCSBASE
  2

  9
$UCSNAME
  2

  9
$UCSORG
 10
0.0
 20
0.0
 30
0.0
  9
$UCSXDIR
 10
1.0
 20
0.0
 30
0.0
  9
$UCSYDIR
 10
0.0
 20
1.0
 30
0.0
  9
$UCSORTHOREF
  2

  9
$UCSORTHOVIEW
 70
     0
  9
$UCSORGTOP
 10
0.0
 20
0.0
 30
0.0
  9
$UCSORGBOTTOM
 10
0.0
 20
0.0
 30
0.0
  9
$UCSORGLEFT
 10
0.0
 20
0.0
 30
0.0
  9
$UCSORGRIGHT
 10
0.0
 20
0.0
 30
0.0
  9
$UCSORGFRONT
 10
0.0
 20
0.0
 30
0.0
  9
$UCSORGBACK
 10
0.0
 20
0.0
 30
0.0
  9
$PUCSBASE
  2

  9
$PUCSNAME
  2

  9
$PUCSORG
 10
0.0
 20
0.0
 30
0.0
  9
$PUCSXDIR
 10
1.0
 20
0.0
 30
0.0
  9
$PUCSYDIR
 10
0.0
 20
1.0
 30
0.0
  9
$PUCSORTHOREF
  2

  9
$PUCSORTHOVIEW
 70
     0
  9
$PUCSORGTOP
 10
0.0
 20
0.0
 30
0.0
  9
$PUCSORGBOTTOM
 10
0.0
 20
0.0
 30
0.0
  9
$PUCSORGLEFT
 10
0.0
 20
0.0
 30
0.0
  9
$PUCSORGRIGHT
 10
0.0
 20
0.0
 30
0.0
  9
$PUCSORGFRONT
 10
0.0
 20
0.0
 30
0.0
  9
$PUCSORGBACK
 10
0.0
 20
0.0
 30
0.0
  9
$USERI1
 70
     0
  9
$USERI2
 70
     0
  9
$USERI3
 70
     0
  9
$USERI4
 70
     0
  9
$USERI5
 70
     0
  9
$USERR1
 40
0.0
  9
$USERR2
 40
0.0
  9
$USERR3
 40
0.0
  9
$USERR4
 40
0.0
  9
$USERR5
 40
0.0
  9
$WORLDVIEW
 70
     1
  9
$SHADEDGE
 70
     3
  9
$SHADEDIF
 70
    70
  9
$TILEMODE
 70
     0
  9
$MAXACTVP
 70
    16
  9
$PINSBASE
 10
0.0
 20
0.0
 30
0.0
  9
$PLIMCHECK
 70
     0
  9
$PEXTMIN
 10
-0.0556788165195279
 20
-0.0428619138838222
 30
-0.0015258207003583
  9
$PEXTMAX
 10
10.39445523190006
 20
7.945342815747668
 30
0.0000000349246037
  9
$PLIMMIN
 10
-0.3306119115190196
 20
-0.2812499079328949
  9
$PLIMMAX
 10
10.66938784818509
 20
8.218749851771214
  9
$UNITMODE
 70
     0
  9
$VISRETAIN
 70
     0
  9
$PLINEGEN
 70
     1
  9
$PSLTSCALE
 70
     0
  9
$TREEDEPTH
 70
  3020
  9
$CMLSTYLE
  2
Standard
  9
$CMLJUST
 70
     0
  9
$CMLSCALE
 40
1.0
  9
$PROXYGRAPHICS
 70
     0
  9
$MEASUREMENT
 70
     0
  9
$CELWEIGHT
370
     0
  9
$ENDCAPS
280
     0
  9
$JOINSTYLE
280
     0
  9
$LWDISPLAY
290
     0
  9
$INSUNITS
 70
     0
  9
$HYPERLINKBASE
  1

  9
$STYLESHEET
  1

  9
$XEDIT
290
     1
  9
$CEPSNTYPE
380
     0
  9
$PSTYLEMODE
290
     1
  9
$FINGERPRINTGUID
  2

  9
$VERSIONGUID
  2
{94210AA0-6963-4EE6-8BFC-C0E8827AD790}
  9
$EXTNAMES
290
     1
  9
$PSVPSCALE
 40
0.0
  9
$OLESTARTUP
290
     0
  9
$SORTENTS
280
   127
  9
$INDEXCTL
280
     0
  9
$HIDETEXT
280
     0
  9
$XCLIPFRAME
290
     0
  9
$HALOGAP
280
     0
  9
$OBSCOLOR
 70
   257
  9
$OBSLTYPE
280
     0
  9
$INTERSECTIONDISPLAY
280
     0
  9
$INTERSECTIONCOLOR
 70
   257
  9
$DIMASSOC
280
     1
  9
$PROJECTNAME
  1

  0
ENDSEC
  0
SECTION
  2
CLASSES
  0
CLASS
  1
IMAGE
  2
AcDbRasterImage
  3
ISM
 90
     2175
 91
        0
280
     0
281
     1
  0
CLASS
  1
DICTIONARYVAR
  2
AcDbDictionaryVar
  3
ObjectDBX Classes
 90
        0
 91
        5
280
     0
281
     0
  0
CLASS
  1
RASTERVARIABLES
  2
AcDbRasterVariables
  3
ISM
 90
        0
 91
        0
280
     0
281
     0
  0
CLASS
  1
IMAGEDEF
  2
AcDbRasterImageDef
  3
ISM
 90
        0
 91
        0
280
     0
281
     0
  0
CLASS
  1
IMAGEDEF_REACTOR
  2
AcDbRasterImageDefReactor
  3
ISM
 90
        1
 91
        0
280
     0
281
     0
  0
CLASS
  1
IDBUFFER
  2
AcDbIdBuffer
  3
ObjectDBX Classes
 90
        0
 91
        0
280
     0
281
     0
  0
CLASS
  1
SPATIAL_FILTER
  2
AcDbSpatialFilter
  3
ObjectDBX Classes
 90
        0
 91
        0
280
     0
281
     0
  0
CLASS
  1
SORTENTSTABLE
  2
AcDbSortentsTable
  3
ObjectDBX Classes
 90
        0
 91
        1
280
     0
281
     0
  0
CLASS
  1
LAYER_INDEX
  2
AcDbLayerIndex
  3
ObjectDBX Classes
 90
        0
 91
        0
280
     0
281
     0
  0
CLASS
  1
SPATIAL_INDEX
  2
AcDbSpatialIndex
  3
ObjectDBX Classes
 90
        0
 91
        0
280
     0
281
     0
  0
CLASS
  1
OBJECT_PTR
  2
CAseDLPNTableRecord
  3
ASE-LPNTableRecord
 90
        1
 91
        0
280
     0
281
     0
  0
CLASS
  1
PLOTSETTINGS
  2
AcDbPlotSettings
  3
ObjectDBX Classes
 90
        0
 91
        0
280
     0
281
     0
  0
CLASS
  1
ACDBDICTIONARYWDFLT
  2
AcDbDictionaryWithDefault
  3
ObjectDBX Classes
 90
        0
 91
        1
280
     0
281
     0
  0
CLASS
  1
WIPEOUT
  2
AcDbWipeout
  3
"WipeOut|Product Desc: Object Enabler for WipeOut entity                        |Company: Autodesk, Inc.                        |WEB Address: www.autodesk.com"
 90
     2175
 91
        0
280
     0
281
     1
  0
CLASS
  1
WIPEOUTVARIABLES
  2
AcDbWipeoutVariables
  3
"WipeOut|Product Desc:     WipeOut Dbx Application|Company:          Autodesk, Inc.|WEB Address:      www.autodesk.com"
 90
        0
 91
        1
280
     0
281
     0
  0
CLASS
  1
RTEXT
  2
RText
  3
RText|AutoCAD Express Tool|expresstools@autodesk.com
 90
     3071
 91
        0
280
     0
281
     1
  0
CLASS
  1
ARCALIGNEDTEXT
  2
AcDbArcAlignedText
  3
ATEXT|AutoCAD Express Tool|expresstools@autodesk.com
 90
        0
 91
        0
280
     0
281
     1
  0
CLASS
  1
MATERIAL
  2
AcDbMaterial
  3
ObjectDBX Classes
 90
     1153
 91
        3
280
     0
281
     0
  0
CLASS
  1
VISUALSTYLE
  2
AcDbVisualStyle
  3
ObjectDBX Classes
 90
     4095
 91
       16
280
     0
281
     0
  0
CLASS
  1
TABLESTYLE
  2
AcDbTableStyle
  3
ObjectDBX Classes
 90
     4095
 91
        1
280
     0
281
     0
  0
CLASS
  1
SCALE
  2
AcDbScale
  3
ObjectDBX Classes
 90
     1153
 91
       33
280
     0
281
     0
  0
CLASS
  1
MLEADERSTYLE
  2
AcDbMLeaderStyle
  3
ACDB_MLEADERSTYLE_CLASS
 90
     4095
 91
        1
280
     0
281
     0
  0
CLASS
  1
CELLSTYLEMAP
  2
AcDbCellStyleMap
  3
ObjectDBX Classes
 90
     1152
 91
        2
280
     0
281
     0
  0
ENDSEC
  0
SECTION
  2
TABLES
  0
TABLE
  2
VPORT
  5
7
330
0
100
AcDbSymbolTable
 70
     1
  0
VPORT
  5
15
330
7
100
AcDbSymbolTableRecord
100
AcDbViewportTableRecord
  2
*ACTIVE
 70
     0
 10
0.0
 20
0.0
 11
1.0
 21
1.0
 12
13.89621157632295
 22
4.579183999999999
 13
0.0
 23
0.0
 14
1.0
 24
1.0
 15
0.0
 25
0.0
 16
0.0
 26
0.0
 36
1.0
 17
0.0
 27
0.0
 37
0.0
 40
9.158369
 41
2.283809523809523
 42
50.0
 43
0.0
 44
0.0
 50
0.0
 51
0.0
 71
     0
 72
   100
 73
     1
 74
     1
 75
     0
 76
     0
 77
     0
 78
     0
281
     0
 65
     0
110
0.0
120
0.0
130
0.0
111
1.0
121
0.0
131
0.0
112
0.0
122
1.0
132
0.0
 79
     0
146
0.0
  0
ENDTAB
  0
TABLE
  2
LTYPE
  5
4
330
0
100
AcDbSymbolTable
 70
     5
  0
LTYPE
  5
11
330
4
100
AcDbSymbolTableRecord
100
AcDbLinetypeTableRecord
  2
ByBlock
 70
     0
  3

 72
    65
 73
     0
 40
0.0
  0
LTYPE
  5
12
330
4
100
AcDbSymbolTableRecord
100
AcDbLinetypeTableRecord
  2
ByLayer
 70
     0
  3

 72
    65
 73
     0
 40
0.0
  0
LTYPE
  5
13
330
4
100
AcDbSymbolTableRecord
100
AcDbLinetypeTableRecord
  2
Continuous
 70
     0
  3
Solid line
 72
    65
 73
     0
 40
0.0
  0
LTYPE
  5
24
330
4
100
AcDbSymbolTableRecord
100
AcDbLinetypeTableRecord
  2
solid
 70
     0
  3

 72
    65
 73
     0
 40
0.0
  0
LTYPE
  5
25
330
4
100
AcDbSymbolTableRecord
100
AcDbLinetypeTableRecord
  2
dashed
 70
     0
  3

 72
    65
 73
     0
 40
0.0
  0
LTYPE
  5
26
330
4
100
AcDbSymbolTableRecord
100
AcDbLinetypeTableRecord
  2
center
 70
     0
  3

 72
    65
 73
     0
 40
0.0
  0
ENDTAB
  0
TABLE
  2
LAYER
  5
2
330
0
100
AcDbSymbolTable
 70
     3
  0
LAYER
  5
14
102
{ACAD_XDICTIONARY
360
1A9
102
}
330
2
100
AcDbSymbolTableRecord
100
AcDbLayerTableRecord
  2
0
 70
     0
 62
     7
  6
Continuous
370
    -3
390
1D
  0
LAYER
  5
27
102
{ACAD_XDICTIONARY
360
1AB
102
}
330
2
100
AcDbSymbolTableRecord
100
AcDbLayerTableRecord
  2
1
 70
     0
 62
     1
  6
solid
370
    -3
390
1D
  0
LAYER
  5
BD
102
{ACAD_XDICTIONARY
360
1AD
102
}
330
2
100
AcDbSymbolTableRecord
100
AcDbLayerTableRecord
  2
0
 70
     0
 62
     1
  6
solid
370
    -3
390
1D
  0
ENDTAB
  0
TABLE
  2
STYLE
  5
3
330
0
100
AcDbSymbolTable
 70
     2
  0
STYLE
  5
17
330
3
100
AcDbSymbolTableRecord
100
AcDbTextStyleTableRecord
  2
Standard
 70
     0
 40
0.0
 41
1.0
 50
0.0
 71
     0
 42
0.0
  3
txt
  4

  0
ENDTAB
  0
TABLE
  2
VIEW
  5
5
330
0
100
AcDbSymbolTable
 70
     0
  0
ENDTAB
  0
TABLE
  2
UCS
  5
6
330
0
100
AcDbSymbolTable
 70
     0
  0
ENDTAB
  0
TABLE
  2
APPID
  5
8
330
0
100
AcDbSymbolTable
 70
     5
  0
APPID
  5
16
330
8
100
AcDbSymbolTableRecord
100
AcDbRegAppTableRecord
  2
ACAD
 70
     0
  0
APPID
  5
174
330
8
100
AcDbSymbolTableRecord
100
AcDbRegAppTableRecord
  2
ACAD_PSEXT
 70
     0
  0
APPID
  5
179
330
8
100
AcDbSymbolTableRecord
100
AcDbRegAppTableRecord
  2
DCO15
 70
     0
  0
APPID
  5
1A2
330
8
100
AcDbSymbolTableRecord
100
AcDbRegAppTableRecord
  2
ACAD_MLEADERVER
 70
     0
  0
APPID
  5
1C8
330
8
100
AcDbSymbolTableRecord
100
AcDbRegAppTableRecord
  2
ACAD_EXEMPT_FROM_CAD_STANDARDS
 70
     0
  0
ENDTAB
  0
TABLE
  2
DIMSTYLE
  5
9
330
0
100
AcDbSymbolTable
 70
     3
100
AcDbDimStyleTable
 71
     1
340
18
  0
DIMSTYLE
105
18
330
9
100
AcDbSymbolTableRecord
100
AcDbDimStyleTableRecord
  2
Standard
 70
     0
289
     0
340
17
  0
ENDTAB
  0
TABLE
  2
BLOCK_RECORD
  5
1
330
0
100
AcDbSymbolTable
 70
     6
  0
BLOCK_RECORD
  5
A
102
{ACAD_XDICTIONARY
360
1BE
102
}
330
1
100
AcDbSymbolTableRecord
100
AcDbBlockTableRecord
  2
*MODEL_SPACE
340
20
  0
BLOCK_RECORD
  5
B
330
1
100
AcDbSymbolTableRecord
100
AcDbBlockTableRecord
  2
*PAPER_SPACE
340
21
  0
BLOCK_RECORD
  5
A7
330
1
100
AcDbSymbolTableRecord
100
AcDbBlockTableRecord
  2
*D0
340
0
  0
BLOCK_RECORD
  5
B2
330
1
100
AcDbSymbolTableRecord
100
AcDbBlockTableRecord
  2
*D1
340
0
  0
BLOCK_RECORD
  5
13E
330
1
100
AcDbSymbolTableRecord
100
AcDbBlockTableRecord
  2
*D2
340
0
  0
BLOCK_RECORD
  5
14B
330
1
100
AcDbSymbolTableRecord
100
AcDbBlockTableRecord
  2
*D3
340
0
  0
ENDTAB
  0
ENDSEC
  0
SECTION
  2
BLOCKS
  0
BLOCK
  5
D
330
A
100
AcDbEntity
  8
0
100
AcDbBlockBegin
  2
*MODEL_SPACE
 70
     0
 10
0.0
 20
0.0
 30
0.0
  3
*MODEL_SPACE
  1

  0
ENDBLK
  5
E
330
A
100
AcDbEntity
  8
0
100
AcDbBlockEnd
  0
BLOCK
  5
F
330
B
100
AcDbEntity
 67
     1
  8
0
100
AcDbBlockBegin
  2
*PAPER_SPACE
 70
     0
 10
0.0
 20
0.0
 30
0.0
  3
*PAPER_SPACE
  1

  0
ENDBLK
  5
10
330
B
100
AcDbEntity
 67
     1
  8
0
100
AcDbBlockEnd
  0
BLOCK
  5
A8
330
A7
100
AcDbEntity
  8
1
  6
solid
 62
     7
100
AcDbBlockBegin
  2
*D0
 70
     0
 10
0.0
 20
0.0
 30
0.0
  3
*D0
  1

  0
LINE
  5
A9
330
A7
100
AcDbEntity
  8
1
  6
solid
 62
     7
100
AcDbLine
 10
0.9698286056518552
 20
3.469843387603758
 30
0.0
 11
0.9698286056518554
 21
7.6223768056338
 31
0.0
  0
LINE
  5
AA
330
A7
100
AcDbEntity
  8
1
  6
solid
 62
     7
100
AcDbLine
 10
6.079216480255126
 20
7.447352886199951
 30
0.0
 11
6.079216480255126
 21
7.6223768056338
 31
0.0
  0
LINE
  5
AB
330
A7
100
AcDbEntity
  8
1
  6
solid
 62
     7
100
AcDbLine
 10
0.9698286056518554
 20
7.5598768056338
 30
0.0
 11
3.288331366482902
 21
7.5598768056338
 31
0.0
  0
LINE
  5
AC
330
A7
100
AcDbEntity
  8
1
  6
solid
 62
     7
100
AcDbLine
 10
6.079216480255126
 20
7.5598768056338
 30
0.0
 11
3.760713719424078
 21
7.5598768056338
 31
0.0
  0
MTEXT
  5
AD
330
A7
100
AcDbEntity
  8
1
  6
solid
 62
     7
100
AcDbMText
 10
3.52452254295349
 20
7.5598768056338
 30
0.0
 40
0.125
 41
0.0
 71
     5
 72
     1
  1
{\H0.125000;5 1/8}
 73
     1
 44
1.0
  0
SOLID
  5
AE
330
A7
100
AcDbEntity
  8
1
  6
solid
 62
     7
100
AcDbTrace
 10
1.094828605651854
 20
7.580689305633801
 30
0.0
 11
1.094828605651855
 21
7.539064305633801
 31
0.0
 12
0.9698286056518554
 22
7.5598768056338
 32
0.0
 13
0.9698286056518554
 23
7.5598768056338
 33
0.0
  0
SOLID
  5
AF
330
A7
100
AcDbEntity
  8
1
  6
solid
 62
     7
100
AcDbTrace
 10
5.954216480255126
 20
7.539064305633801
 30
0.0
 11
5.954216480255126
 21
7.580689305633801
 31
0.0
 12
6.079216480255126
 22
7.5598768056338
 32
0.0
 13
6.079216480255126
 23
7.5598768056338
 33
0.0
  0
ENDBLK
  5
B0
330
A7
100
AcDbEntity
  8
1
  6
solid
 62
     7
100
AcDbBlockEnd
  0
BLOCK
  5
B3
330
B2
100
AcDbEntity
  8
1
  6
solid
 62
     7
100
AcDbBlockBegin
  2
*D1
 70
     0
 10
0.0
 20
0.0
 30
0.0
  3
*D1
  1

  0
LINE
  5
B4
330
B2
100
AcDbEntity
  8
1
  6
solid
 62
     7
100
AcDbLine
 10
0.8448286056518552
 20
2.118326902389525
 30
0.0
 11
0.6879410553297847
 21
2.118326902389525
 31
0.0
  0
LINE
  5
B5
330
B2
100
AcDbEntity
  8
1
  6
solid
 62
     7
100
AcDbLine
 10
4.782004356384277
 20
7.322352886199951
 30
0.0
 11
0.6879410553297884
 21
7.322352886199954
 31
0.0
  0
LINE
  5
B6
330
B2
100
AcDbEntity
  8
1
  6
solid
 62
     7
100
AcDbLine
 10
0.7504410553297847
 20
2.118326902389525
 30
0.0
 11
0.7504410553297865
 21
4.560467298140891
 31
0.0
  0
LINE
  5
B7
330
B2
100
AcDbEntity
  8
1
  6
solid
 62
     7
100
AcDbLine
 10
0.7504410553297884
 20
7.322352886199954
 30
0.0
 11
0.7504410553297867
 21
4.880212490448584
 31
0.0
  0
MTEXT
  5
B8
330
B2
100
AcDbEntity
  8
1
  6
solid
 62
     7
100
AcDbMText
 10
0.7504410553297866
 20
4.720339894294737
 30
0.0
 40
0.125
 41
0.0
 71
     5
 72
     1
  1
{\H0.125000;5 1/4}
 73
     1
 44
1.0
  0
SOLID
  5
B9
330
B2
100
AcDbEntity
  8
1
  6
solid
 62
     7
100
AcDbTrace
 10
0.7296285553297848
 20
2.243326902389525
 30
0.0
 11
0.7712535553297851
 21
2.243326902389525
 31
0.0
 12
0.7504410553297847
 22
2.118326902389525
 32
0.0
 13
0.7504410553297847
 23
2.118326902389525
 33
0.0
  0
SOLID
  5
BA
330
B2
100
AcDbEntity
  8
1
  6
solid
 62
     7
100
AcDbTrace
 10
0.7712535553297885
 20
7.197352886199954
 30
0.0
 11
0.7296285553297883
 21
7.197352886199954
 31
0.0
 12
0.7504410553297884
 22
7.322352886199954
 32
0.0
 13
0.7504410553297884
 23
7.322352886199954
 33
0.0
  0
ENDBLK
  5
BB
330
B2
100
AcDbEntity
  8
1
  6
solid
 62
     7
100
AcDbBlockEnd
  0
BLOCK
  5
13F
330
13E
100
AcDbEntity
  8
0
  6
solid
 62
     7
100
AcDbBlockBegin
  2
*D2
 70
     0
 10
0.0
 20
0.0
 30
0.0
  3
*D2
  1

  0
LINE
  5
140
330
13E
100
AcDbEntity
  8
0
  6
solid
 62
     7
100
AcDbLine
 10
-8.41796459000877
 20
4.251558088691553
 30
0.0
 11
-9.650157683845286
 21
4.251558088691554
 31
0.0
  0
LINE
  5
141
330
13E
100
AcDbEntity
  8
0
  6
solid
 62
     7
100
AcDbLine
 10
-2.167200088500976
 20
5.314058442060519
 30
0.0
 11
-9.650157683845286
 21
5.314058442060526
 31
0.0
  0
LINE
  5
142
330
13E
100
AcDbEntity
  8
0
  6
solid
 62
     7
100
AcDbLine
 10
-9.587657683845286
 20
4.251558088691554
 30
0.0
 11
-9.587657683845286
 21
4.78280826537604
 31
0.0
  0
LINE
  5
143
330
13E
100
AcDbEntity
  8
0
  6
solid
 62
     7
100
AcDbLine
 10
-9.587657683845286
 20
5.314058442060526
 30
0.0
 11
-9.587657683845286
 21
4.78280826537604
 31
0.0
  0
MTEXT
  5
144
330
13E
100
AcDbEntity
  8
0
  6
solid
 62
     7
100
AcDbMText
 10
-10.05212018384528
 20
4.782808265376038
 30
0.0
 40
0.125
 41
0.0
 71
     5
 72
     1
  1
{\H0.125000;1 1/16}
 73
     1
 44
1.0
  0
SOLID
  5
145
330
13E
100
AcDbEntity
  8
0
  6
solid
 62
     7
100
AcDbTrace
 10
-9.608472683845286
 20
4.376558088691554
 30
0.0
 11
-9.566842683845285
 21
4.376558088691554
 31
0.0
 12
-9.587657683845286
 22
4.251558088691554
 32
0.0
 13
-9.587657683845286
 23
4.251558088691554
 33
0.0
  0
SOLID
  5
146
330
13E
100
AcDbEntity
  8
0
  6
solid
 62
     7
100
AcDbTrace
 10
-9.566842683845285
 20
5.189058442060526
 30
0.0
 11
-9.608472683845286
 21
5.189058442060526
 31
0.0
 12
-9.587657683845286
 22
5.314058442060526
 32
0.0
 13
-9.587657683845286
 23
5.314058442060526
 33
0.0
  0
ENDBLK
  5
147
330
13E
100
AcDbEntity
  8
0
  6
solid
 62
     7
100
AcDbBlockEnd
  0
BLOCK
  5
14C
330
14B
100
AcDbEntity
  8
0
  6
solid
 62
     7
100
AcDbBlockBegin
  2
*D3
 70
     0
 10
0.0
 20
0.0
 30
0.0
  3
*D3
  1

  0
LINE
  5
14D
330
14B
100
AcDbEntity
  8
0
  6
solid
 62
     7
100
AcDbLine
 10
-9.082926750183105
 20
4.924612998962402
 30
0.0
 11
-9.082926750183105
 21
3.650452336694312
 31
0.0
  0
LINE
  5
14E
330
14B
100
AcDbEntity
  8
0
  6
solid
 62
     7
100
AcDbLine
 10
-1.838414669036865
 20
4.995402336120605
 30
0.0
 11
-1.838414669036865
 21
3.650452336694312
 31
0.0
  0
LINE
  5
14F
330
14B
100
AcDbEntity
  8
0
  6
solid
 62
     7
100
AcDbLine
 10
-9.082926750183105
 20
3.712952336694312
 30
0.0
 11
-5.460670709609985
 21
3.712952336694312
 31
0.0
  0
LINE
  5
150
330
14B
100
AcDbEntity
  8
0
  6
solid
 62
     7
100
AcDbLine
 10
-1.838414669036865
 20
3.712952336694312
 30
0.0
 11
-5.460670709609985
 21
3.712952336694312
 31
0.0
  0
MTEXT
  5
151
330
14B
100
AcDbEntity
  8
0
  6
solid
 62
     7
100
AcDbMText
 10
-5.460670709609985
 20
3.816537432848159
 30
0.0
 40
0.125
 41
0.0
 71
     5
 72
     1
  1
{\H0.125000;7 1/4}
 73
     1
 44
1.0
  0
SOLID
  5
152
330
14B
100
AcDbEntity
  8
0
  6
solid
 62
     7
100
AcDbTrace
 10
-8.957926750183105
 20
3.733767336694312
 30
0.0
 11
-8.957926750183105
 21
3.692137336694312
 31
0.0
 12
-9.082926750183105
 22
3.712952336694312
 32
0.0
 13
-9.082926750183105
 23
3.712952336694312
 33
0.0
  0
SOLID
  5
153
330
14B
100
AcDbEntity
  8
0
  6
solid
 62
     7
100
AcDbTrace
 10
-1.963414669036865
 20
3.692137336694313
 30
0.0
 11
-1.963414669036865
 21
3.733767336694312
 31
0.0
 12
-1.838414669036865
 22
3.712952336694312
 32
0.0
 13
-1.838414669036865
 23
3.712952336694312
 33
0.0
  0
ENDBLK
  5
154
330
14B
100
AcDbEntity
  8
0
  6
solid
 62
     7
100
AcDbBlockEnd
  0
ENDSEC
  0
SECTION
  2
ENTITIES
  0
LINE
  5
28
330
A
100
AcDbEntity
  8
1
  6
solid
 62
     7
100
AcDbLine
 10
0.9698286035217648
 20
3.344843490866785
 30
0.0
 11
0.9698285954710584
 21
2.118326858994909
 31
0.0
  0
LINE
  5
29
330
A
100
AcDbEntity
  8
1
  6
solid
 62
     7
100
AcDbLine
 10
0.9698286132618838
 20
2.118326840372219
 30
0.0
 11
1.312853322981391
 21
2.128818638914819
 31
0.0
  0
ARC
  5
2A
330
A
100
AcDbEntity
  8
1
  6
solid
 62
     7
100
AcDbCircle
 10
1.975470449776109
 20
2.077916514006826
 30
0.0
 40
0.6645694406131371
100
AcDbArc
 50
138.7236182619022
 51
175.6071735929769
  0
ARC
  5
2B
330
A
100
AcDbEntity
  8
1
  6
solid
 62
     7
100
AcDbCircle
 10
2.222605386327741
 20
1.545631934211779
 30
0.0
 40
1.224596253424711
100
AcDbArc
 50
112.3889176594933
 51
127.5646568868528
  0
ARC
  5
2C
330
A
100
AcDbEntity
  8
1
  6
solid
 62
     7
100
AcDbCircle
 10
1.561424377476293
 20
2.927462624902561
 30
0.0
 40
0.3165396604728412
100
AcDbArc
 50
307.9681654125798
 51
408.1587628073361
  0
LINE
  5
2D
330
A
100
AcDbEntity
  8
1
  6
solid
 62
     7
100
AcDbLine
 10
1.772578145969673
 20
3.163283437322804
 30
0.0
 11
1.792496320611095
 21
3.353124530741292
 31
0.0
  0
ARC
  5
2E
330
A
100
AcDbEntity
  8
1
  6
solid
 62
     7
100
AcDbCircle
 10
1.893349472244783
 20
3.694486453785268
 30
0.0
 40
0.3559484338901889
100
AcDbArc
 50
253.5405743898496
 51
371.6703410537103
  0
LINE
  5
2F
330
A
100
AcDbEntity
  8
1
  6
solid
 62
     7
100
AcDbLine
 10
2.241939612101275
 20
3.766487790801329
 30
0.0
 11
2.724120749374177
 21
3.73312726483246
 31
0.0
  0
ARC
  5
30
330
A
100
AcDbEntity
  8
1
  6
solid
 62
     7
100
AcDbCircle
 10
5.262559976113321
 20
3.224651818241182
 30
0.0
 40
2.588864745149229
100
AcDbArc
 50
110.7151138890114
 51
168.6729744417825
  0
ARC
  5
31
330
A
100
AcDbEntity
  8
1
  6
solid
 62
     7
100
AcDbCircle
 10
4.12947289001809
 20
6.815714573042257
 30
0.0
 40
1.189590592220701
100
AcDbArc
 50
280.5276373906242
 51
345.0414511655815
  0
LINE
  5
32
330
A
100
AcDbEntity
  8
1
  6
solid
 62
     7
100
AcDbLine
 10
5.278751527544907
 20
6.508657204661703
 30
0.0
 11
5.629273669512624
 21
6.514203190800126
 31
0.0
  0
LINE
  5
33
330
A
100
AcDbEntity
  8
1
  6
solid
 62
     7
100
AcDbLine
 10
5.629273642904268
 20
6.51420301030365
 30
0.0
 11
5.671321600998551
 21
6.90573246443177
 31
0.0
  0
ARC
  5
34
330
A
100
AcDbEntity
  8
1
  6
solid
 62
     7
100
AcDbCircle
 10
5.456189058442103
 20
7.524345194838565
 30
0.0
 40
0.6549532556647088
100
AcDbArc
 50
289.1759308922208
 51
342.0367473460524
  0
LINE
  5
35
330
A
100
AcDbEntity
  8
1
  6
solid
 62
     7
100
AcDbLine
 10
6.07921625690485
 20
7.322353017451431
 30
0.0
 11
4.907004482206771
 21
7.322353017451431
 31
0.0
  0
LINE
  5
36
330
A
100
AcDbEntity
  8
1
  6
solid
 62
     7
100
AcDbLine
 10
4.907004482206771
 20
7.322353017451431
 30
0.0
 11
0.969828569762183
 21
3.344843446962102
 31
0.0
  0
LINE
  5
37
330
A
100
AcDbEntity
  8
1
  6
solid
 62
     7
100
AcDbLine
 10
1.959631720455593
 20
1.67911140305139
 30
0.0
 11
2.302656430175102
 21
1.689603201593989
 31
0.0
  0
ARC
  5
38
330
A
100
AcDbEntity
  8
1
  6
solid
 62
     7
100
AcDbCircle
 10
2.965273556969819
 20
1.638701076685997
 30
0.0
 40
0.6645694406131371
100
AcDbArc
 50
138.7236182619022
 51
175.6071735929769
  0
ARC
  5
39
330
A
100
AcDbEntity
  8
1
  6
solid
 62
     7
100
AcDbCircle
 10
3.212408493521452
 20
1.10641649689095
 30
0.0
 40
1.224596253424711
100
AcDbArc
 50
112.3889176594933
 51
127.5646568868528
  0
ARC
  5
3A
330
A
100
AcDbEntity
  8
1
  6
solid
 62
     7
100
AcDbCircle
 10
2.551227484670004
 20
2.488247187581731
 30
0.0
 40
0.3165396604728412
100
AcDbArc
 50
307.9681654125798
 51
408.1587628073361
  0
LINE
  5
3B
330
A
100
AcDbEntity
  8
1
  6
solid
 62
     7
100
AcDbLine
 10
2.762381253163384
 20
2.724068000001976
 30
0.0
 11
2.782299427804807
 21
2.913909093420462
 31
0.0
  0
ARC
  5
3C
330
A
100
AcDbEntity
  8
1
  6
solid
 62
     7
100
AcDbCircle
 10
2.883152579438494
 20
3.25527101646444
 30
0.0
 40
0.3559484338901889
100
AcDbArc
 50
253.5405743898496
 51
371.6703410537103
  0
LINE
  5
3D
330
A
100
AcDbEntity
  8
1
  6
solid
 62
     7
100
AcDbLine
 10
3.231742719294986
 20
3.3272723534805
 30
0.0
 11
3.713923856567888
 21
3.29391182751163
 31
0.0
  0
ARC
  5
3E
330
A
100
AcDbEntity
  8
1
  6
solid
 62
     7
100
AcDbCircle
 10
6.252363083307032
 20
2.785436380920354
 30
0.0
 40
2.588864745149229
100
AcDbArc
 50
110.7151138890114
 51
168.6729744417825
  0
ARC
  5
3F
330
A
100
AcDbEntity
  8
1
  6
solid
 62
     7
100
AcDbCircle
 10
5.119275997211801
 20
6.376499135721426
 30
0.0
 40
1.189590592220701
100
AcDbArc
 50
280.5276373906242
 51
345.0414511655815
  0
LINE
  5
40
330
A
100
AcDbEntity
  8
1
  6
solid
 62
     7
100
AcDbLine
 10
6.268554634738618
 20
6.069441767340872
 30
0.0
 11
6.619076776706335
 21
6.074987753479296
 31
0.0
  0
LINE
  5
41
330
A
100
AcDbEntity
  8
1
  6
solid
 62
     7
100
AcDbLine
 10
6.619076750097979
 20
6.074987572982822
 30
0.0
 11
6.661124708192262
 21
6.466517027110941
 31
0.0
  0
ARC
  5
42
330
A
100
AcDbEntity
  8
1
  6
solid
 62
     7
100
AcDbCircle
 10
6.445992165635814
 20
7.085129757517734
 30
0.0
 40
0.6549532556647088
100
AcDbArc
 50
289.1759308922208
 51
342.0367473460524
  0
LINE
  5
43
330
A
100
AcDbEntity
  8
1
  6
solid
 62
     7
100
AcDbLine
 10
6.079216189841931
 20
7.322353181810512
 30
0.0
 11
7.069019504050914
 21
6.883137521715299
 31
0.0
  0
LINE
  5
44
330
A
100
AcDbEntity
  8
1
  6
solid
 62
     7
100
AcDbLine
 10
5.671321578483287
 20
6.905732450456754
 30
0.0
 11
6.661124892692273
 21
6.466516790361539
 31
0.0
  0
LINE
  5
45
330
A
100
AcDbEntity
  8
1
  6
solid
 62
     7
100
AcDbLine
 10
5.629273601035778
 20
6.514202890367641
 30
0.0
 11
6.619076915244763
 21
6.074987707109586
 31
0.0
  0
LINE
  5
46
330
A
100
AcDbEntity
  8
1
  6
solid
 62
     7
100
AcDbLine
 10
5.278751559714978
 20
6.50865727421774
 30
0.0
 11
6.268554397086804
 21
6.069441614122524
 31
0.0
  0
LINE
  5
47
330
A
100
AcDbEntity
  8
1
  6
solid
 62
     7
100
AcDbLine
 10
2.724120803336803
 20
3.733127293558255
 30
0.0
 11
3.713923879127209
 21
3.293911871881618
 31
0.0
  0
LINE
  5
48
330
A
100
AcDbEntity
  8
1
  6
solid
 62
     7
100
AcDbLine
 10
2.241939731101695
 20
3.766487774820462
 30
0.0
 11
3.231742806892102
 21
3.327272353143825
 31
0.0
  0
LINE
  5
49
330
A
100
AcDbEntity
  8
1
  6
solid
 62
     7
100
AcDbLine
 10
1.792496390800183
 20
3.353124556512967
 30
0.0
 11
2.782299466590588
 21
2.913909075231686
 31
0.0
  0
LINE
  5
4A
330
A
100
AcDbEntity
  8
1
  6
solid
 62
     7
100
AcDbLine
 10
1.7725781874463
 20
3.163283405275478
 30
0.0
 11
2.762381263236706
 21
2.724067983598843
 31
0.0
  0
LINE
  5
4B
330
A
100
AcDbEntity
  8
1
  6
solid
 62
     7
100
AcDbLine
 10
1.312853284339611
 20
2.12881864366068
 30
0.0
 11
2.302656360130017
 21
1.689603236885204
 31
0.0
  0
LINE
  5
4C
330
A
100
AcDbEntity
  8
1
  6
solid
 62
     7
100
AcDbLine
 10
0.9698286132618836
 20
2.118326840372219
 30
0.0
 11
1.959631748656932
 21
1.679111403794423
 31
0.0
  0
LINE
  5
4D
330
A
100
AcDbEntity
  8
1
  6
solid
 62
     7
100
AcDbLine
 10
1.216258668153159
 20
1.257532951886985
 30
0.0
 11
1.185372040246184
 21
1.257532951886985
 31
0.0
  0
LINE
  5
4E
330
A
100
AcDbEntity
  8
1
  6
solid
 62
     7
100
AcDbLine
 10
1.185372040246184
 20
1.257532951886985
 30
0.0
 11
1.185372040246184
 21
1.368603300724194
 31
0.0
  0
SPLINE
  5
4F
330
A
100
AcDbEntity
  8
1
  6
solid
 62
     7
100
AcDbSpline
210
0.0
220
0.0
230
1.0
 70
     8
 71
     2
 72
     6
 73
     3
 74
     0
 42
0.0000000001
 43
0.0000000001
 40
0.0
 40
0.0
 40
0.0
 40
1.0
 40
1.0
 40
1.0
 10
1.185372040246184
 20
1.368603300724194
 30
0.0
 10
1.169131923967114
 20
1.350899812352102
 30
0.0
 10
1.147217970478741
 20
1.342925393747451
 30
0.0
  0
LINE
  5
50
330
A
100
AcDbEntity
  8
1
  6
solid
 62
     7
100
AcDbLine
 10
1.147217970478741
 20
1.342925393747451
 30
0.0
 11
1.147217970478741
 21
1.373812021654428
 31
0.0
  0
SPLINE
  5
51
330
A
100
AcDbEntity
  8
1
  6
solid
 62
     7
100
AcDbSpline
210
0.0
220
0.0
230
1.0
 70
     8
 71
     2
 72
     7
 73
     4
 74
     0
 42
0.0000000001
 43
0.0000000001
 40
0.0
 40
0.0
 40
0.0
 40
1.0
 40
2.0
 40
2.0
 40
2.0
 10
1.147217970478741
 20
1.373812021654428
 30
0.0
 10
1.158695877455486
 20
1.377613184445126
 30
0.0
 10
1.186227854199672
 20
1.399303882119544
 30
0.0
 10
1.19147378443223
 20
1.413782951886985
 30
0.0
  0
LINE
  5
52
330
A
100
AcDbEntity
  8
1
  6
solid
 62
     7
100
AcDbLine
 10
1.19147378443223
 20
1.413782951886985
 30
0.0
 11
1.216258668153159
 21
1.413782951886985
 31
0.0
  0
LINE
  5
53
330
A
100
AcDbEntity
  8
1
  6
solid
 62
     7
100
AcDbLine
 10
1.216258668153159
 20
1.257532951886985
 30
0.0
 11
1.216258668153159
 21
1.413782951886985
 31
0.0
  0
LINE
  5
54
330
A
100
AcDbEntity
  8
1
  6
solid
 62
     7
100
AcDbLine
 10
1.24518866815316
 20
1.29932074258466
 30
0.0
 11
1.24518866815316
 21
1.326573649561404
 31
0.0
  0
LINE
  5
55
330
A
100
AcDbEntity
  8
1
  6
solid
 62
     7
100
AcDbLine
 10
1.24518866815316
 20
1.326573649561404
 30
0.0
 11
1.305145063501998
 21
1.326573649561404
 31
0.0
  0
LINE
  5
56
330
A
100
AcDbEntity
  8
1
  6
solid
 62
     7
100
AcDbLine
 10
1.305145063501998
 20
1.326573649561404
 30
0.0
 11
1.305145063501998
 21
1.29932074258466
 31
0.0
  0
LINE
  5
57
330
A
100
AcDbEntity
  8
1
  6
solid
 62
     7
100
AcDbLine
 10
1.24518866815316
 20
1.29932074258466
 30
0.0
 11
1.305145063501998
 21
1.29932074258466
 31
0.0
  0
LINE
  5
58
330
A
100
AcDbEntity
  8
1
  6
solid
 62
     7
100
AcDbLine
 10
1.403115761176415
 20
1.257532951886985
 30
0.0
 11
1.372229133269438
 21
1.257532951886985
 31
0.0
  0
LINE
  5
59
330
A
100
AcDbEntity
  8
1
  6
solid
 62
     7
100
AcDbLine
 10
1.372229133269438
 20
1.257532951886985
 30
0.0
 11
1.372229133269438
 21
1.368603300724194
 31
0.0
  0
SPLINE
  5
5A
330
A
100
AcDbEntity
  8
1
  6
solid
 62
     7
100
AcDbSpline
210
0.0
220
0.0
230
1.0
 70
     8
 71
     2
 72
     6
 73
     3
 74
     0
 42
0.0000000001
 43
0.0000000001
 40
0.0
 40
0.0
 40
0.0
 40
1.0
 40
1.0
 40
1.0
 10
1.372229133269438
 20
1.368603300724194
 30
0.0
 10
1.35598901699037
 20
1.350899812352102
 30
0.0
 10
1.334075063501998
 20
1.342925393747451
 30
0.0
  0
LINE
  5
5B
330
A
100
AcDbEntity
  8
1
  6
solid
 62
     7
100
AcDbLine
 10
1.334075063501998
 20
1.342925393747451
 30
0.0
 11
1.334075063501998
 21
1.373812021654428
 31
0.0
  0
SPLINE
  5
5C
330
A
100
AcDbEntity
  8
1
  6
solid
 62
     7
100
AcDbSpline
210
0.0
220
0.0
230
1.0
 70
     8
 71
     2
 72
     7
 73
     4
 74
     0
 42
0.0000000001
 43
0.0000000001
 40
0.0
 40
0.0
 40
0.0
 40
1.0
 40
2.0
 40
2.0
 40
2.0
 10
1.334075063501998
 20
1.373812021654428
 30
0.0
 10
1.345552970478741
 20
1.377613184445126
 30
0.0
 10
1.373084947222928
 20
1.399303882119544
 30
0.0
 10
1.378330877455486
 20
1.413782951886985
 30
0.0
  0
LINE
  5
5D
330
A
100
AcDbEntity
  8
1
  6
solid
 62
     7
100
AcDbLine
 10
1.378330877455486
 20
1.413782951886985
 30
0.0
 11
1.403115761176415
 21
1.413782951886985
 31
0.0
  0
LINE
  5
5E
330
A
100
AcDbEntity
  8
1
  6
solid
 62
     7
100
AcDbLine
 10
1.403115761176415
 20
1.257532951886985
 30
0.0
 11
1.403115761176415
 21
1.413782951886985
 31
0.0
  0
LINE
  5
5F
330
A
100
AcDbEntity
  8
1
  6
solid
 62
     7
100
AcDbLine
 10
1.431010296060136
 20
1.257532951886985
 30
0.0
 11
1.467366110013625
 21
1.413782951886985
 31
0.0
  0
LINE
  5
60
330
A
100
AcDbEntity
  8
1
  6
solid
 62
     7
100
AcDbLine
 10
1.467366110013625
 20
1.413782951886985
 30
0.0
 11
1.492002156525253
 21
1.413782951886985
 31
0.0
  0
LINE
  5
61
330
A
100
AcDbEntity
  8
1
  6
solid
 62
     7
100
AcDbLine
 10
1.492002156525253
 20
1.413782951886985
 30
0.0
 11
1.455664947222927
 21
1.257532951886985
 31
0.0
  0
LINE
  5
62
330
A
100
AcDbEntity
  8
1
  6
solid
 62
     7
100
AcDbLine
 10
1.431010296060136
 20
1.257532951886985
 30
0.0
 11
1.455664947222927
 21
1.257532951886985
 31
0.0
  0
LINE
  5
63
330
A
100
AcDbEntity
  8
1
  6
solid
 62
     7
100
AcDbLine
 10
1.589972854199672
 20
1.257532951886985
 30
0.0
 11
1.559086226292694
 21
1.257532951886985
 31
0.0
  0
LINE
  5
64
330
A
100
AcDbEntity
  8
1
  6
solid
 62
     7
100
AcDbLine
 10
1.559086226292694
 20
1.257532951886985
 30
0.0
 11
1.559086226292694
 21
1.368603300724194
 31
0.0
  0
SPLINE
  5
65
330
A
100
AcDbEntity
  8
1
  6
solid
 62
     7
100
AcDbSpline
210
0.0
220
0.0
230
1.0
 70
     8
 71
     2
 72
     6
 73
     3
 74
     0
 42
0.0000000001
 43
0.0000000001
 40
0.0
 40
0.0
 40
0.0
 40
1.0
 40
1.0
 40
1.0
 10
1.559086226292694
 20
1.368603300724194
 30
0.0
 10
1.542846110013624
 20
1.350899812352102
 30
0.0
 10
1.520932156525252
 20
1.342925393747451
 30
0.0
  0
LINE
  5
66
330
A
100
AcDbEntity
  8
1
  6
solid
 62
     7
100
AcDbLine
 10
1.520932156525252
 20
1.342925393747451
 30
0.0
 11
1.520932156525252
 21
1.373812021654428
 31
0.0
  0
SPLINE
  5
67
330
A
100
AcDbEntity
  8
1
  6
solid
 62
     7
100
AcDbSpline
210
0.0
220
0.0
230
1.0
 70
     8
 71
     2
 72
     7
 73
     4
 74
     0
 42
0.0000000001
 43
0.0000000001
 40
0.0
 40
0.0
 40
0.0
 40
1.0
 40
2.0
 40
2.0
 40
2.0
 10
1.520932156525252
 20
1.373812021654428
 30
0.0
 10
1.532410063501997
 20
1.377613184445126
 30
0.0
 10
1.559942040246184
 20
1.399303882119544
 30
0.0
 10
1.565187970478741
 20
1.413782951886985
 30
0.0
  0
LINE
  5
68
330
A
100
AcDbEntity
  8
1
  6
solid
 62
     7
100
AcDbLine
 10
1.565187970478741
 20
1.413782951886985
 30
0.0
 11
1.589972854199672
 21
1.413782951886985
 31
0.0
  0
LINE
  5
69
330
A
100
AcDbEntity
  8
1
  6
solid
 62
     7
100
AcDbLine
 10
1.589972854199672
 20
1.257532951886985
 30
0.0
 11
1.589972854199672
 21
1.413782951886985
 31
0.0
  0
LINE
  5
6A
330
A
100
AcDbEntity
  8
1
  6
solid
 62
     7
100
AcDbLine
 10
1.718830179781067
 20
1.371164347235823
 30
0.0
 11
1.687943551874091
 21
1.368361440259078
 31
0.0
  0
SPLINE
  5
6B
330
A
100
AcDbEntity
  8
1
  6
solid
 62
     7
100
AcDbSpline
210
0.0
220
0.0
230
1.0
 70
     8
 71
     2
 72
     7
 73
     4
 74
     0
 42
0.0000000001
 43
0.0000000001
 40
0.0
 40
0.0
 40
0.0
 40
1.0
 40
2.0
 40
2.0
 40
2.0
 10
1.687943551874091
 20
1.368361440259078
 30
0.0
 10
1.686629016990369
 20
1.377594579793963
 30
0.0
 10
1.677767970478742
 20
1.386530044910242
 30
0.0
 10
1.670686575129904
 20
1.386530044910242
 30
0.0
  0
SPLINE
  5
6C
330
A
100
AcDbEntity
  8
1
  6
solid
 62
     7
100
AcDbSpline
210
0.0
220
0.0
230
1.0
 70
     8
 71
     2
 72
     7
 73
     4
 74
     0
 42
0.0000000001
 43
0.0000000001
 40
0.0
 40
0.0
 40
0.0
 40
1.0
 40
2.0
 40
2.0
 40
2.0
 10
1.670686575129904
 20
1.386530044910242
 30
0.0
 10
1.661490644897346
 20
1.386530044910242
 30
0.0
 10
1.648716807688044
 20
1.368398649561404
 30
0.0
 10
1.646992970478742
 20
1.34016609142187
 30
0.0
  0
SPLINE
  5
6D
330
A
100
AcDbEntity
  8
1
  6
solid
 62
     7
100
AcDbSpline
210
0.0
220
0.0
230
1.0
 70
     8
 71
     2
 72
     6
 73
     3
 74
     0
 42
0.0000000001
 43
0.0000000001
 40
0.0
 40
0.0
 40
0.0
 40
1.0
 40
1.0
 40
1.0
 10
1.646992970478742
 20
1.34016609142187
 30
0.0
 10
1.65887378443223
 20
1.353826556538149
 30
0.0
 10
1.675672040246183
 20
1.353826556538149
 30
0.0
  0
SPLINE
  5
6E
330
A
100
AcDbEntity
  8
1
  6
solid
 62
     7
100
AcDbSpline
210
0.0
220
0.0
230
1.0
 70
     8
 71
     2
 72
     7
 73
     4
 74
     0
 42
0.0000000001
 43
0.0000000001
 40
0.0
 40
0.0
 40
0.0
 40
1.0
 40
2.0
 40
2.0
 40
2.0
 10
1.675672040246183
 20
1.353826556538149
 30
0.0
 10
1.694510412339206
 20
1.353826556538149
 30
0.0
 10
1.7224639007113
 20
1.326796905375358
 30
0.0
 10
1.7224639007113
 20
1.305329463514893
 30
0.0
  0
SPLINE
  5
6F
330
A
100
AcDbEntity
  8
1
  6
solid
 62
     7
100
AcDbSpline
210
0.0
220
0.0
230
1.0
 70
     8
 71
     2
 72
     7
 73
     4
 74
     0
 42
0.0000000001
 43
0.0000000001
 40
0.0
 40
0.0
 40
0.0
 40
1.0
 40
2.0
 40
2.0
 40
2.0
 10
1.7224639007113
 20
1.305329463514893
 30
0.0
 10
1.7224639007113
 20
1.283006207700938
 30
0.0
 10
1.69413831931595
 20
1.255716091421869
 30
0.0
 10
1.672280179781066
 20
1.255716091421869
 30
0.0
  0
SPLINE
  5
70
330
A
100
AcDbEntity
  8
1
  6
solid
 62
     7
100
AcDbSpline
210
0.0
220
0.0
230
1.0
 70
     8
 71
     2
 72
     7
 73
     4
 74
     0
 42
0.0000000001
 43
0.0000000001
 40
0.0
 40
0.0
 40
0.0
 40
1.0
 40
2.0
 40
2.0
 40
2.0
 10
1.672280179781066
 20
1.255716091421869
 30
0.0
 10
1.64875401699037
 20
1.255716091421869
 30
0.0
 10
1.618902854199671
 20
1.292109114677683
 30
0.0
 10
1.618902854199671
 20
1.333084696073032
 30
0.0
  0
SPLINE
  5
71
330
A
100
AcDbEntity
  8
1
  6
solid
 62
     7
100
AcDbSpline
210
0.0
220
0.0
230
1.0
 70
     8
 71
     2
 72
     7
 73
     4
 74
     0
 42
0.0000000001
 43
0.0000000001
 40
0.0
 40
0.0
 40
0.0
 40
1.0
 40
2.0
 40
2.0
 40
2.0
 10
1.618902854199671
 20
1.333084696073032
 30
0.0
 10
1.618902854199671
 20
1.376000975142799
 30
0.0
 10
1.650049947222927
 20
1.413782951886985
 30
0.0
 10
1.674562156525253
 20
1.413782951886985
 30
0.0
  0
SPLINE
  5
72
330
A
100
AcDbEntity
  8
1
  6
solid
 62
     7
100
AcDbSpline
210
0.0
220
0.0
230
1.0
 70
     8
 71
     2
 72
     7
 73
     4
 74
     0
 42
0.0000000001
 43
0.0000000001
 40
0.0
 40
0.0
 40
0.0
 40
1.0
 40
2.0
 40
2.0
 40
2.0
 10
1.674562156525253
 20
1.413782951886985
 30
0.0
 10
1.692302854199672
 20
1.413782951886985
 30
0.0
 10
1.715512737920602
 20
1.392129463514893
 30
0.0
 10
1.718830179781067
 20
1.371164347235823
 30
0.0
  0
SPLINE
  5
73
330
A
100
AcDbEntity
  8
1
  6
solid
 62
     7
100
AcDbSpline
210
0.0
220
0.0
230
1.0
 70
     8
 71
     2
 72
     7
 73
     4
 74
     0
 42
0.0000000001
 43
0.0000000001
 40
0.0
 40
0.0
 40
0.0
 40
1.0
 40
2.0
 40
2.0
 40
2.0
 10
1.649789482106648
 20
1.305701556538148
 30
0.0
 10
1.649789482106648
 20
1.294651556538148
 30
0.0
 10
1.663047040246184
 20
1.282968998398613
 30
0.0
 10
1.671870877455486
 20
1.282968998398613
 30
0.0
  0
SPLINE
  5
74
330
A
100
AcDbEntity
  8
1
  6
solid
 62
     7
100
AcDbSpline
210
0.0
220
0.0
230
1.0
 70
     8
 71
     2
 72
     7
 73
     4
 74
     0
 42
0.0000000001
 43
0.0000000001
 40
0.0
 40
0.0
 40
0.0
 40
1.0
 40
2.0
 40
2.0
 40
2.0
 10
1.671870877455486
 20
1.282968998398613
 30
0.0
 10
1.6798639007113
 20
1.282968998398613
 30
0.0
 10
1.691577272804322
 20
1.292592835607915
 30
0.0
 10
1.691577272804322
 20
1.303754463514892
 30
0.0
  0
SPLINE
  5
75
330
A
100
AcDbEntity
  8
1
  6
solid
 62
     7
100
AcDbSpline
210
0.0
220
0.0
230
1.0
 70
     8
 71
     2
 72
     7
 73
     4
 74
     0
 42
0.0000000001
 43
0.0000000001
 40
0.0
 40
0.0
 40
0.0
 40
1.0
 40
2.0
 40
2.0
 40
2.0
 10
1.691577272804322
 20
1.303754463514892
 30
0.0
 10
1.691577272804322
 20
1.315746905375358
 30
0.0
 10
1.679305761176415
 20
1.326573649561404
 30
0.0
 10
1.670258668153159
 20
1.326573649561404
 30
0.0
  0
SPLINE
  5
76
330
A
100
AcDbEntity
  8
1
  6
solid
 62
     7
100
AcDbSpline
210
0.0
220
0.0
230
1.0
 70
     8
 71
     2
 72
     7
 73
     4
 74
     0
 42
0.0000000001
 43
0.0000000001
 40
0.0
 40
0.0
 40
0.0
 40
1.0
 40
2.0
 40
2.0
 40
2.0
 10
1.670258668153159
 20
1.326573649561404
 30
0.0
 10
1.661434830943858
 20
1.326573649561404
 30
0.0
 10
1.649789482106648
 20
1.316063184445126
 30
0.0
 10
1.649789482106648
 20
1.305701556538148
 30
0.0
  0
LINE
  5
77
330
A
100
AcDbEntity
  8
1
  6
solid
 62
     7
100
AcDbLine
 10
1.782736110013624
 20
1.257532951886985
 30
0.0
 11
1.836646575129903
 21
1.339645161189312
 31
0.0
  0
LINE
  5
78
330
A
100
AcDbEntity
  8
1
  6
solid
 62
     7
100
AcDbLine
 10
1.836646575129903
 20
1.339645161189312
 30
0.0
 11
1.788186691408973
 21
1.413782951886985
 31
0.0
  0
LINE
  5
79
330
A
100
AcDbEntity
  8
1
  6
solid
 62
     7
100
AcDbLine
 10
1.788186691408973
 20
1.413782951886985
 30
0.0
 11
1.824505296060136
 21
1.413782951886985
 31
0.0
  0
LINE
  5
7A
330
A
100
AcDbEntity
  8
1
  6
solid
 62
     7
100
AcDbLine
 10
1.824505296060136
 20
1.413782951886985
 30
0.0
 11
1.854815179781066
 21
1.367325975142799
 31
0.0
  0
LINE
  5
7B
330
A
100
AcDbEntity
  8
1
  6
solid
 62
     7
100
AcDbLine
 10
1.854815179781066
 20
1.367325975142799
 30
0.0
 11
1.884480296060137
 21
1.413782951886985
 31
0.0
  0
LINE
  5
7C
330
A
100
AcDbEntity
  8
1
  6
solid
 62
     7
100
AcDbLine
 10
1.884480296060137
 20
1.413782951886985
 30
0.0
 11
1.920817505362462
 21
1.413782951886985
 31
0.0
  0
LINE
  5
7D
330
A
100
AcDbEntity
  8
1
  6
solid
 62
     7
100
AcDbLine
 10
1.920817505362462
 20
1.413782951886985
 30
0.0
 11
1.872983784432229
 21
1.339645161189312
 31
0.0
  0
LINE
  5
7E
330
A
100
AcDbEntity
  8
1
  6
solid
 62
     7
100
AcDbLine
 10
1.872983784432229
 20
1.339645161189312
 30
0.0
 11
1.926268086757811
 21
1.257532951886985
 31
0.0
  0
LINE
  5
7F
330
A
100
AcDbEntity
  8
1
  6
solid
 62
     7
100
AcDbLine
 10
1.926268086757811
 20
1.257532951886985
 30
0.0
 11
1.889930877455485
 21
1.257532951886985
 31
0.0
  0
LINE
  5
80
330
A
100
AcDbEntity
  8
1
  6
solid
 62
     7
100
AcDbLine
 10
1.889930877455485
 20
1.257532951886985
 30
0.0
 11
1.854815179781066
 21
1.311356789096288
 31
0.0
  0
LINE
  5
81
330
A
100
AcDbEntity
  8
1
  6
solid
 62
     7
100
AcDbLine
 10
1.854815179781066
 20
1.311356789096288
 30
0.0
 11
1.819054714664788
 21
1.257532951886985
 31
0.0
  0
LINE
  5
82
330
A
100
AcDbEntity
  8
1
  6
solid
 62
     7
100
AcDbLine
 10
1.782736110013624
 20
1.257532951886985
 30
0.0
 11
1.819054714664788
 21
1.257532951886985
 31
0.0
  0
LINE
  5
83
330
A
100
AcDbEntity
  8
1
  6
solid
 62
     7
100
AcDbLine
 10
1.987166458850835
 20
1.381079463514893
 30
0.0
 11
1.987166458850835
 21
1.411966091421869
 31
0.0
  0
LINE
  5
84
330
A
100
AcDbEntity
  8
1
  6
solid
 62
     7
100
AcDbLine
 10
1.987166458850835
 20
1.411966091421869
 30
0.0
 11
2.090727505362463
 21
1.411966091421869
 31
0.0
  0
LINE
  5
85
330
A
100
AcDbEntity
  8
1
  6
solid
 62
     7
100
AcDbLine
 10
2.090727505362463
 20
1.411966091421869
 30
0.0
 11
2.090727505362463
 21
1.388346905375358
 31
0.0
  0
SPLINE
  5
86
330
A
100
AcDbEntity
  8
1
  6
solid
 62
     7
100
AcDbSpline
210
0.0
220
0.0
230
1.0
 70
     8
 71
     2
 72
     8
 73
     5
 74
     0
 42
0.0000000001
 43
0.0000000001
 40
0.0
 40
0.0
 40
0.0
 40
1.0
 40
2.0
 40
3.0
 40
3.0
 40
3.0
 10
2.090727505362463
 20
1.388346905375358
 30
0.0
 10
2.078009482106649
 20
1.375889347235822
 30
0.0
 10
2.051389133269438
 20
1.329376556538149
 30
0.0
 10
2.037356575129904
 20
1.277816091421869
 30
0.0
 10
2.038038551874091
 20
1.257532951886985
 30
0.0
  0
LINE
  5
87
330
A
100
AcDbEntity
  8
1
  6
solid
 62
     7
100
AcDbLine
 10
2.038038551874091
 20
1.257532951886985
 30
0.0
 11
2.007151923967113
 21
1.257532951886985
 31
0.0
  0
SPLINE
  5
88
330
A
100
AcDbEntity
  8
1
  6
solid
 62
     7
100
AcDbSpline
210
0.0
220
0.0
230
1.0
 70
     8
 71
     2
 72
     7
 73
     4
 74
     0
 42
0.0000000001
 43
0.0000000001
 40
0.0
 40
0.0
 40
0.0
 40
1.0
 40
2.0
 40
2.0
 40
2.0
 10
2.007151923967113
 20
1.257532951886985
 30
0.0
 10
2.007654249548509
 20
1.28894051002652
 30
0.0
 10
2.033704249548509
 20
1.354682370491637
 30
0.0
 10
2.056281575129903
 20
1.381079463514893
 30
0.0
  0
LINE
  5
89
330
A
100
AcDbEntity
  8
1
  6
solid
 62
     7
100
AcDbLine
 10
1.987166458850835
 20
1.381079463514893
 30
0.0
 11
2.056281575129903
 21
1.381079463514893
 31
0.0
  0
LINE
  5
8A
330
A
100
AcDbEntity
  8
1
  6
solid
 62
     7
100
AcDbLine
 10
2.119657505362463
 20
1.29932074258466
 30
0.0
 11
2.119657505362463
 21
1.326573649561404
 31
0.0
  0
LINE
  5
8B
330
A
100
AcDbEntity
  8
1
  6
solid
 62
     7
100
AcDbLine
 10
2.119657505362463
 20
1.326573649561404
 30
0.0
 11
2.1796139007113
 21
1.326573649561404
 31
0.0
  0
LINE
  5
8C
330
A
100
AcDbEntity
  8
1
  6
solid
 62
     7
100
AcDbLine
 10
2.1796139007113
 20
1.326573649561404
 30
0.0
 11
2.1796139007113
 21
1.29932074258466
 31
0.0
  0
LINE
  5
8D
330
A
100
AcDbEntity
  8
1
  6
solid
 62
     7
100
AcDbLine
 10
2.119657505362463
 20
1.29932074258466
 30
0.0
 11
2.1796139007113
 21
1.29932074258466
 31
0.0
  0
LINE
  5
8E
330
A
100
AcDbEntity
  8
1
  6
solid
 62
     7
100
AcDbLine
 10
2.277584598385718
 20
1.257532951886985
 30
0.0
 11
2.246697970478741
 21
1.257532951886985
 31
0.0
  0
LINE
  5
8F
330
A
100
AcDbEntity
  8
1
  6
solid
 62
     7
100
AcDbLine
 10
2.246697970478741
 20
1.257532951886985
 30
0.0
 11
2.246697970478741
 21
1.368603300724194
 31
0.0
  0
SPLINE
  5
90
330
A
100
AcDbEntity
  8
1
  6
solid
 62
     7
100
AcDbSpline
210
0.0
220
0.0
230
1.0
 70
     8
 71
     2
 72
     6
 73
     3
 74
     0
 42
0.0000000001
 43
0.0000000001
 40
0.0
 40
0.0
 40
0.0
 40
1.0
 40
1.0
 40
1.0
 10
2.246697970478741
 20
1.368603300724194
 30
0.0
 10
2.230457854199671
 20
1.350899812352102
 30
0.0
 10
2.208543900711299
 20
1.342925393747451
 30
0.0
  0
LINE
  5
91
330
A
100
AcDbEntity
  8
1
  6
solid
 62
     7
100
AcDbLine
 10
2.208543900711299
 20
1.342925393747451
 30
0.0
 11
2.208543900711299
 21
1.373812021654428
 31
0.0
  0
SPLINE
  5
92
330
A
100
AcDbEntity
  8
1
  6
solid
 62
     7
100
AcDbSpline
210
0.0
220
0.0
230
1.0
 70
     8
 71
     2
 72
     7
 73
     4
 74
     0
 42
0.0000000001
 43
0.0000000001
 40
0.0
 40
0.0
 40
0.0
 40
1.0
 40
2.0
 40
2.0
 40
2.0
 10
2.208543900711299
 20
1.373812021654428
 30
0.0
 10
2.220021807688044
 20
1.377613184445126
 30
0.0
 10
2.24755378443223
 20
1.399303882119544
 30
0.0
 10
2.252799714664789
 20
1.413782951886985
 30
0.0
  0
LINE
  5
93
330
A
100
AcDbEntity
  8
1
  6
solid
 62
     7
100
AcDbLine
 10
2.252799714664789
 20
1.413782951886985
 30
0.0
 11
2.277584598385718
 21
1.413782951886985
 31
0.0
  0
LINE
  5
94
330
A
100
AcDbEntity
  8
1
  6
solid
 62
     7
100
AcDbLine
 10
2.277584598385718
 20
1.257532951886985
 30
0.0
 11
2.277584598385718
 21
1.413782951886985
 31
0.0
  0
LINE
  5
95
330
A
100
AcDbEntity
  8
1
  6
solid
 62
     7
100
AcDbLine
 10
2.305479133269439
 20
1.257532951886985
 30
0.0
 11
2.341834947222928
 21
1.413782951886985
 31
0.0
  0
LINE
  5
96
330
A
100
AcDbEntity
  8
1
  6
solid
 62
     7
100
AcDbLine
 10
2.341834947222928
 20
1.413782951886985
 30
0.0
 11
2.366470993734556
 21
1.413782951886985
 31
0.0
  0
LINE
  5
97
330
A
100
AcDbEntity
  8
1
  6
solid
 62
     7
100
AcDbLine
 10
2.366470993734556
 20
1.413782951886985
 30
0.0
 11
2.330133784432229
 21
1.257532951886985
 31
0.0
  0
LINE
  5
98
330
A
100
AcDbEntity
  8
1
  6
solid
 62
     7
100
AcDbLine
 10
2.305479133269439
 20
1.257532951886985
 30
0.0
 11
2.330133784432229
 21
1.257532951886985
 31
0.0
  0
LINE
  5
99
330
A
100
AcDbEntity
  8
1
  6
solid
 62
     7
100
AcDbLine
 10
2.45717424954851
 20
1.257532951886985
 30
0.0
 11
2.45717424954851
 21
1.288419579793963
 31
0.0
  0
LINE
  5
9A
330
A
100
AcDbEntity
  8
1
  6
solid
 62
     7
100
AcDbLine
 10
2.45717424954851
 20
1.288419579793963
 30
0.0
 11
2.395400993734555
 21
1.288419579793963
 31
0.0
  0
LINE
  5
9B
330
A
100
AcDbEntity
  8
1
  6
solid
 62
     7
100
AcDbLine
 10
2.395400993734555
 20
1.288419579793963
 30
0.0
 11
2.395400993734555
 21
1.313155044910242
 31
0.0
  0
LINE
  5
9C
330
A
100
AcDbEntity
  8
1
  6
solid
 62
     7
100
AcDbLine
 10
2.395400993734555
 20
1.313155044910242
 30
0.0
 11
2.461105644897346
 21
1.411966091421869
 31
0.0
  0
LINE
  5
9D
330
A
100
AcDbEntity
  8
1
  6
solid
 62
     7
100
AcDbLine
 10
2.461105644897346
 20
1.411966091421869
 30
0.0
 11
2.488060877455485
 21
1.411966091421869
 31
0.0
  0
LINE
  5
9E
330
A
100
AcDbEntity
  8
1
  6
solid
 62
     7
100
AcDbLine
 10
2.488060877455485
 20
1.411966091421869
 30
0.0
 11
2.488060877455485
 21
1.31385562630559
 31
0.0
  0
LINE
  5
9F
330
A
100
AcDbEntity
  8
1
  6
solid
 62
     7
100
AcDbLine
 10
2.488060877455485
 20
1.31385562630559
 30
0.0
 11
2.508046342571764
 21
1.31385562630559
 31
0.0
  0
LINE
  5
A0
330
A
100
AcDbEntity
  8
1
  6
solid
 62
     7
100
AcDbLine
 10
2.508046342571764
 20
1.31385562630559
 30
0.0
 11
2.508046342571764
 21
1.288419579793963
 31
0.0
  0
LINE
  5
A1
330
A
100
AcDbEntity
  8
1
  6
solid
 62
     7
100
AcDbLine
 10
2.508046342571764
 20
1.288419579793963
 30
0.0
 11
2.488060877455485
 21
1.288419579793963
 31
0.0
  0
LINE
  5
A2
330
A
100
AcDbEntity
  8
1
  6
solid
 62
     7
100
AcDbLine
 10
2.488060877455485
 20
1.288419579793963
 30
0.0
 11
2.488060877455485
 21
1.257532951886985
 31
0.0
  0
LINE
  5
A3
330
A
100
AcDbEntity
  8
1
  6
solid
 62
     7
100
AcDbLine
 10
2.45717424954851
 20
1.257532951886985
 30
0.0
 11
2.488060877455485
 21
1.257532951886985
 31
0.0
  0
LINE
  5
A4
330
A
100
AcDbEntity
  8
1
  6
solid
 62
     7
100
AcDbLine
 10
2.45717424954851
 20
1.31385562630559
 30
0.0
 11
2.45717424954851
 21
1.363636440259079
 31
0.0
  0
LINE
  5
A5
330
A
100
AcDbEntity
  8
1
  6
solid
 62
     7
100
AcDbLine
 10
2.45717424954851
 20
1.363636440259079
 30
0.0
 11
2.423230644897345
 21
1.31385562630559
 31
0.0
  0
LINE
  5
A6
330
A
100
AcDbEntity
  8
1
  6
solid
 62
     7
100
AcDbLine
 10
2.45717424954851
 20
1.31385562630559
 30
0.0
 11
2.423230644897345
 21
1.31385562630559
 31
0.0
  0
LINE
  5
BE
330
A
100
AcDbEntity
  8
0
  6
solid
 62
     7
100
AcDbLine
 10
4.416948544438463
 20
6.461091948775125
 30
0.0
 11
4.416948544438463
 21
6.465721578404755
 31
0.0
  0
SPLINE
  5
BF
330
A
100
AcDbEntity
  8
0
  6
solid
 62
     7
100
AcDbSpline
210
0.0
220
0.0
230
1.0
 70
     8
 71
     2
 72
     6
 73
     3
 74
     0
 42
0.0000000001
 43
0.0000000001
 40
0.0
 40
0.0
 40
0.0
 40
1.0
 40
1.0
 40
1.0
 10
4.416948544438463
 20
6.465721578404755
 30
0.0
 10
4.427118914808834
 20
6.465721578404755
 30
0.0
 10
4.431622124685377
 20
6.470367010503521
 30
0.0
  0
SPLINE
  5
C0
330
A
100
AcDbEntity
  8
0
  6
solid
 62
     7
100
AcDbSpline
210
0.0
220
0.0
230
1.0
 70
     8
 71
     2
 72
     7
 73
     4
 74
     0
 42
0.0000000001
 43
0.0000000001
 40
0.0
 40
0.0
 40
0.0
 40
1.0
 40
2.0
 40
2.0
 40
2.0
 10
4.431622124685377
 20
6.470367010503521
 30
0.0
 10
4.433765828389081
 20
6.472589726552903
 30
0.0
 10
4.436093729623649
 20
6.481280096923273
 30
0.0
 10
4.436093729623649
 20
6.489817874701051
 30
0.0
  0
LINE
  5
C1
330
A
100
AcDbEntity
  8
0
  6
solid
 62
     7
100
AcDbLine
 10
4.436093729623649
 20
6.489817874701051
 30
0.0
 11
4.436093729623649
 21
6.556770961120804
 31
0.0
  0
SPLINE
  5
C2
330
A
100
AcDbEntity
  8
0
  6
solid
 62
     7
100
AcDbSpline
210
0.0
220
0.0
230
1.0
 70
     8
 71
     2
 72
     7
 73
     4
 74
     0
 42
0.0000000001
 43
0.0000000001
 40
0.0
 40
0.0
 40
0.0
 40
1.0
 40
2.0
 40
2.0
 40
2.0
 10
4.436093729623649
 20
6.556770961120804
 30
0.0
 10
4.436093729623649
 20
6.566030220380064
 30
0.0
 10
4.433671013574266
 20
6.574315158651669
 30
0.0
 10
4.430837433327353
 20
6.577069726552903
 30
0.0
  0
SPLINE
  5
C3
330
A
100
AcDbEntity
  8
0
  6
solid
 62
     7
100
AcDbSpline
210
0.0
220
0.0
230
1.0
 70
     8
 71
     2
 72
     7
 73
     4
 74
     0
 42
0.0000000001
 43
0.0000000001
 40
0.0
 40
0.0
 40
0.0
 40
1.0
 40
2.0
 40
2.0
 40
2.0
 10
4.430837433327353
 20
6.577069726552903
 30
0.0
 10
4.428835951845871
 20
6.578976393219569
 30
0.0
 10
4.42299496419155
 20
6.580819850009693
 30
0.0
 10
4.416948544438463
 20
6.581493924083767
 30
0.0
  0
LINE
  5
C4
330
A
100
AcDbEntity
  8
0
  6
solid
 62
     7
100
AcDbLine
 10
4.416948544438463
 20
6.581493924083767
 30
0.0
 11
4.416948544438463
 21
6.586091948775125
 31
0.0
  0
LINE
  5
C5
330
A
100
AcDbEntity
  8
0
  6
solid
 62
     7
100
AcDbLine
 10
4.416948544438463
 20
6.586091948775125
 30
0.0
 11
4.478013235796488
 21
6.586091948775125
 31
0.0
  0
LINE
  5
C6
330
A
100
AcDbEntity
  8
0
  6
solid
 62
     7
100
AcDbLine
 10
4.478013235796488
 20
6.586091948775125
 30
0.0
 11
4.478013235796488
 21
6.581572936429446
 31
0.0
  0
SPLINE
  5
C7
330
A
100
AcDbEntity
  8
0
  6
solid
 62
     7
100
AcDbSpline
210
0.0
220
0.0
230
1.0
 70
     8
 71
     2
 72
     7
 73
     4
 74
     0
 42
0.0000000001
 43
0.0000000001
 40
0.0
 40
0.0
 40
0.0
 40
1.0
 40
2.0
 40
2.0
 40
2.0
 10
4.478013235796488
 20
6.581572936429446
 30
0.0
 10
4.470676445673031
 20
6.580788245071421
 30
0.0
 10
4.465778174068093
 20
6.579118615441791
 30
0.0
 10
4.463102618512538
 20
6.57700651667636
 30
0.0
  0
SPLINE
  5
C8
330
A
100
AcDbEntity
  8
0
  6
solid
 62
     7
100
AcDbSpline
210
0.0
220
0.0
230
1.0
 70
     8
 71
     2
 72
     7
 73
     4
 74
     0
 42
0.0000000001
 43
0.0000000001
 40
0.0
 40
0.0
 40
0.0
 40
1.0
 40
2.0
 40
2.0
 40
2.0
 10
4.463102618512538
 20
6.57700651667636
 30
0.0
 10
4.461148544438463
 20
6.574552195688705
 30
0.0
 10
4.459241877771797
 20
6.566109232725742
 30
0.0
 10
4.459241877771797
 20
6.556144294454138
 30
0.0
  0
LINE
  5
C9
330
A
100
AcDbEntity
  8
0
  6
solid
 62
     7
100
AcDbLine
 10
4.459241877771797
 20
6.556144294454138
 30
0.0
 11
4.459241877771797
 21
6.504317627787471
 31
0.0
  0
SPLINE
  5
CA
330
A
100
AcDbEntity
  8
0
  6
solid
 62
     7
100
AcDbSpline
210
0.0
220
0.0
230
1.0
 70
     8
 71
     2
 72
     7
 73
     4
 74
     0
 42
0.0000000001
 43
0.0000000001
 40
0.0
 40
0.0
 40
0.0
 40
1.0
 40
2.0
 40
2.0
 40
2.0
 10
4.459241877771797
 20
6.504317627787471
 30
0.0
 10
4.459241877771797
 20
6.491956146305989
 30
0.0
 10
4.460047803697723
 20
6.480195158651668
 30
0.0
 10
4.461559408635994
 20
6.477108738898582
 30
0.0
  0
SPLINE
  5
CB
330
A
100
AcDbEntity
  8
0
  6
solid
 62
     7
100
AcDbSpline
210
0.0
220
0.0
230
1.0
 70
     8
 71
     2
 72
     7
 73
     4
 74
     0
 42
0.0000000001
 43
0.0000000001
 40
0.0
 40
0.0
 40
0.0
 40
1.0
 40
2.0
 40
2.0
 40
2.0
 10
4.461559408635994
 20
6.477108738898582
 30
0.0
 10
4.464661630858217
 20
6.47074626976278
 30
0.0
 10
4.475400890117476
 20
6.465721578404755
 30
0.0
 10
4.484675951845871
 20
6.465721578404755
 30
0.0
  0
SPLINE
  5
CC
330
A
100
AcDbEntity
  8
0
  6
solid
 62
     7
100
AcDbSpline
210
0.0
220
0.0
230
1.0
 70
     8
 71
     2
 72
     7
 73
     4
 74
     0
 42
0.0000000001
 43
0.0000000001
 40
0.0
 40
0.0
 40
0.0
 40
1.0
 40
2.0
 40
2.0
 40
2.0
 10
4.484675951845871
 20
6.465721578404755
 30
0.0
 10
4.495241383944637
 20
6.465721578404755
 30
0.0
 10
4.509177680240933
 20
6.470872689515866
 30
0.0
 10
4.513680890117476
 20
6.476713677170187
 30
0.0
  0
SPLINE
  5
CD
330
A
100
AcDbEntity
  8
0
  6
solid
 62
     7
100
AcDbSpline
210
0.0
220
0.0
230
1.0
 70
     8
 71
     2
 72
     7
 73
     4
 74
     0
 42
0.0000000001
 43
0.0000000001
 40
0.0
 40
0.0
 40
0.0
 40
1.0
 40
2.0
 40
2.0
 40
2.0
 10
4.513680890117476
 20
6.476713677170187
 30
0.0
 10
4.516719902463155
 20
6.480321578404755
 30
0.0
 10
4.520359408635995
 20
6.49058676358994
 30
0.0
 10
4.522703112339698
 20
6.500051454947965
 30
0.0
  0
LINE
  5
CE
330
A
100
AcDbEntity
  8
0
  6
solid
 62
     7
100
AcDbLine
 10
4.522703112339698
 20
6.500051454947965
 30
0.0
 11
4.528686322216241
 21
6.499719603096113
 31
0.0
  0
LINE
  5
CF
330
A
100
AcDbEntity
  8
0
  6
solid
 62
     7
100
AcDbLine
 10
4.528686322216241
 20
6.499719603096113
 30
0.0
 11
4.528686322216241
 21
6.461091948775125
 31
0.0
  0
LINE
  5
D0
330
A
100
AcDbEntity
  8
0
  6
solid
 62
     7
100
AcDbLine
 10
4.416948544438463
 20
6.461091948775125
 30
0.0
 11
4.528686322216241
 21
6.461091948775125
 31
0.0
  0
SPLINE
  5
D1
330
A
100
AcDbEntity
  8
0
  6
solid
 62
     7
100
AcDbSpline
210
0.0
220
0.0
230
1.0
 70
     8
 71
     2
 72
     7
 73
     4
 74
     0
 42
0.0000000001
 43
0.0000000001
 40
0.0
 40
0.0
 40
0.0
 40
1.0
 40
2.0
 40
2.0
 40
2.0
 10
4.541179655549575
 20
6.46512651667636
 30
0.0
 10
4.548010766660686
 20
6.465863800626977
 30
0.0
 10
4.553319902463155
 20
6.467802072231916
 30
0.0
 10
4.555853235796488
 20
6.470414417910927
 30
0.0
  0
SPLINE
  5
D2
330
A
100
AcDbEntity
  8
0
  6
solid
 62
     7
100
AcDbSpline
210
0.0
220
0.0
230
1.0
 70
     8
 71
     2
 72
     7
 73
     4
 74
     0
 42
0.0000000001
 43
0.0000000001
 40
0.0
 40
0.0
 40
0.0
 40
1.0
 40
2.0
 40
2.0
 40
2.0
 10
4.555853235796488
 20
6.470414417910927
 30
0.0
 10
4.557996939500192
 20
6.472652936429446
 30
0.0
 10
4.56032484073476
 20
6.481327504330681
 30
0.0
 10
4.56032484073476
 20
6.489865282108459
 30
0.0
  0
LINE
  5
D3
330
A
100
AcDbEntity
  8
0
  6
solid
 62
     7
100
AcDbLine
 10
4.56032484073476
 20
6.489865282108459
 30
0.0
 11
4.56032484073476
 21
6.55678676358994
 31
0.0
  0
SPLINE
  5
D4
330
A
100
AcDbEntity
  8
0
  6
solid
 62
     7
100
AcDbSpline
210
0.0
220
0.0
230
1.0
 70
     8
 71
     2
 72
     7
 73
     4
 74
     0
 42
0.0000000001
 43
0.0000000001
 40
0.0
 40
0.0
 40
0.0
 40
1.0
 40
2.0
 40
2.0
 40
2.0
 10
4.56032484073476
 20
6.55678676358994
 30
0.0
 10
4.56032484073476
 20
6.566330467293644
 30
0.0
 10
4.557807309870563
 20
6.574583800626977
 30
0.0
 10
4.554705087648341
 20
6.577385775935619
 30
0.0
  0
SPLINE
  5
D5
330
A
100
AcDbEntity
  8
0
  6
solid
 62
     7
100
AcDbSpline
210
0.0
220
0.0
230
1.0
 70
     8
 71
     2
 72
     6
 73
     3
 74
     0
 42
0.0000000001
 43
0.0000000001
 40
0.0
 40
0.0
 40
0.0
 40
1.0
 40
1.0
 40
1.0
 10
4.554705087648341
 20
6.577385775935619
 30
0.0
 10
4.550517927154514
 20
6.580646022849199
 30
0.0
 10
4.541179655549575
 20
6.581509726552903
 30
0.0
  0
LINE
  5
D6
330
A
100
AcDbEntity
  8
0
  6
solid
 62
     7
100
AcDbLine
 10
4.541179655549575
 20
6.581509726552903
 30
0.0
 11
4.541179655549575
 21
6.586091948775125
 31
0.0
  0
LINE
  5
D7
330
A
100
AcDbEntity
  8
0
  6
solid
 62
     7
100
AcDbLine
 10
4.541179655549575
 20
6.586091948775125
 30
0.0
 11
4.59158409999402
 21
6.586091948775125
 31
0.0
  0
SPLINE
  5
D8
330
A
100
AcDbEntity
  8
0
  6
solid
 62
     7
100
AcDbSpline
210
0.0
220
0.0
230
1.0
 70
     8
 71
     2
 72
     6
 73
     3
 74
     0
 42
0.0000000001
 43
0.0000000001
 40
0.0
 40
0.0
 40
0.0
 40
1.0
 40
1.0
 40
1.0
 10
4.59158409999402
 20
6.586091948775125
 30
0.0
 10
4.607553482710069
 20
6.585544294454138
 30
0.0
 10
4.612088297524883
 20
6.585307257417101
 30
0.0
  0
SPLINE
  5
D9
330
A
100
AcDbEntity
  8
0
  6
solid
 62
     7
100
AcDbSpline
210
0.0
220
0.0
230
1.0
 70
     8
 71
     2
 72
     6
 73
     3
 74
     0
 42
0.0000000001
 43
0.0000000001
 40
0.0
 40
0.0
 40
0.0
 40
1.0
 40
1.0
 40
1.0
 10
4.612088297524883
 20
6.585307257417101
 30
0.0
 10
4.632039408635995
 20
6.583779850009693
 30
0.0
 10
4.645470025919945
 20
6.574378368528211
 30
0.0
  0
SPLINE
  5
DA
330
A
100
AcDbEntity
  8
0
  6
solid
 62
     7
100
AcDbSpline
210
0.0
220
0.0
230
1.0
 70
     8
 71
     2
 72
     7
 73
     4
 74
     0
 42
0.0000000001
 43
0.0000000001
 40
0.0
 40
0.0
 40
0.0
 40
1.0
 40
2.0
 40
2.0
 40
2.0
 10
4.645470025919945
 20
6.574378368528211
 30
0.0
 10
4.65849521110513
 20
6.564882072231915
 30
0.0
 10
4.672979161722414
 20
6.535655899392409
 30
0.0
 10
4.672979161722414
 20
6.518775405565249
 30
0.0
  0
SPLINE
  5
DB
330
A
100
AcDbEntity
  8
0
  6
solid
 62
     7
100
AcDbSpline
210
0.0
220
0.0
230
1.0
 70
     8
 71
     2
 72
     7
 73
     4
 74
     0
 42
0.0000000001
 43
0.0000000001
 40
0.0
 40
0.0
 40
0.0
 40
1.0
 40
2.0
 40
2.0
 40
2.0
 10
4.672979161722414
 20
6.518775405565249
 30
0.0
 10
4.672979161722414
 20
6.506445529022038
 30
0.0
 10
4.664589038265624
 20
6.484461331491175
 30
0.0
 10
4.656872988882908
 20
6.476539850009693
 30
0.0
  0
SPLINE
  5
DC
330
A
100
AcDbEntity
  8
0
  6
solid
 62
     7
100
AcDbSpline
210
0.0
220
0.0
230
1.0
 70
     8
 71
     2
 72
     6
 73
     3
 74
     0
 42
0.0000000001
 43
0.0000000001
 40
0.0
 40
0.0
 40
0.0
 40
1.0
 40
1.0
 40
1.0
 10
4.656872988882908
 20
6.476539850009693
 30
0.0
 10
4.647187062956983
 20
6.466053430256606
 30
0.0
 10
4.630733235796489
 20
6.462982812972656
 30
0.0
  0
SPLINE
  5
DD
330
A
100
AcDbEntity
  8
0
  6
solid
 62
     7
100
AcDbSpline
210
0.0
220
0.0
230
1.0
 70
     8
 71
     2
 72
     6
 73
     3
 74
     0
 42
0.0000000001
 43
0.0000000001
 40
0.0
 40
0.0
 40
0.0
 40
1.0
 40
1.0
 40
1.0
 10
4.630733235796489
 20
6.462982812972656
 30
0.0
 10
4.619756939500192
 20
6.461091948775125
 30
0.0
 10
4.608338174068093
 20
6.461091948775125
 30
0.0
  0
LINE
  5
DE
330
A
100
AcDbEntity
  8
0
  6
solid
 62
     7
100
AcDbLine
 10
4.608338174068093
 20
6.461091948775125
 30
0.0
 11
4.541179655549575
 21
6.461091948775125
 31
0.0
  0
LINE
  5
DF
330
A
100
AcDbEntity
  8
0
  6
solid
 62
     7
100
AcDbLine
 10
4.541179655549575
 20
6.46512651667636
 30
0.0
 11
4.541179655549575
 21
6.461091948775125
 31
0.0
  0
LINE
  5
E0
330
A
100
AcDbEntity
  8
0
  6
solid
 62
     7
100
AcDbLine
 10
4.583472988882909
 20
6.579919109268953
 30
0.0
 11
4.583472988882909
 21
6.492208985812162
 31
0.0
  0
SPLINE
  5
E1
330
A
100
AcDbEntity
  8
0
  6
solid
 62
     7
100
AcDbSpline
210
0.0
220
0.0
230
1.0
 70
     8
 71
     2
 72
     7
 73
     4
 74
     0
 42
0.0000000001
 43
0.0000000001
 40
0.0
 40
0.0
 40
0.0
 40
1.0
 40
2.0
 40
2.0
 40
2.0
 10
4.583472988882909
 20
6.492208985812162
 30
0.0
 10
4.583472988882909
 20
6.483170961120804
 30
0.0
 10
4.58528484073476
 20
6.474164541367718
 30
0.0
 10
4.587144099994019
 20
6.472052442602286
 30
0.0
  0
SPLINE
  5
E2
330
A
100
AcDbEntity
  8
0
  6
solid
 62
     7
100
AcDbSpline
210
0.0
220
0.0
230
1.0
 70
     8
 71
     2
 72
     6
 73
     3
 74
     0
 42
0.0000000001
 43
0.0000000001
 40
0.0
 40
0.0
 40
0.0
 40
1.0
 40
1.0
 40
1.0
 10
4.587144099994019
 20
6.472052442602286
 30
0.0
 10
4.592763853080439
 20
6.465721578404755
 30
0.0
 10
4.603819161722414
 20
6.465721578404755
 30
0.0
  0
SPLINE
  5
E3
330
A
100
AcDbEntity
  8
0
  6
solid
 62
     7
100
AcDbSpline
210
0.0
220
0.0
230
1.0
 70
     8
 71
     2
 72
     7
 73
     4
 74
     0
 42
0.0000000001
 43
0.0000000001
 40
0.0
 40
0.0
 40
0.0
 40
1.0
 40
2.0
 40
2.0
 40
2.0
 10
4.603819161722414
 20
6.465721578404755
 30
0.0
 10
4.614621630858217
 20
6.465721578404755
 30
0.0
 10
4.629927309870563
 20
6.472415899392409
 30
0.0
 10
4.635973729623649
 20
6.480210961120804
 30
0.0
  0
SPLINE
  5
E4
330
A
100
AcDbEntity
  8
0
  6
solid
 62
     7
100
AcDbSpline
210
0.0
220
0.0
230
1.0
 70
     8
 71
     2
 72
     7
 73
     4
 74
     0
 42
0.0000000001
 43
0.0000000001
 40
0.0
 40
0.0
 40
0.0
 40
1.0
 40
2.0
 40
2.0
 40
2.0
 10
4.635973729623649
 20
6.480210961120804
 30
0.0
 10
4.641488297524884
 20
6.487911208034384
 30
0.0
 10
4.648287803697723
 20
6.507893924083767
 30
0.0
 10
4.648287803697723
 20
6.518933430256606
 30
0.0
  0
SPLINE
  5
E5
330
A
100
AcDbEntity
  8
0
  6
solid
 62
     7
100
AcDbSpline
210
0.0
220
0.0
230
1.0
 70
     8
 71
     2
 72
     7
 73
     4
 74
     0
 42
0.0000000001
 43
0.0000000001
 40
0.0
 40
0.0
 40
0.0
 40
1.0
 40
2.0
 40
2.0
 40
2.0
 10
4.648287803697723
 20
6.518933430256606
 30
0.0
 10
4.648287803697723
 20
6.531342319145496
 30
0.0
 10
4.64063496419155
 20
6.554047998157841
 30
0.0
 10
4.633345581475501
 20
6.562190714207224
 30
0.0
  0
SPLINE
  5
E6
330
A
100
AcDbEntity
  8
0
  6
solid
 62
     7
100
AcDbSpline
210
0.0
220
0.0
230
1.0
 70
     8
 71
     2
 72
     6
 73
     3
 74
     0
 42
0.0000000001
 43
0.0000000001
 40
0.0
 40
0.0
 40
0.0
 40
1.0
 40
1.0
 40
1.0
 10
4.633345581475501
 20
6.562190714207224
 30
0.0
 10
4.62375447036439
 20
6.574030714207224
 30
0.0
 10
4.61013422345081
 20
6.577527998157841
 30
0.0
  0
SPLINE
  5
E7
330
A
100
AcDbEntity
  8
0
  6
solid
 62
     7
100
AcDbSpline
210
0.0
220
0.0
230
1.0
 70
     8
 71
     2
 72
     6
 73
     3
 74
     0
 42
0.0000000001
 43
0.0000000001
 40
0.0
 40
0.0
 40
0.0
 40
1.0
 40
1.0
 40
1.0
 10
4.61013422345081
 20
6.577527998157841
 30
0.0
 10
4.602576198759452
 20
6.579919109268953
 30
0.0
 10
4.591299655549575
 20
6.579919109268953
 30
0.0
  0
LINE
  5
E8
330
A
100
AcDbEntity
  8
0
  6
solid
 62
     7
100
AcDbLine
 10
4.583472988882909
 20
6.579919109268953
 30
0.0
 11
4.591299655549575
 21
6.579919109268953
 31
0.0
  0
LINE
  5
E9
330
A
100
AcDbEntity
  8
0
  6
solid
 62
     7
100
AcDbLine
 10
4.759356939500193
 20
6.461091948775125
 30
0.0
 11
4.686099161722415
 21
6.461091948775125
 31
0.0
  0
LINE
  5
EA
330
A
100
AcDbEntity
  8
0
  6
solid
 62
     7
100
AcDbLine
 10
4.686099161722415
 20
6.461091948775125
 30
0.0
 11
4.686099161722415
 21
6.464620837664014
 31
0.0
  0
SPLINE
  5
EB
330
A
100
AcDbEntity
  8
0
  6
solid
 62
     7
100
AcDbSpline
210
0.0
220
0.0
230
1.0
 70
     8
 71
     2
 72
     7
 73
     4
 74
     0
 42
0.0000000001
 43
0.0000000001
 40
0.0
 40
0.0
 40
0.0
 40
1.0
 40
2.0
 40
2.0
 40
2.0
 10
4.686099161722415
 20
6.464620837664014
 30
0.0
 10
4.697280890117477
 20
6.475075652478829
 30
0.0
 10
4.719186075302662
 20
6.499045529022039
 30
0.0
 10
4.72693372962365
 20
6.509847998157841
 30
0.0
  0
SPLINE
  5
EC
330
A
100
AcDbEntity
  8
0
  6
solid
 62
     7
100
AcDbSpline
210
0.0
220
0.0
230
1.0
 70
     8
 71
     2
 72
     7
 73
     4
 74
     0
 42
0.0000000001
 43
0.0000000001
 40
0.0
 40
0.0
 40
0.0
 40
1.0
 40
2.0
 40
2.0
 40
2.0
 10
4.72693372962365
 20
6.509847998157841
 30
0.0
 10
4.737846816043403
 20
6.52510626976278
 30
0.0
 10
4.747827556784144
 20
6.546821825318335
 30
0.0
 10
4.747827556784144
 20
6.556128491985002
 30
0.0
  0
SPLINE
  5
ED
330
A
100
AcDbEntity
  8
0
  6
solid
 62
     7
100
AcDbSpline
210
0.0
220
0.0
230
1.0
 70
     8
 71
     2
 72
     6
 73
     3
 74
     0
 42
0.0000000001
 43
0.0000000001
 40
0.0
 40
0.0
 40
0.0
 40
1.0
 40
1.0
 40
1.0
 10
4.747827556784144
 20
6.556128491985002
 30
0.0
 10
4.747827556784144
 20
6.568505775935619
 30
0.0
 10
4.739532248142168
 20
6.57730676358994
 30
0.0
  0
SPLINE
  5
EE
330
A
100
AcDbEntity
  8
0
  6
solid
 62
     7
100
AcDbSpline
210
0.0
220
0.0
230
1.0
 70
     8
 71
     2
 72
     6
 73
     3
 74
     0
 42
0.0000000001
 43
0.0000000001
 40
0.0
 40
0.0
 40
0.0
 40
1.0
 40
1.0
 40
1.0
 10
4.739532248142168
 20
6.57730676358994
 30
0.0
 10
4.733217186413773
 20
6.584548738898582
 30
0.0
 10
4.724805828389082
 20
6.584548738898582
 30
0.0
  0
SPLINE
  5
EF
330
A
100
AcDbEntity
  8
0
  6
solid
 62
     7
100
AcDbSpline
210
0.0
220
0.0
230
1.0
 70
     8
 71
     2
 72
     6
 73
     3
 74
     0
 42
0.0000000001
 43
0.0000000001
 40
0.0
 40
0.0
 40
0.0
 40
1.0
 40
1.0
 40
1.0
 10
4.724805828389082
 20
6.584548738898582
 30
0.0
 10
4.717769285179206
 20
6.584548738898582
 30
0.0
 10
4.712349532092786
 20
6.579118615441791
 30
0.0
  0
SPLINE
  5
F0
330
A
100
AcDbEntity
  8
0
  6
solid
 62
     7
100
AcDbSpline
210
0.0
220
0.0
230
1.0
 70
     8
 71
     2
 72
     7
 73
     4
 74
     0
 42
0.0000000001
 43
0.0000000001
 40
0.0
 40
0.0
 40
0.0
 40
1.0
 40
2.0
 40
2.0
 40
2.0
 10
4.712349532092786
 20
6.579118615441791
 30
0.0
 10
4.708604840734761
 20
6.576285035194878
 30
0.0
 10
4.704617680240934
 20
6.566077627787471
 30
0.0
 10
4.704617680240934
 20
6.559104294454138
 30
0.0
  0
SPLINE
  5
F1
330
A
100
AcDbEntity
  8
0
  6
solid
 62
     7
100
AcDbSpline
210
0.0
220
0.0
230
1.0
 70
     8
 71
     2
 72
     6
 73
     3
 74
     0
 42
0.0000000001
 43
0.0000000001
 40
0.0
 40
0.0
 40
0.0
 40
1.0
 40
1.0
 40
1.0
 10
4.704617680240934
 20
6.559104294454138
 30
0.0
 10
4.704617680240934
 20
6.548412442602286
 30
0.0
 10
4.710084840734761
 20
6.54228701050352
 30
0.0
  0
SPLINE
  5
F2
330
A
100
AcDbEntity
  8
0
  6
solid
 62
     7
100
AcDbSpline
210
0.0
220
0.0
230
1.0
 70
     8
 71
     2
 72
     7
 73
     4
 74
     0
 42
0.0000000001
 43
0.0000000001
 40
0.0
 40
0.0
 40
0.0
 40
1.0
 40
2.0
 40
2.0
 40
2.0
 10
4.710084840734761
 20
6.54228701050352
 30
0.0
 10
4.713202865426119
 20
6.539042566059076
 30
0.0
 10
4.719138667895255
 20
6.536709232725742
 30
0.0
 10
4.721909038265625
 20
6.536709232725742
 30
0.0
  0
SPLINE
  5
F3
330
A
100
AcDbEntity
  8
0
  6
solid
 62
     7
100
AcDbSpline
210
0.0
220
0.0
230
1.0
 70
     8
 71
     2
 72
     6
 73
     3
 74
     0
 42
0.0000000001
 43
0.0000000001
 40
0.0
 40
0.0
 40
0.0
 40
1.0
 40
1.0
 40
1.0
 10
4.721909038265625
 20
6.536709232725742
 30
0.0
 10
4.722319902463156
 20
6.536161578404755
 30
0.0
 10
4.726301630858218
 20
6.536772442602286
 30
0.0
  0
LINE
  5
F4
330
A
100
AcDbEntity
  8
0
  6
solid
 62
     7
100
AcDbLine
 10
4.726301630858218
 20
6.536772442602286
 30
0.0
 11
4.727765828389082
 21
6.533075158651668
 31
0.0
  0
SPLINE
  5
F5
330
A
100
AcDbEntity
  8
0
  6
solid
 62
     7
100
AcDbSpline
210
0.0
220
0.0
230
1.0
 70
     8
 71
     2
 72
     6
 73
     3
 74
     0
 42
0.0000000001
 43
0.0000000001
 40
0.0
 40
0.0
 40
0.0
 40
1.0
 40
1.0
 40
1.0
 10
4.727765828389082
 20
6.533075158651668
 30
0.0
 10
4.718759408635996
 20
6.53053639321957
 30
0.0
 10
4.71301323579649
 20
6.53053639321957
 30
0.0
  0
SPLINE
  5
F6
330
A
100
AcDbEntity
  8
0
  6
solid
 62
     7
100
AcDbSpline
210
0.0
220
0.0
230
1.0
 70
     8
 71
     2
 72
     6
 73
     3
 74
     0
 42
0.0000000001
 43
0.0000000001
 40
0.0
 40
0.0
 40
0.0
 40
1.0
 40
1.0
 40
1.0
 10
4.71301323579649
 20
6.53053639321957
 30
0.0
 10
4.704981137031057
 20
6.53053639321957
 30
0.0
 10
4.698666075302663
 20
6.536035158651668
 30
0.0
  0
SPLINE
  5
F7
330
A
100
AcDbEntity
  8
0
  6
solid
 62
     7
100
AcDbSpline
210
0.0
220
0.0
230
1.0
 70
     8
 71
     2
 72
     7
 73
     4
 74
     0
 42
0.0000000001
 43
0.0000000001
 40
0.0
 40
0.0
 40
0.0
 40
1.0
 40
2.0
 40
2.0
 40
2.0
 10
4.698666075302663
 20
6.536035158651668
 30
0.0
 10
4.694510519747106
 20
6.540001084577594
 30
0.0
 10
4.690728791352045
 20
6.550598121614632
 30
0.0
 10
4.690728791352045
 20
6.556112689515866
 30
0.0
  0
SPLINE
  5
F8
330
A
100
AcDbEntity
  8
0
  6
solid
 62
     7
100
AcDbSpline
210
0.0
220
0.0
230
1.0
 70
     8
 71
     2
 72
     6
 73
     3
 74
     0
 42
0.0000000001
 43
0.0000000001
 40
0.0
 40
0.0
 40
0.0
 40
1.0
 40
1.0
 40
1.0
 10
4.690728791352045
 20
6.556112689515866
 30
0.0
 10
4.690728791352045
 20
6.57078626976278
 30
0.0
 10
4.700730766660687
 20
6.579934911738088
 30
0.0
  0
SPLINE
  5
F9
330
A
100
AcDbEntity
  8
0
  6
solid
 62
     7
100
AcDbSpline
210
0.0
220
0.0
230
1.0
 70
     8
 71
     2
 72
     6
 73
     3
 74
     0
 42
0.0000000001
 43
0.0000000001
 40
0.0
 40
0.0
 40
0.0
 40
1.0
 40
1.0
 40
1.0
 10
4.700730766660687
 20
6.579934911738088
 30
0.0
 10
4.711485828389082
 20
6.589178368528211
 30
0.0
 10
4.727892248142168
 20
6.589178368528211
 30
0.0
  0
SPLINE
  5
FA
330
A
100
AcDbEntity
  8
0
  6
solid
 62
     7
100
AcDbSpline
210
0.0
220
0.0
230
1.0
 70
     8
 71
     2
 72
     7
 73
     4
 74
     0
 42
0.0000000001
 43
0.0000000001
 40
0.0
 40
0.0
 40
0.0
 40
1.0
 40
2.0
 40
2.0
 40
2.0
 10
4.727892248142168
 20
6.589178368528211
 30
0.0
 10
4.737135704932292
 20
6.589178368528211
 30
0.0
 10
4.752962865426119
 20
6.582363059886237
 30
0.0
 10
4.757671507401428
 20
6.577338368528212
 30
0.0
  0
SPLINE
  5
FB
330
A
100
AcDbEntity
  8
0
  6
solid
 62
     7
100
AcDbSpline
210
0.0
220
0.0
230
1.0
 70
     8
 71
     2
 72
     7
 73
     4
 74
     0
 42
0.0000000001
 43
0.0000000001
 40
0.0
 40
0.0
 40
0.0
 40
1.0
 40
2.0
 40
2.0
 40
2.0
 10
4.757671507401428
 20
6.577338368528212
 30
0.0
 10
4.762648791352045
 20
6.57157639321957
 30
0.0
 10
4.767889285179205
 20
6.558883059886237
 30
0.0
 10
4.767889285179205
 20
6.55223614630599
 30
0.0
  0
SPLINE
  5
FC
330
A
100
AcDbEntity
  8
0
  6
solid
 62
     7
100
AcDbSpline
210
0.0
220
0.0
230
1.0
 70
     8
 71
     2
 72
     6
 73
     3
 74
     0
 42
0.0000000001
 43
0.0000000001
 40
0.0
 40
0.0
 40
0.0
 40
1.0
 40
1.0
 40
1.0
 10
4.767889285179205
 20
6.55223614630599
 30
0.0
 10
4.767889285179205
 20
6.538489479639323
 30
0.0
 10
4.757560890117477
 20
6.523310220380063
 30
0.0
  0
SPLINE
  5
FD
330
A
100
AcDbEntity
  8
0
  6
solid
 62
     7
100
AcDbSpline
210
0.0
220
0.0
230
1.0
 70
     8
 71
     2
 72
     7
 73
     4
 74
     0
 42
0.0000000001
 43
0.0000000001
 40
0.0
 40
0.0
 40
0.0
 40
1.0
 40
2.0
 40
2.0
 40
2.0
 10
4.757560890117477
 20
6.523310220380063
 30
0.0
 10
4.753152495055749
 20
6.517074170997347
 30
0.0
 10
4.740158914808835
 20
6.503374911738088
 30
0.0
 10
4.727844840734761
 20
6.492935899392409
 30
0.0
  0
SPLINE
  5
FE
330
A
100
AcDbEntity
  8
0
  6
solid
 62
     7
100
AcDbSpline
210
0.0
220
0.0
230
1.0
 70
     8
 71
     2
 72
     6
 73
     3
 74
     0
 42
0.0000000001
 43
0.0000000001
 40
0.0
 40
0.0
 40
0.0
 40
1.0
 40
1.0
 40
1.0
 10
4.727844840734761
 20
6.492935899392409
 30
0.0
 10
4.713892741969329
 20
6.481675158651668
 30
0.0
 10
4.70770409999402
 20
6.478067257417101
 30
0.0
  0
LINE
  5
FF
330
A
100
AcDbEntity
  8
0
  6
solid
 62
     7
100
AcDbLine
 10
4.70770409999402
 20
6.478067257417101
 30
0.0
 11
4.737593976537231
 21
6.478067257417101
 31
0.0
  0
SPLINE
  5
100
330
A
100
AcDbEntity
  8
0
  6
solid
 62
     7
100
AcDbSpline
210
0.0
220
0.0
230
1.0
 70
     8
 71
     2
 72
     6
 73
     3
 74
     0
 42
0.0000000001
 43
0.0000000001
 40
0.0
 40
0.0
 40
0.0
 40
1.0
 40
1.0
 40
1.0
 10
4.737593976537231
 20
6.478067257417101
 30
0.0
 10
4.745657680240934
 20
6.478067257417101
 30
0.0
 10
4.749386569129823
 20
6.478651948775125
 30
0.0
  0
SPLINE
  5
101
330
A
100
AcDbEntity
  8
0
  6
solid
 62
     7
100
AcDbSpline
210
0.0
220
0.0
230
1.0
 70
     8
 71
     2
 72
     6
 73
     3
 74
     0
 42
0.0000000001
 43
0.0000000001
 40
0.0
 40
0.0
 40
0.0
 40
1.0
 40
1.0
 40
1.0
 10
4.749386569129823
 20
6.478651948775125
 30
0.0
 10
4.753231507401427
 20
6.479910714207224
 30
0.0
 10
4.756175704932292
 20
6.482933924083767
 30
0.0
  0
SPLINE
  5
102
330
A
100
AcDbEntity
  8
0
  6
solid
 62
     7
100
AcDbSpline
210
0.0
220
0.0
230
1.0
 70
     8
 71
     2
 72
     6
 73
     3
 74
     0
 42
0.0000000001
 43
0.0000000001
 40
0.0
 40
0.0
 40
0.0
 40
1.0
 40
1.0
 40
1.0
 10
4.756175704932292
 20
6.482933924083767
 30
0.0
 10
4.759356939500193
 20
6.486194170997348
 30
0.0
 10
4.762048297524884
 20
6.493736393219569
 30
0.0
  0
LINE
  5
103
330
A
100
AcDbEntity
  8
0
  6
solid
 62
     7
100
AcDbLine
 10
4.762048297524884
 20
6.493736393219569
 30
0.0
 11
4.767889285179205
 21
6.492540837664014
 31
0.0
  0
LINE
  5
104
330
A
100
AcDbEntity
  8
0
  6
solid
 62
     7
100
AcDbLine
 10
4.759356939500193
 20
6.461091948775125
 30
0.0
 11
4.767889285179205
 21
6.492540837664014
 31
0.0
  0
LINE
  5
105
330
A
100
AcDbEntity
  8
0
  6
solid
 62
     7
100
AcDbLine
 10
4.854267062956983
 20
6.461091948775125
 30
0.0
 11
4.781009285179205
 21
6.461091948775125
 31
0.0
  0
LINE
  5
106
330
A
100
AcDbEntity
  8
0
  6
solid
 62
     7
100
AcDbLine
 10
4.781009285179205
 20
6.461091948775125
 30
0.0
 11
4.781009285179205
 21
6.464620837664014
 31
0.0
  0
SPLINE
  5
107
330
A
100
AcDbEntity
  8
0
  6
solid
 62
     7
100
AcDbSpline
210
0.0
220
0.0
230
1.0
 70
     8
 71
     2
 72
     7
 73
     4
 74
     0
 42
0.0000000001
 43
0.0000000001
 40
0.0
 40
0.0
 40
0.0
 40
1.0
 40
2.0
 40
2.0
 40
2.0
 10
4.781009285179205
 20
6.464620837664014
 30
0.0
 10
4.792191013574267
 20
6.475075652478829
 30
0.0
 10
4.814096198759452
 20
6.499045529022039
 30
0.0
 10
4.82184385308044
 20
6.509847998157841
 30
0.0
  0
SPLINE
  5
108
330
A
100
AcDbEntity
  8
0
  6
solid
 62
     7
100
AcDbSpline
210
0.0
220
0.0
230
1.0
 70
     8
 71
     2
 72
     7
 73
     4
 74
     0
 42
0.0000000001
 43
0.0000000001
 40
0.0
 40
0.0
 40
0.0
 40
1.0
 40
2.0
 40
2.0
 40
2.0
 10
4.82184385308044
 20
6.509847998157841
 30
0.0
 10
4.832756939500193
 20
6.52510626976278
 30
0.0
 10
4.842737680240934
 20
6.546821825318335
 30
0.0
 10
4.842737680240934
 20
6.556128491985002
 30
0.0
  0
SPLINE
  5
109
330
A
100
AcDbEntity
  8
0
  6
solid
 62
     7
100
AcDbSpline
210
0.0
220
0.0
230
1.0
 70
     8
 71
     2
 72
     6
 73
     3
 74
     0
 42
0.0000000001
 43
0.0000000001
 40
0.0
 40
0.0
 40
0.0
 40
1.0
 40
1.0
 40
1.0
 10
4.842737680240934
 20
6.556128491985002
 30
0.0
 10
4.842737680240934
 20
6.568505775935619
 30
0.0
 10
4.834442371598958
 20
6.57730676358994
 30
0.0
  0
SPLINE
  5
10A
330
A
100
AcDbEntity
  8
0
  6
solid
 62
     7
100
AcDbSpline
210
0.0
220
0.0
230
1.0
 70
     8
 71
     2
 72
     6
 73
     3
 74
     0
 42
0.0000000001
 43
0.0000000001
 40
0.0
 40
0.0
 40
0.0
 40
1.0
 40
1.0
 40
1.0
 10
4.834442371598958
 20
6.57730676358994
 30
0.0
 10
4.828127309870564
 20
6.584548738898582
 30
0.0
 10
4.819715951845872
 20
6.584548738898582
 30
0.0
  0
SPLINE
  5
10B
330
A
100
AcDbEntity
  8
0
  6
solid
 62
     7
100
AcDbSpline
210
0.0
220
0.0
230
1.0
 70
     8
 71
     2
 72
     6
 73
     3
 74
     0
 42
0.0000000001
 43
0.0000000001
 40
0.0
 40
0.0
 40
0.0
 40
1.0
 40
1.0
 40
1.0
 10
4.819715951845872
 20
6.584548738898582
 30
0.0
 10
4.812679408635996
 20
6.584548738898582
 30
0.0
 10
4.807259655549576
 20
6.579118615441791
 30
0.0
  0
SPLINE
  5
10C
330
A
100
AcDbEntity
  8
0
  6
solid
 62
     7
100
AcDbSpline
210
0.0
220
0.0
230
1.0
 70
     8
 71
     2
 72
     7
 73
     4
 74
     0
 42
0.0000000001
 43
0.0000000001
 40
0.0
 40
0.0
 40
0.0
 40
1.0
 40
2.0
 40
2.0
 40
2.0
 10
4.807259655549576
 20
6.579118615441791
 30
0.0
 10
4.803514964191551
 20
6.576285035194878
 30
0.0
 10
4.799527803697724
 20
6.566077627787471
 30
0.0
 10
4.799527803697724
 20
6.559104294454138
 30
0.0
  0
SPLINE
  5
10D
330
A
100
AcDbEntity
  8
0
  6
solid
 62
     7
100
AcDbSpline
210
0.0
220
0.0
230
1.0
 70
     8
 71
     2
 72
     6
 73
     3
 74
     0
 42
0.0000000001
 43
0.0000000001
 40
0.0
 40
0.0
 40
0.0
 40
1.0
 40
1.0
 40
1.0
 10
4.799527803697724
 20
6.559104294454138
 30
0.0
 10
4.799527803697724
 20
6.548412442602286
 30
0.0
 10
4.804994964191552
 20
6.54228701050352
 30
0.0
  0
SPLINE
  5
10E
330
A
100
AcDbEntity
  8
0
  6
solid
 62
     7
100
AcDbSpline
210
0.0
220
0.0
230
1.0
 70
     8
 71
     2
 72
     7
 73
     4
 74
     0
 42
0.0000000001
 43
0.0000000001
 40
0.0
 40
0.0
 40
0.0
 40
1.0
 40
2.0
 40
2.0
 40
2.0
 10
4.804994964191552
 20
6.54228701050352
 30
0.0
 10
4.80811298888291
 20
6.539042566059076
 30
0.0
 10
4.814048791352045
 20
6.536709232725742
 30
0.0
 10
4.816819161722415
 20
6.536709232725742
 30
0.0
  0
SPLINE
  5
10F
330
A
100
AcDbEntity
  8
0
  6
solid
 62
     7
100
AcDbSpline
210
0.0
220
0.0
230
1.0
 70
     8
 71
     2
 72
     6
 73
     3
 74
     0
 42
0.0000000001
 43
0.0000000001
 40
0.0
 40
0.0
 40
0.0
 40
1.0
 40
1.0
 40
1.0
 10
4.816819161722415
 20
6.536709232725742
 30
0.0
 10
4.817230025919946
 20
6.536161578404755
 30
0.0
 10
4.821211754315008
 20
6.536772442602286
 30
0.0
  0
LINE
  5
110
330
A
100
AcDbEntity
  8
0
  6
solid
 62
     7
100
AcDbLine
 10
4.821211754315008
 20
6.536772442602286
 30
0.0
 11
4.822675951845872
 21
6.533075158651668
 31
0.0
  0
SPLINE
  5
111
330
A
100
AcDbEntity
  8
0
  6
solid
 62
     7
100
AcDbSpline
210
0.0
220
0.0
230
1.0
 70
     8
 71
     2
 72
     6
 73
     3
 74
     0
 42
0.0000000001
 43
0.0000000001
 40
0.0
 40
0.0
 40
0.0
 40
1.0
 40
1.0
 40
1.0
 10
4.822675951845872
 20
6.533075158651668
 30
0.0
 10
4.813669532092786
 20
6.53053639321957
 30
0.0
 10
4.80792335925328
 20
6.53053639321957
 30
0.0
  0
SPLINE
  5
112
330
A
100
AcDbEntity
  8
0
  6
solid
 62
     7
100
AcDbSpline
210
0.0
220
0.0
230
1.0
 70
     8
 71
     2
 72
     6
 73
     3
 74
     0
 42
0.0000000001
 43
0.0000000001
 40
0.0
 40
0.0
 40
0.0
 40
1.0
 40
1.0
 40
1.0
 10
4.80792335925328
 20
6.53053639321957
 30
0.0
 10
4.799891260487847
 20
6.53053639321957
 30
0.0
 10
4.793576198759453
 20
6.536035158651668
 30
0.0
  0
SPLINE
  5
113
330
A
100
AcDbEntity
  8
0
  6
solid
 62
     7
100
AcDbSpline
210
0.0
220
0.0
230
1.0
 70
     8
 71
     2
 72
     7
 73
     4
 74
     0
 42
0.0000000001
 43
0.0000000001
 40
0.0
 40
0.0
 40
0.0
 40
1.0
 40
2.0
 40
2.0
 40
2.0
 10
4.793576198759453
 20
6.536035158651668
 30
0.0
 10
4.789420643203897
 20
6.540001084577594
 30
0.0
 10
4.785638914808835
 20
6.550598121614632
 30
0.0
 10
4.785638914808835
 20
6.556112689515866
 30
0.0
  0
SPLINE
  5
114
330
A
100
AcDbEntity
  8
0
  6
solid
 62
     7
100
AcDbSpline
210
0.0
220
0.0
230
1.0
 70
     8
 71
     2
 72
     6
 73
     3
 74
     0
 42
0.0000000001
 43
0.0000000001
 40
0.0
 40
0.0
 40
0.0
 40
1.0
 40
1.0
 40
1.0
 10
4.785638914808835
 20
6.556112689515866
 30
0.0
 10
4.785638914808835
 20
6.57078626976278
 30
0.0
 10
4.795640890117478
 20
6.579934911738088
 30
0.0
  0
SPLINE
  5
115
330
A
100
AcDbEntity
  8
0
  6
solid
 62
     7
100
AcDbSpline
210
0.0
220
0.0
230
1.0
 70
     8
 71
     2
 72
     6
 73
     3
 74
     0
 42
0.0000000001
 43
0.0000000001
 40
0.0
 40
0.0
 40
0.0
 40
1.0
 40
1.0
 40
1.0
 10
4.795640890117478
 20
6.579934911738088
 30
0.0
 10
4.806395951845872
 20
6.589178368528211
 30
0.0
 10
4.822802371598958
 20
6.589178368528211
 30
0.0
  0
SPLINE
  5
116
330
A
100
AcDbEntity
  8
0
  6
solid
 62
     7
100
AcDbSpline
210
0.0
220
0.0
230
1.0
 70
     8
 71
     2
 72
     7
 73
     4
 74
     0
 42
0.0000000001
 43
0.0000000001
 40
0.0
 40
0.0
 40
0.0
 40
1.0
 40
2.0
 40
2.0
 40
2.0
 10
4.822802371598958
 20
6.589178368528211
 30
0.0
 10
4.832045828389082
 20
6.589178368528211
 30
0.0
 10
4.847872988882909
 20
6.582363059886237
 30
0.0
 10
4.852581630858218
 20
6.577338368528212
 30
0.0
  0
SPLINE
  5
117
330
A
100
AcDbEntity
  8
0
  6
solid
 62
     7
100
AcDbSpline
210
0.0
220
0.0
230
1.0
 70
     8
 71
     2
 72
     7
 73
     4
 74
     0
 42
0.0000000001
 43
0.0000000001
 40
0.0
 40
0.0
 40
0.0
 40
1.0
 40
2.0
 40
2.0
 40
2.0
 10
4.852581630858218
 20
6.577338368528212
 30
0.0
 10
4.857558914808835
 20
6.57157639321957
 30
0.0
 10
4.862799408635996
 20
6.558883059886237
 30
0.0
 10
4.862799408635996
 20
6.55223614630599
 30
0.0
  0
SPLINE
  5
118
330
A
100
AcDbEntity
  8
0
  6
solid
 62
     7
100
AcDbSpline
210
0.0
220
0.0
230
1.0
 70
     8
 71
     2
 72
     6
 73
     3
 74
     0
 42
0.0000000001
 43
0.0000000001
 40
0.0
 40
0.0
 40
0.0
 40
1.0
 40
1.0
 40
1.0
 10
4.862799408635996
 20
6.55223614630599
 30
0.0
 10
4.862799408635996
 20
6.538489479639323
 30
0.0
 10
4.852471013574267
 20
6.523310220380063
 30
0.0
  0
SPLINE
  5
119
330
A
100
AcDbEntity
  8
0
  6
solid
 62
     7
100
AcDbSpline
210
0.0
220
0.0
230
1.0
 70
     8
 71
     2
 72
     7
 73
     4
 74
     0
 42
0.0000000001
 43
0.0000000001
 40
0.0
 40
0.0
 40
0.0
 40
1.0
 40
2.0
 40
2.0
 40
2.0
 10
4.852471013574267
 20
6.523310220380063
 30
0.0
 10
4.848062618512539
 20
6.517074170997347
 30
0.0
 10
4.835069038265626
 20
6.503374911738088
 30
0.0
 10
4.822754964191552
 20
6.492935899392409
 30
0.0
  0
SPLINE
  5
11A
330
A
100
AcDbEntity
  8
0
  6
solid
 62
     7
100
AcDbSpline
210
0.0
220
0.0
230
1.0
 70
     8
 71
     2
 72
     6
 73
     3
 74
     0
 42
0.0000000001
 43
0.0000000001
 40
0.0
 40
0.0
 40
0.0
 40
1.0
 40
1.0
 40
1.0
 10
4.822754964191552
 20
6.492935899392409
 30
0.0
 10
4.808802865426119
 20
6.481675158651668
 30
0.0
 10
4.80261422345081
 20
6.478067257417101
 30
0.0
  0
LINE
  5
11B
330
A
100
AcDbEntity
  8
0
  6
solid
 62
     7
100
AcDbLine
 10
4.80261422345081
 20
6.478067257417101
 30
0.0
 11
4.832504099994021
 21
6.478067257417101
 31
0.0
  0
SPLINE
  5
11C
330
A
100
AcDbEntity
  8
0
  6
solid
 62
     7
100
AcDbSpline
210
0.0
220
0.0
230
1.0
 70
     8
 71
     2
 72
     6
 73
     3
 74
     0
 42
0.0000000001
 43
0.0000000001
 40
0.0
 40
0.0
 40
0.0
 40
1.0
 40
1.0
 40
1.0
 10
4.832504099994021
 20
6.478067257417101
 30
0.0
 10
4.840567803697724
 20
6.478067257417101
 30
0.0
 10
4.844296692586613
 20
6.478651948775125
 30
0.0
  0
SPLINE
  5
11D
330
A
100
AcDbEntity
  8
0
  6
solid
 62
     7
100
AcDbSpline
210
0.0
220
0.0
230
1.0
 70
     8
 71
     2
 72
     6
 73
     3
 74
     0
 42
0.0000000001
 43
0.0000000001
 40
0.0
 40
0.0
 40
0.0
 40
1.0
 40
1.0
 40
1.0
 10
4.844296692586613
 20
6.478651948775125
 30
0.0
 10
4.848141630858218
 20
6.479910714207224
 30
0.0
 10
4.851085828389082
 20
6.482933924083767
 30
0.0
  0
SPLINE
  5
11E
330
A
100
AcDbEntity
  8
0
  6
solid
 62
     7
100
AcDbSpline
210
0.0
220
0.0
230
1.0
 70
     8
 71
     2
 72
     6
 73
     3
 74
     0
 42
0.0000000001
 43
0.0000000001
 40
0.0
 40
0.0
 40
0.0
 40
1.0
 40
1.0
 40
1.0
 10
4.851085828389082
 20
6.482933924083767
 30
0.0
 10
4.854267062956983
 20
6.486194170997348
 30
0.0
 10
4.856958420981674
 20
6.493736393219569
 30
0.0
  0
LINE
  5
11F
330
A
100
AcDbEntity
  8
0
  6
solid
 62
     7
100
AcDbLine
 10
4.856958420981674
 20
6.493736393219569
 30
0.0
 11
4.862799408635996
 21
6.492540837664014
 31
0.0
  0
LINE
  5
120
330
A
100
AcDbEntity
  8
0
  6
solid
 62
     7
100
AcDbLine
 10
4.854267062956983
 20
6.461091948775125
 30
0.0
 11
4.862799408635996
 21
6.492540837664014
 31
0.0
  0
LINE
  5
121
330
A
100
AcDbEntity
  8
0
  6
solid
 62
     7
100
AcDbLine
 10
4.908627062956983
 20
6.586091948775125
 30
0.0
 11
4.914499655549576
 21
6.586091948775125
 31
0.0
  0
LINE
  5
122
330
A
100
AcDbEntity
  8
0
  6
solid
 62
     7
100
AcDbLine
 10
4.914499655549576
 20
6.586091948775125
 30
0.0
 11
4.914499655549576
 21
6.48614676358994
 31
0.0
  0
SPLINE
  5
123
330
A
100
AcDbEntity
  8
0
  6
solid
 62
     7
100
AcDbSpline
210
0.0
220
0.0
230
1.0
 70
     8
 71
     2
 72
     7
 73
     4
 74
     0
 42
0.0000000001
 43
0.0000000001
 40
0.0
 40
0.0
 40
0.0
 40
1.0
 40
2.0
 40
2.0
 40
2.0
 10
4.914499655549576
 20
6.48614676358994
 30
0.0
 10
4.914499655549576
 20
6.478888985812162
 30
0.0
 10
4.916501137031057
 20
6.470841084577594
 30
0.0
 10
4.918028544438465
 20
6.469455899392409
 30
0.0
  0
SPLINE
  5
124
330
A
100
AcDbEntity
  8
0
  6
solid
 62
     7
100
AcDbSpline
210
0.0
220
0.0
230
1.0
 70
     8
 71
     2
 72
     6
 73
     3
 74
     0
 42
0.0000000001
 43
0.0000000001
 40
0.0
 40
0.0
 40
0.0
 40
1.0
 40
1.0
 40
1.0
 10
4.918028544438465
 20
6.469455899392409
 30
0.0
 10
4.922247309870564
 20
6.466148245071422
 30
0.0
 10
4.932470519747107
 20
6.465015899392409
 30
0.0
  0
LINE
  5
125
330
A
100
AcDbEntity
  8
0
  6
solid
 62
     7
100
AcDbLine
 10
4.932470519747107
 20
6.465015899392409
 30
0.0
 11
4.932470519747107
 21
6.461091948775125
 31
0.0
  0
LINE
  5
126
330
A
100
AcDbEntity
  8
0
  6
solid
 62
     7
100
AcDbLine
 10
4.932470519747107
 20
6.461091948775125
 30
0.0
 11
4.876109038265625
 21
6.461091948775125
 31
0.0
  0
LINE
  5
127
330
A
100
AcDbEntity
  8
0
  6
solid
 62
     7
100
AcDbLine
 10
4.876109038265625
 20
6.461091948775125
 30
0.0
 11
4.876109038265625
 21
6.465094911738088
 31
0.0
  0
SPLINE
  5
128
330
A
100
AcDbEntity
  8
0
  6
solid
 62
     7
100
AcDbSpline
210
0.0
220
0.0
230
1.0
 70
     8
 71
     2
 72
     7
 73
     4
 74
     0
 42
0.0000000001
 43
0.0000000001
 40
0.0
 40
0.0
 40
0.0
 40
1.0
 40
2.0
 40
2.0
 40
2.0
 10
4.876109038265625
 20
6.465094911738088
 30
0.0
 10
4.882929779006366
 20
6.4660060228492
 30
0.0
 10
4.888596939500193
 20
6.467754664824508
 30
0.0
 10
4.890472001228588
 20
6.469740343836853
 30
0.0
  0
SPLINE
  5
129
330
A
100
AcDbEntity
  8
0
  6
solid
 62
     7
100
AcDbSpline
210
0.0
220
0.0
230
1.0
 70
     8
 71
     2
 72
     7
 73
     4
 74
     0
 42
0.0000000001
 43
0.0000000001
 40
0.0
 40
0.0
 40
0.0
 40
1.0
 40
2.0
 40
2.0
 40
2.0
 10
4.890472001228588
 20
6.469740343836853
 30
0.0
 10
4.892347062956983
 20
6.47222626976278
 30
0.0
 10
4.894437927154514
 20
6.478667751244261
 30
0.0
 10
4.894437927154514
 20
6.485799109268953
 30
0.0
  0
LINE
  5
12A
330
A
100
AcDbEntity
  8
0
  6
solid
 62
     7
100
AcDbLine
 10
4.894437927154514
 20
6.485799109268953
 30
0.0
 11
4.894437927154514
 21
6.569464294454138
 31
0.0
  0
SPLINE
  5
12B
330
A
100
AcDbEntity
  8
0
  6
solid
 62
     7
100
AcDbSpline
210
0.0
220
0.0
230
1.0
 70
     8
 71
     2
 72
     6
 73
     3
 74
     0
 42
0.0000000001
 43
0.0000000001
 40
0.0
 40
0.0
 40
0.0
 40
1.0
 40
1.0
 40
1.0
 10
4.894437927154514
 20
6.569464294454138
 30
0.0
 10
4.891398914808835
 20
6.56911664013315
 30
0.0
 10
4.888596939500193
 20
6.56911664013315
 30
0.0
  0
SPLINE
  5
12C
330
A
100
AcDbEntity
  8
0
  6
solid
 62
     7
100
AcDbSpline
210
0.0
220
0.0
230
1.0
 70
     8
 71
     2
 72
     6
 73
     3
 74
     0
 42
0.0000000001
 43
0.0000000001
 40
0.0
 40
0.0
 40
0.0
 40
1.0
 40
1.0
 40
1.0
 10
4.888596939500193
 20
6.56911664013315
 30
0.0
 10
4.881497186413773
 20
6.56911664013315
 30
0.0
 10
4.87639348271007
 20
6.570960096923274
 30
0.0
  0
LINE
  5
12D
330
A
100
AcDbEntity
  8
0
  6
solid
 62
     7
100
AcDbLine
 10
4.87639348271007
 20
6.570960096923274
 30
0.0
 11
4.87639348271007
 21
6.575289479639323
 31
0.0
  0
LINE
  5
12E
330
A
100
AcDbEntity
  8
0
  6
solid
 62
     7
100
AcDbLine
 10
4.87639348271007
 20
6.575289479639323
 30
0.0
 11
4.879811754315008
 21
6.575289479639323
 31
0.0
  0
SPLINE
  5
12F
330
A
100
AcDbEntity
  8
0
  6
solid
 62
     7
100
AcDbSpline
210
0.0
220
0.0
230
1.0
 70
     8
 71
     2
 72
     7
 73
     4
 74
     0
 42
0.0000000001
 43
0.0000000001
 40
0.0
 40
0.0
 40
0.0
 40
1.0
 40
2.0
 40
2.0
 40
2.0
 10
4.879811754315008
 20
6.575289479639323
 30
0.0
 10
4.886785087648341
 20
6.575289479639323
 30
0.0
 10
4.898409285179206
 20
6.579150220380063
 30
0.0
 10
4.905935704932292
 20
6.583937874701051
 30
0.0
  0
LINE
  5
130
330
A
100
AcDbEntity
  8
0
  6
solid
 62
     7
100
AcDbLine
 10
4.908627062956983
 20
6.586091948775125
 30
0.0
 11
4.905935704932292
 21
6.583937874701051
 31
0.0
  0
LINE
  5
131
330
A
100
AcDbEntity
  8
1
  6
solid
 62
     7
100
AcDbLine
 10
-1.838414630581038
 20
5.120402223086313
 30
0.0
 11
-2.042200088500976
 21
5.314058442060519
 31
0.0
  0
ARC
  5
132
330
A
100
AcDbEntity
  8
1
  6
solid
 62
     7
100
AcDbCircle
 10
-2.472171114962062
 20
5.820790374659916
 30
0.0
 40
0.6645694406131371
100
AcDbArc
 50
273.4316382619021
 51
310.3151935929769
  0
ARC
  5
133
330
A
100
AcDbEntity
  8
1
  6
solid
 62
     7
100
AcDbCircle
 10
-2.267733919152879
 20
6.370888532920464
 30
0.0
 40
1.224596253424711
100
AcDbArc
 50
247.0969376594932
 51
262.2726768868527
  0
ARC
  5
134
330
A
100
AcDbEntity
  8
1
  6
solid
 62
     7
100
AcDbCircle
 10
-2.784665386719835
 20
4.928876659862597
 30
0.0
 40
0.3165396604728412
100
AcDbArc
 50
82.67618541257977
 51
182.866782807336
  0
LINE
  5
135
330
A
100
AcDbEntity
  8
1
  6
solid
 62
     7
100
AcDbLine
 10
-3.10080892544712
 20
4.913045284669984
 30
0.0
 11
-3.249741502222867
 21
4.793649045171793
 31
0.0
  0
ARC
  5
136
330
A
100
AcDbEntity
  8
1
  6
solid
 62
     7
100
AcDbCircle
 10
-3.56329737160184
 20
4.62517935212071
 30
0.0
 40
0.3559484338901889
100
AcDbArc
 50
28.24859438984955
 51
146.3783610537102
  0
LINE
  5
137
330
A
100
AcDbEntity
  8
1
  6
solid
 62
     7
100
AcDbLine
 10
-3.859699932672274
 20
4.822270193937766
 30
0.0
 11
-4.175202201981797
 21
5.188425750901265
 31
0.0
  0
ARC
  5
138
330
A
100
AcDbEntity
  8
1
  6
solid
 62
     7
100
AcDbCircle
 10
-5.599605437666437
 20
7.350206593124951
 30
0.0
 40
2.588864745149229
100
AcDbArc
 50
245.4231338890114
 51
303.3809944417825
  0
ARC
  5
139
330
A
100
AcDbEntity
  8
1
  6
solid
 62
     7
100
AcDbCircle
 10
-7.354657178464475
 20
4.018628672571833
 30
0.0
 40
1.189590592220701
100
AcDbArc
 50
55.23565739062409
 51
119.7494711655814
  0
LINE
  5
13A
330
A
100
AcDbEntity
  8
1
  6
solid
 62
     7
100
AcDbLine
 10
-7.944942041560523
 20
5.051435234592025
 30
0.0
 11
-8.195473869973058
 21
5.296650105519862
 31
0.0
  0
LINE
  5
13B
330
A
100
AcDbEntity
  8
1
  6
solid
 62
     7
100
AcDbLine
 10
-8.195473722975208
 20
5.296650213587498
 30
0.0
 11
-8.503314595294034
 21
5.051095043493798
 31
0.0
  0
ARC
  5
13C
330
A
100
AcDbEntity
  8
1
  6
solid
 62
     7
100
AcDbCircle
 10
-8.791618793097207
 20
4.463009666514212
 30
0.0
 40
0.6549532556647088
100
AcDbArc
 50
63.88395089222068
 51
116.4090605028696
  0
LINE
  5
13D
330
A
100
AcDbEntity
  8
0
  6
solid
 62
     7
100
AcDbLine
 10
-2.716159275239752
 20
4.251558303833007
 30
0.0
 11
-8.292964641189573
 21
4.251558303833007
 31
0.0
  0
LINE
  5
149
330
A
100
AcDbEntity
  8
1
  6
solid
 62
     7
100
AcDbLine
 10
-9.082926817794286
 20
5.049612941183633
 30
0.0
 11
-8.29296459000877
 21
4.251558088691553
 31
0.0
  0
LINE
  5
14A
330
A
100
AcDbEntity
  8
1
  6
solid
 62
     7
100
AcDbLine
 10
-2.716159275239752
 20
4.251558303833007
 30
0.0
 11
-1.838414630581038
 21
5.120402223086314
 31
0.0
  0
LINE
  5
1B7
330
A
100
AcDbEntity
  8
0
  6
solid
 62
     7
370
     0
100
AcDbLine
 10
-9.199206098096873
 20
4.251558088691553
 30
0.0
 11
-9.650157683845286
 21
4.251558088691554
 31
0.0
  0
LINE
  5
1B8
330
A
100
AcDbEntity
  8
0
  6
solid
 62
     7
370
     0
100
AcDbLine
 10
-8.511024751847415
 20
5.31405844206052
 30
0.0
 11
-9.650157683845286
 21
5.314058442060526
 31
0.0
  0
LINE
  5
1B9
330
A
100
AcDbEntity
  8
0
  6
solid
 62
     7
370
     0
100
AcDbLine
 10
-9.587657683845286
 20
4.251558088691554
 30
0.0
 11
-9.587657683845286
 21
4.78280826537604
 31
0.0
  0
LINE
  5
1BA
330
A
100
AcDbEntity
  8
0
  6
solid
 62
     7
370
     0
100
AcDbLine
 10
-9.587657683845286
 20
5.314058442060526
 30
0.0
 11
-9.587657683845286
 21
4.78280826537604
 31
0.0
  0
MTEXT
  5
1BB
330
A
100
AcDbEntity
  8
0
  6
solid
 62
     7
370
     0
100
AcDbMText
 10
-10.05212018384528
 20
4.782808265376038
 30
0.0
 40
0.125
 41
0.0
 71
     5
 72
     1
  1
{\H0.125000;1 1/16}
 73
     1
 44
1.0
  0
SOLID
  5
1BC
330
A
100
AcDbEntity
  8
0
  6
solid
 62
     7
370
     0
100
AcDbTrace
 10
-9.608472683845286
 20
4.376558088691554
 30
0.0
 11
-9.566842683845285
 21
4.376558088691554
 31
0.0
 12
-9.587657683845286
 22
4.251558088691554
 32
0.0
 13
-9.587657683845286
 23
4.251558088691554
 33
0.0
  0
SOLID
  5
1BD
330
A
100
AcDbEntity
  8
0
  6
solid
 62
     7
370
     0
100
AcDbTrace
 10
-9.566842683845285
 20
5.189058442060526
 30
0.0
 11
-9.608472683845286
 21
5.189058442060526
 31
0.0
 12
-9.587657683845286
 22
5.314058442060526
 32
0.0
 13
-9.587657683845286
 23
5.314058442060526
 33
0.0
  0
LINE
  5
1C0
330
A
100
AcDbEntity
  8
0
  6
solid
 62
     7
370
     0
100
AcDbLine
 10
-9.082926750183105
 20
4.080601545946297
 30
0.0
 11
-9.082926750183105
 21
3.650452336694312
 31
0.0
  0
LINE
  5
1C1
330
A
100
AcDbEntity
  8
0
  6
solid
 62
     7
370
     0
100
AcDbLine
 10
-1.838414669036865
 20
4.995402336120605
 30
0.0
 11
-1.838414669036865
 21
3.650452336694312
 31
0.0
  0
LINE
  5
1C2
330
A
100
AcDbEntity
  8
0
  6
solid
 62
     7
370
     0
100
AcDbLine
 10
-9.082926750183105
 20
3.712952336694312
 30
0.0
 11
-5.460670709609985
 21
3.712952336694312
 31
0.0
  0
LINE
  5
1C3
330
A
100
AcDbEntity
  8
0
  6
solid
 62
     7
370
     0
100
AcDbLine
 10
-1.838414669036865
 20
3.712952336694312
 30
0.0
 11
-5.460670709609985
 21
3.712952336694312
 31
0.0
  0
MTEXT
  5
1C4
330
A
100
AcDbEntity
  8
0
  6
solid
 62
     7
370
     0
100
AcDbMText
 10
-5.460670709609985
 20
3.816537432848159
 30
0.0
 40
0.125
 41
0.0
 71
     5
 72
     1
  1
{\H0.125000;7 1/4}
 73
     1
 44
1.0
  0
SOLID
  5
1C5
330
A
100
AcDbEntity
  8
0
  6
solid
 62
     7
370
     0
100
AcDbTrace
 10
-8.957926750183105
 20
3.733767336694312
 30
0.0
 11
-8.957926750183105
 21
3.692137336694312
 31
0.0
 12
-9.082926750183105
 22
3.712952336694312
 32
0.0
 13
-9.082926750183105
 23
3.712952336694312
 33
0.0
  0
SOLID
  5
1C6
330
A
100
AcDbEntity
  8
0
  6
solid
 62
     7
370
     0
100
AcDbTrace
 10
-1.963414669036865
 20
3.692137336694313
 30
0.0
 11
-1.963414669036865
 21
3.733767336694312
 31
0.0
 12
-1.838414669036865
 22
3.712952336694312
 32
0.0
 13
-1.838414669036865
 23
3.712952336694312
 33
0.0
  0
LINE
  5
1CE
330
A
100
AcDbEntity
  8
1
  6
solid
 62
     7
370
     0
100
AcDbLine
 10
0.8448286056518552
 20
2.118326902389525
 30
0.0
 11
0.6879410553297847
 21
2.118326902389525
 31
0.0
  0
LINE
  5
1CF
330
A
100
AcDbEntity
  8
1
  6
solid
 62
     7
370
     0
100
AcDbLine
 10
0.8679809236743382
 20
7.322352886199953
 30
0.0
 11
0.6543932690244248
 21
7.322352886199954
 31
0.0
  0
LINE
  5
1D0
330
A
100
AcDbEntity
  8
1
  6
solid
 62
     7
370
     0
100
AcDbLine
 10
0.7504410553297847
 20
2.118326902389525
 30
0.0
 11
0.7504410553297865
 21
4.560467298140891
 31
0.0
  0
LINE
  5
1D1
330
A
100
AcDbEntity
  8
1
  6
solid
 62
     7
370
     0
100
AcDbLine
 10
0.7504410553297884
 20
7.322352886199954
 30
0.0
 11
0.7504410553297867
 21
4.880212490448584
 31
0.0
  0
MTEXT
  5
1D2
330
A
100
AcDbEntity
  8
1
  6
solid
 62
     7
370
     0
100
AcDbMText
 10
0.7504410553297866
 20
4.720339894294737
 30
0.0
 40
0.125
 41
0.0
 71
     5
 72
     1
  1
{\H0.125000;5 1/4}
 73
     1
 44
1.0
  0
SOLID
  5
1D3
330
A
100
AcDbEntity
  8
1
  6
solid
 62
     7
370
     0
100
AcDbTrace
 10
0.7296285553297848
 20
2.243326902389525
 30
0.0
 11
0.7712535553297851
 21
2.243326902389525
 31
0.0
 12
0.7504410553297847
 22
2.118326902389525
 32
0.0
 13
0.7504410553297847
 23
2.118326902389525
 33
0.0
  0
SOLID
  5
1D4
330
A
100
AcDbEntity
  8
1
  6
solid
 62
     7
370
     0
100
AcDbTrace
 10
0.7712535553297885
 20
7.197352886199954
 30
0.0
 11
0.7296285553297883
 21
7.197352886199954
 31
0.0
 12
0.7504410553297884
 22
7.322352886199954
 32
0.0
 13
0.7504410553297884
 23
7.322352886199954
 33
0.0
  0
LINE
  5
1D5
330
A
100
AcDbEntity
  8
1
  6
solid
 62
     7
370
     0
100
AcDbLine
 10
0.9698286056518556
 20
7.390207582024433
 30
0.0
 11
0.9698286056518554
 21
7.630208702489827
 31
0.0
  0
LINE
  5
1D6
330
A
100
AcDbEntity
  8
1
  6
solid
 62
     7
370
     0
100
AcDbLine
 10
6.079216480255126
 20
7.447352886199951
 30
0.0
 11
6.079216480255126
 21
7.6223768056338
 31
0.0
  0
LINE
  5
1D7
330
A
100
AcDbEntity
  8
1
  6
solid
 62
     7
370
     0
100
AcDbLine
 10
0.9698286056518554
 20
7.5598768056338
 30
0.0
 11
2.974582657290774
 21
7.5598768056338
 31
0.0
  0
LINE
  5
1D8
330
A
100
AcDbEntity
  8
1
  6
solid
 62
     7
370
     0
100
AcDbLine
 10
6.079216480255126
 20
7.5598768056338
 30
0.0
 11
3.99932545799983
 21
7.5598768056338
 31
0.0
  0
MTEXT
  5
1D9
330
A
100
AcDbEntity
  8
1
  6
solid
 62
     7
370
     0
100
AcDbMText
 10
3.52452254295349
 20
7.5598768056338
 30
0.0
 40
0.125
 41
0.0
 71
     5
 72
     1
  1
{\H0.125000;5 1/8}
 73
     1
 44
1.0
  0
SOLID
  5
1DA
330
A
100
AcDbEntity
  8
1
  6
solid
 62
     7
370
     0
100
AcDbTrace
 10
1.094828605651854
 20
7.580689305633801
 30
0.0
 11
1.094828605651855
 21
7.539064305633801
 31
0.0
 12
0.9698286056518554
 22
7.5598768056338
 32
0.0
 13
0.9698286056518554
 23
7.5598768056338
 33
0.0
  0
SOLID
  5
1DB
330
A
100
AcDbEntity
  8
1
  6
solid
 62
     7
370
     0
100
AcDbTrace
 10
5.954216480255126
 20
7.539064305633801
 30
0.0
 11
5.954216480255126
 21
7.580689305633801
 31
0.0
 12
6.079216480255126
 22
7.5598768056338
 32
0.0
 13
6.079216480255126
 23
7.5598768056338
 33
0.0
  0
VIEWPORT
  5
173
330
B
100
AcDbEntity
 67
     1
  8
0
  6
Continuous
370
     0
100
AcDbViewport
 10
5.169388207690268
 20
3.951240450931923
 30
0.0
 40
15.27516823510626
 41
8.082183608803626
 68
     1
 69
     1
 12
5.169388207690268
 22
3.951240450931923
 13
0.0
 23
0.0
 14
0.5
 24
0.5
 15
0.5
 25
0.5
 16
0.0
 26
0.0
 36
1.0
 17
0.0
 27
0.0
 37
0.0
 42
50.0
 43
0.0
 44
0.0
 45
8.082183608803626
 50
0.0
 51
0.0
 72
   100
 90
   819232
  1

281
     0
 71
     1
 74
     0
110
0.0
120
0.0
130
0.0
111
1.0
121
0.0
131
0.0
112
0.0
122
1.0
132
0.0
 79
     0
146
0.0
170
     0
  0
VIEWPORT
  5
176
330
B
100
AcDbEntity
 67
     1
  8
0
  6
Continuous
370
     0
100
AcDbViewport
 10
5.169387962906327
 20
3.951116635619099
 30
0.0
 40
10.44858046675875
 41
7.987899783472105
 68
     2
 69
     2
 12
-1.637357161404905
 22
4.401460824167718
 13
0.0
 23
0.0
 14
0.5
 24
0.5
 15
0.5
 25
0.5
 16
0.0
 26
0.0
 36
1.0
 17
0.0
 27
0.0
 37
0.0
 42
50.0
 43
0.0
 44
0.0
 45
17.02613594644975
 50
0.0
 51
0.0
 72
   100
 90
   819232
  1

281
     0
 71
     1
 74
     0
110
0.0
120
0.0
130
0.0
111
1.0
121
0.0
131
0.0
112
0.0
122
1.0
132
0.0
 79
     0
146
0.0
170
     0
  0
ENDSEC
  0
SECTION
  2
OBJECTS
  0
DICTIONARY
  5
19
330
0
100
AcDbDictionary
281
     1
  3
ACAD_COLOR
350
16C
  3
ACAD_GROUP
350
1A
  3
ACAD_LAYOUT
350
1E
  3
ACAD_MATERIAL
350
157
  3
ACAD_MLEADERSTYLE
350
1A0
  3
ACAD_MLINESTYLE
350
1B
  3
ACAD_PLOTSETTINGS
350
22
  3
ACAD_PLOTSTYLENAME
350
1F
  3
ACAD_SCALELIST
350
17E
  3
ACAD_TABLESTYLE
350
16D
  3
ACAD_VISUALSTYLE
350
15B
  3
ACAD_WIPEOUT_VARS
350
23
  3
ACDB_RECOMPOSE_DATA
350
1F2
  3
AcDbVariableDictionary
350
17B
  3
ASE_INDEX_DICTIONARY
350
178
  0
DICTIONARY
  5
1A9
330
14
100
AcDbDictionary
280
     1
281
     1
  3
ADSK_XREC_LAYER_RECONCILED
360
1AA
  0
DICTIONARY
  5
1AB
330
27
100
AcDbDictionary
280
     1
281
     1
  3
ADSK_XREC_LAYER_RECONCILED
360
1AC
  0
DICTIONARY
  5
1AD
330
BD
100
AcDbDictionary
280
     1
281
     1
  3
ADSK_XREC_LAYER_RECONCILED
360
1AE
  0
DICTIONARY
  5
1BE
330
A
100
AcDbDictionary
280
     1
281
     1
  3
ACAD_SORTENTS
360
1BF
  0
DICTIONARY
  5
16C
102
{ACAD_REACTORS
330
19
102
}
330
19
100
AcDbDictionary
281
     1
  0
DICTIONARY
  5
1A
102
{ACAD_REACTORS
330
19
102
}
330
19
100
AcDbDictionary
281
     1
  0
DICTIONARY
  5
1E
102
{ACAD_REACTORS
330
19
102
}
330
19
100
AcDbDictionary
281
     1
  3
Layout1
350
21
  3
Model
350
20
  0
DICTIONARY
  5
157
102
{ACAD_REACTORS
330
19
102
}
330
19
100
AcDbDictionary
281
     1
  3
ByBlock
350
159
  3
ByLayer
350
158
  3
Global
350
15A
  0
DICTIONARY
  5
1A0
102
{ACAD_REACTORS
330
19
102
}
330
19
100
AcDbDictionary
281
     1
  3
Standard
350
1A1
  0
DICTIONARY
  5
1B
102
{ACAD_REACTORS
330
19
102
}
330
19
100
AcDbDictionary
281
     1
  3
Standard
350
1C
  0
DICTIONARY
  5
22
102
{ACAD_REACTORS
330
19
102
}
330
19
100
AcDbDictionary
281
     1
  0
ACDBDICTIONARYWDFLT
  5
1F
102
{ACAD_REACTORS
330
19
102
}
330
19
100
AcDbDictionary
281
     1
  3
Normal
350
1D
100
AcDbDictionaryWithDefault
340
1D
  0
DICTIONARY
  5
17E
102
{ACAD_REACTORS
330
19
102
}
330
19
100
AcDbDictionary
281
     1
  3
A0
350
17F
  3
A1
350
180
  3
A2
350
181
  3
A3
350
182
  3
A4
350
183
  3
A5
350
184
  3
A6
350
185
  3
A7
350
186
  3
A8
350
187
  3
A9
350
188
  3
B0
350
189
  3
B1
350
18A
  3
B2
350
18B
  3
B3
350
18C
  3
B4
350
18D
  3
B5
350
18E
  3
B6
350
18F
  3
B7
350
190
  3
B8
350
191
  3
B9
350
192
  3
C0
350
193
  3
C1
350
194
  3
C2
350
195
  3
C3
350
196
  3
C4
350
197
  3
C5
350
198
  3
C6
350
199
  3
C7
350
19A
  3
C8
350
19B
  3
C9
350
19C
  3
D0
350
19D
  3
D1
350
19E
  3
D2
350
19F
  0
DICTIONARY
  5
16D
102
{ACAD_REACTORS
330
19
102
}
330
19
100
AcDbDictionary
281
     1
  3
Standard
350
16E
  0
DICTIONARY
  5
15B
102
{ACAD_REACTORS
330
19
102
}
330
19
100
AcDbDictionary
281
     1
  3
2dWireframe
350
161
  3
3D Hidden
350
163
  3
3dWireframe
350
162
  3
Basic
350
160
  3
Brighten
350
167
  3
ColorChange
350
16B
  3
Conceptual
350
164
  3
Dim
350
166
  3
Facepattern
350
16A
  3
Flat
350
15C
  3
FlatWithEdges
350
15D
  3
Gouraud
350
15E
  3
GouraudWithEdges
350
15F
  3
Linepattern
350
169
  3
Realistic
350
165
  3
Thicken
350
168
  0
WIPEOUTVARIABLES
  5
23
330
19
100
AcDbWipeoutVariables
 70
     1
  0
XRECORD
  5
1F2
102
{ACAD_REACTORS
330
19
102
}
330
19
100
AcDbXrecord
280
     1
 90
        1
330
16E
  0
DICTIONARY
  5
17B
102
{ACAD_REACTORS
330
19
102
}
330
19
100
AcDbDictionary
281
     1
  3
CANNOSCALE
350
1EF
  3
CMLEADERSTYLE
350
1EE
  3
CTABLESTYLE
350
17C
  0
DICTIONARY
  5
178
102
{ACAD_REACTORS
330
19
102
}
330
19
100
AcDbDictionary
281
     1
  3
ASEBlockHierarchyIndexRecord
350
17A
1001
DCO15
1040
1645029333.545
  0
XRECORD
  5
1AA
102
{ACAD_REACTORS
330
1A9
102
}
330
1A9
100
AcDbXrecord
280
     1
290
     1
  0
XRECORD
  5
1AC
102
{ACAD_REACTORS
330
1AB
102
}
330
1AB
100
AcDbXrecord
280
     1
290
     1
  0
XRECORD
  5
1AE
102
{ACAD_REACTORS
330
1AD
102
}
330
1AD
100
AcDbXrecord
280
     1
290
     1
  0
SORTENTSTABLE
  5
1BF
102
{ACAD_REACTORS
330
1BE
102
}
330
1BE
100
AcDbSortentsTable
330
A
331
117
  5
125
331
F5
  5
103
331
DB
  5
E9
331
139
  5
1C0
331
1B9
  5
1CE
331
CA
  5
D8
331
128
  5
136
331
106
  5
114
331
EC
  5
FA
331
1DB
  5
C4
331
86
  5
86
331
6C
  5
6C
331
4A
  5
4A
331
14A
  5
1D4
331
97
  5
97
331
5B
  5
5B
331
39
  5
39
331
28
  5
28
331
137
  5
1BB
331
115
  5
123
331
F3
  5
101
331
D9
  5
E7
331
1B7
  5
1C5
331
C8
  5
D6
331
126
  5
134
331
104
  5
112
331
EA
  5
F8
331
1D9
  5
C2
331
A6
  5
A6
331
84
  5
84
331
6A
  5
6A
331
48
  5
48
331
95
  5
95
331
59
  5
59
331
37
  5
37
331
135
  5
1B9
331
113
  5
121
331
F1
  5
FF
331
C6
  5
D4
331
124
  5
132
331
102
  5
110
331
E8
  5
F6
331
1D7
  5
C0
331
A4
  5
A4
331
82
  5
82
331
68
  5
68
331
46
  5
46
331
1C6
  5
1DB
331
D7
  5
E5
331
93
  5
93
331
57
  5
57
331
35
  5
35
331
133
  5
1B7
331
111
  5
11F
331
C4
  5
D2
331
122
  5
130
331
100
  5
10E
331
E6
  5
F4
331
1D5
  5
BE
331
A2
  5
A2
331
80
  5
80
331
66
  5
66
331
44
  5
44
331
1C4
  5
1D9
331
D5
  5
E3
331
91
  5
91
331
77
  5
77
331
55
  5
55
331
33
  5
33
331
131
  5
14A
331
C2
  5
D0
331
120
  5
12E
331
FE
  5
10C
331
E4
  5
F2
331
1D3
  5
CA
331
A0
  5
A0
331
7E
  5
7E
331
64
  5
64
331
42
  5
42
331
1C2
  5
1D7
331
10F
  5
11D
331
D3
  5
E1
331
8F
  5
8F
331
75
  5
75
331
53
  5
53
331
31
  5
31
331
C0
  5
CE
331
11E
  5
12C
331
FC
  5
10A
331
E2
  5
F0
331
1D1
  5
C8
331
9E
  5
9E
331
7C
  5
7C
331
62
  5
62
331
40
  5
40
331
1C0
  5
1D5
331
12F
  5
13D
331
10D
  5
11B
331
D1
  5
DF
331
8D
  5
8D
331
73
  5
73
331
51
  5
51
331
2F
  5
2F
331
BE
  5
CC
331
11C
  5
12A
331
FA
  5
108
331
E0
  5
EE
331
1CF
  5
C6
331
9C
  5
9C
331
7A
  5
7A
331
60
  5
60
331
12D
  5
13B
331
10B
  5
119
331
CF
  5
DD
331
8B
  5
8B
331
71
  5
71
331
4F
  5
4F
331
3E
  5
3E
331
2D
  5
2D
331
11A
  5
128
331
F8
  5
106
331
DE
  5
EC
331
9A
  5
9A
331
78
  5
78
331
13C
  5
1C3
331
1BC
  5
1D1
331
12B
  5
139
331
109
  5
117
331
EF
  5
FD
331
CD
  5
DB
331
89
  5
89
331
6F
  5
6F
331
4D
  5
4D
331
5E
  5
5E
331
3C
  5
3C
331
2B
  5
2B
331
118
  5
126
331
F6
  5
104
331
DC
  5
EA
331
98
  5
98
331
13A
  5
1C1
331
1BA
  5
1CF
331
129
  5
137
331
107
  5
115
331
ED
  5
FB
331
CB
  5
D9
331
87
  5
87
331
6D
  5
6D
331
4B
  5
4B
331
5C
  5
5C
331
3A
  5
3A
331
29
  5
29
331
138
  5
1BC
331
116
  5
124
331
F4
  5
102
331
DA
  5
E8
331
1B8
  5
1C6
331
C9
  5
D7
331
127
  5
135
331
105
  5
113
331
EB
  5
F9
331
1DA
  5
C3
331
85
  5
85
331
6B
  5
6B
331
49
  5
49
331
149
  5
1D3
331
96
  5
96
331
5A
  5
5A
331
38
  5
38
331
136
  5
1BA
331
114
  5
122
331
F2
  5
100
331
D8
  5
E6
331
C7
  5
D5
331
125
  5
133
331
103
  5
111
331
E9
  5
F7
331
1D8
  5
C1
331
A5
  5
A5
331
83
  5
83
331
69
  5
69
331
47
  5
47
331
94
  5
94
331
58
  5
58
331
36
  5
36
331
134
  5
1B8
331
112
  5
120
331
F0
  5
FE
331
C5
  5
D3
331
123
  5
131
331
101
  5
10F
331
E7
  5
F5
331
1D6
  5
BF
331
A3
  5
A3
331
81
  5
81
331
67
  5
67
331
45
  5
45
331
1C5
  5
1DA
331
D6
  5
E4
331
92
  5
92
331
56
  5
56
331
34
  5
34
331
132
  5
155
331
110
  5
11E
331
C3
  5
D1
331
121
  5
12F
331
FF
  5
10D
331
E5
  5
F3
331
1D4
  5
CB
331
A1
  5
A1
331
7F
  5
7F
331
65
  5
65
331
43
  5
43
331
1C3
  5
1D8
331
D4
  5
E2
331
90
  5
90
331
76
  5
76
331
54
  5
54
331
32
  5
32
331
130
  5
149
331
C1
  5
CF
331
11F
  5
12D
331
FD
  5
10B
331
E3
  5
F1
331
1D2
  5
C9
331
9F
  5
9F
331
7D
  5
7D
331
63
  5
63
331
41
  5
41
331
1C1
  5
1D6
331
10E
  5
11C
331
D2
  5
E0
331
8E
  5
8E
331
74
  5
74
331
52
  5
52
331
30
  5
30
331
BF
  5
CD
331
11D
  5
12B
331
FB
  5
109
331
E1
  5
EF
331
1D0
  5
C7
331
9D
  5
9D
331
7B
  5
7B
331
61
  5
61
331
12E
  5
13C
331
10C
  5
11A
331
D0
  5
DE
331
8C
  5
8C
331
72
  5
72
331
50
  5
50
331
3F
  5
3F
331
2E
  5
2E
331
11B
  5
129
331
F9
  5
107
331
DF
  5
ED
331
1CE
  5
C5
331
9B
  5
9B
331
79
  5
79
331
13D
  5
1C4
331
1BD
  5
1D2
331
12C
  5
13A
331
10A
  5
118
331
CE
  5
DC
331
8A
  5
8A
331
70
  5
70
331
4E
  5
4E
331
5F
  5
5F
331
3D
  5
3D
331
2C
  5
2C
331
119
  5
127
331
F7
  5
105
331
DD
  5
EB
331
99
  5
99
331
13B
  5
1C2
331
1BB
  5
1D0
331
12A
  5
138
331
108
  5
116
331
EE
  5
FC
331
CC
  5
DA
331
88
  5
88
331
6E
  5
6E
331
4C
  5
4C
331
5D
  5
5D
331
3B
  5
3B
331
2A
  5
2A
  0
LAYOUT
  5
21
102
{ACAD_REACTORS
330
1E
102
}
330
1E
100
AcDbPlotSettings
  1

  2
Foxit PDF Printer
  4
Letter
  6

 40
3.174999952316284
 41
3.174999952316284
 42
3.17498779296875
 43
3.175003051757812
 44
279.3999938964844
 45
215.8999938964844
 46
31.47715384821894
 47
24.12875752349356
 48
0.0
 49
0.0
140
0.0
141
0.0
142
1.0
143
1.0
 70
     4
 72
     0
 73
     0
 74
     1
  7

 75
     0
147
1.0
 76
     0
 77
     2
 78
   300
148
-26.25461124795212
149
-20.16000981431432
100
AcDbLayout
  1
Layout1
 70
     0
 71
     1
 10
-0.3306119115190196
 20
-0.2812499079328949
 11
10.66938784818509
 21
8.218749851771214
 12
0.0
 22
0.0
 32
0.0
 14
-0.0556788165195279
 24
-0.0428619138838222
 34
-0.0015258207003583
 15
10.39445523190006
 25
7.945342815747668
 35
0.0000000349246037
146
0.0
 13
0.0
 23
0.0
 33
0.0
 16
1.0
 26
0.0
 36
0.0
 17
0.0
 27
1.0
 37
0.0
 76
     0
330
B
331
173
1001
ACAD_PSEXT
1000
Foxit PDF Printer
1000
Foxit PDF Printer Driver
1000
FOXIT_PDF
1000

1070
     0
  0
LAYOUT
  5
20
102
{ACAD_REACTORS
330
1E
102
}
330
1E
100
AcDbPlotSettings
  1

  2

  4

  6

 40
0.0
 41
0.0
 42
0.0
 43
0.0
 44
0.0
 45
0.0
 46
0.0
 47
0.0
 48
0.0
 49
0.0
140
0.0
141
0.0
142
1.0
143
1.0
 70
  1024
 72
     0
 73
     0
 74
     0
  7

 75
     0
147
1.0
 76
     0
 77
     2
 78
   300
148
0.0
149
0.0
100
AcDbLayout
  1
Model
 70
     0
 71
     0
 10
0.0
 20
0.0
 11
0.0
 21
0.0
 12
0.0
 22
0.0
 32
0.0
 14
0.0
 24
0.0
 34
0.0
 15
0.0
 25
0.0
 35
0.0
146
0.0
 13
0.0
 23
0.0
 33
0.0
 16
0.0
 26
0.0
 36
0.0
 17
0.0
 27
0.0
 37
0.0
 76
     0
330
A
  0
MATERIAL
  5
159
102
{ACAD_XDICTIONARY
360
1F5
102
}
102
{ACAD_REACTORS
330
157
102
}
330
157
100
AcDbMaterial
  1
ByBlock
 73
     1
 78
     1
172
     1
176
     1
270
     1
274
     1
  0
MATERIAL
  5
158
102
{ACAD_XDICTIONARY
360
1F3
102
}
102
{ACAD_REACTORS
330
157
102
}
330
157
100
AcDbMaterial
  1
ByLayer
 73
     1
 78
     1
172
     1
176
     1
270
     1
274
     1
  0
MATERIAL
  5
15A
102
{ACAD_XDICTIONARY
360
1F7
102
}
102
{ACAD_REACTORS
330
157
102
}
330
157
100
AcDbMaterial
  1
Global
 73
     1
 78
     1
172
     1
176
     1
270
     1
274
     1
  0
MLEADERSTYLE
  5
1A1
102
{ACAD_REACTORS
330
1A0
102
}
330
1A0
100
AcDbMLeaderStyle
170
     2
171
     1
172
     0
 90
        2
 40
0.0
 41
0.0
173
     1
 91
-1056964608
340
11
 92
       -2
290
     1
 42
0.09
291
     1
 43
0.36
  3
Standard
 44
0.18
300

342
17
174
     1
178
     6
175
     1
176
     0
 93
-1056964608
 45
0.18
292
     0
297
     0
 46
0.18
 94
-1056964608
 47
1.0
 49
1.0
140
1.0
293
     1
141
0.0
294
     1
177
     0
142
1.0
295
     0
296
     0
143
0.125
1001
ACAD_MLEADERVER
1070
     2
  0
MLINESTYLE
  5
1C
102
{ACAD_REACTORS
330
1B
102
}
330
1B
100
AcDbMlineStyle
  2
STANDARD
 70
     0
  3

 62
     0
 51
90.0
 52
90.0
 71
     2
 49
0.5
 62
   256
  6
BYLAYER
 49
-0.5
 62
   256
  6
BYLAYER
  0
ACDBPLACEHOLDER
  5
1D
102
{ACAD_REACTORS
330
1F
102
}
330
1F
  0
SCALE
  5
17F
102
{ACAD_REACTORS
330
17E
102
}
330
17E
100
AcDbScale
 70
     0
300
1:1
140
1.0
141
1.0
290
     1
  0
SCALE
  5
180
102
{ACAD_REACTORS
330
17E
102
}
330
17E
100
AcDbScale
 70
     0
300
1:2
140
1.0
141
2.0
290
     0
  0
SCALE
  5
181
102
{ACAD_REACTORS
330
17E
102
}
330
17E
100
AcDbScale
 70
     0
300
1:4
140
1.0
141
4.0
290
     0
  0
SCALE
  5
182
102
{ACAD_REACTORS
330
17E
102
}
330
17E
100
AcDbScale
 70
     0
300
1:5
140
1.0
141
5.0
290
     0
  0
SCALE
  5
183
102
{ACAD_REACTORS
330
17E
102
}
330
17E
100
AcDbScale
 70
     0
300
1:8
140
1.0
141
8.0
290
     0
  0
SCALE
  5
184
102
{ACAD_REACTORS
330
17E
102
}
330
17E
100
AcDbScale
 70
     0
300
1:10
140
1.0
141
10.0
290
     0
  0
SCALE
  5
185
102
{ACAD_REACTORS
330
17E
102
}
330
17E
100
AcDbScale
 70
     0
300
1:16
140
1.0
141
16.0
290
     0
  0
SCALE
  5
186
102
{ACAD_REACTORS
330
17E
102
}
330
17E
100
AcDbScale
 70
     0
300
1:20
140
1.0
141
20.0
290
     0
  0
SCALE
  5
187
102
{ACAD_REACTORS
330
17E
102
}
330
17E
100
AcDbScale
 70
     0
300
1:30
140
1.0
141
30.0
290
     0
  0
SCALE
  5
188
102
{ACAD_REACTORS
330
17E
102
}
330
17E
100
AcDbScale
 70
     0
300
1:40
140
1.0
141
40.0
290
     0
  0
SCALE
  5
189
102
{ACAD_REACTORS
330
17E
102
}
330
17E
100
AcDbScale
 70
     0
300
1:50
140
1.0
141
50.0
290
     0
  0
SCALE
  5
18A
102
{ACAD_REACTORS
330
17E
102
}
330
17E
100
AcDbScale
 70
     0
300
1:100
140
1.0
141
100.0
290
     0
  0
SCALE
  5
18B
102
{ACAD_REACTORS
330
17E
102
}
330
17E
100
AcDbScale
 70
     0
300
2:1
140
2.0
141
1.0
290
     0
  0
SCALE
  5
18C
102
{ACAD_REACTORS
330
17E
102
}
330
17E
100
AcDbScale
 70
     0
300
4:1
140
4.0
141
1.0
290
     0
  0
SCALE
  5
18D
102
{ACAD_REACTORS
330
17E
102
}
330
17E
100
AcDbScale
 70
     0
300
8:1
140
8.0
141
1.0
290
     0
  0
SCALE
  5
18E
102
{ACAD_REACTORS
330
17E
102
}
330
17E
100
AcDbScale
 70
     0
300
10:1
140
10.0
141
1.0
290
     0
  0
SCALE
  5
18F
102
{ACAD_REACTORS
330
17E
102
}
330
17E
100
AcDbScale
 70
     0
300
100:1
140
100.0
141
1.0
290
     0
  0
SCALE
  5
190
102
{ACAD_REACTORS
330
17E
102
}
330
17E
100
AcDbScale
 70
     0
300
1/128" = 1'-0"
140
0.0078125
141
12.0
290
     0
  0
SCALE
  5
191
102
{ACAD_REACTORS
330
17E
102
}
330
17E
100
AcDbScale
 70
     0
300
1/64" = 1'-0"
140
0.015625
141
12.0
290
     0
  0
SCALE
  5
192
102
{ACAD_REACTORS
330
17E
102
}
330
17E
100
AcDbScale
 70
     0
300
1/32" = 1'-0"
140
0.03125
141
12.0
290
     0
  0
SCALE
  5
193
102
{ACAD_REACTORS
330
17E
102
}
330
17E
100
AcDbScale
 70
     0
300
1/16" = 1'-0"
140
0.0625
141
12.0
290
     0
  0
SCALE
  5
194
102
{ACAD_REACTORS
330
17E
102
}
330
17E
100
AcDbScale
 70
     0
300
3/32" = 1'-0"
140
0.09375
141
12.0
290
     0
  0
SCALE
  5
195
102
{ACAD_REACTORS
330
17E
102
}
330
17E
100
AcDbScale
 70
     0
300
1/8" = 1'-0"
140
0.125
141
12.0
290
     0
  0
SCALE
  5
196
102
{ACAD_REACTORS
330
17E
102
}
330
17E
100
AcDbScale
 70
     0
300
3/16" = 1'-0"
140
0.1875
141
12.0
290
     0
  0
SCALE
  5
197
102
{ACAD_REACTORS
330
17E
102
}
330
17E
100
AcDbScale
 70
     0
300
1/4" = 1'-0"
140
0.25
141
12.0
290
     0
  0
SCALE
  5
198
102
{ACAD_REACTORS
330
17E
102
}
330
17E
100
AcDbScale
 70
     0
300
3/8" = 1'-0"
140
0.375
141
12.0
290
     0
  0
SCALE
  5
199
102
{ACAD_REACTORS
330
17E
102
}
330
17E
100
AcDbScale
 70
     0
300
1/2" = 1'-0"
140
0.5
141
12.0
290
     0
  0
SCALE
  5
19A
102
{ACAD_REACTORS
330
17E
102
}
330
17E
100
AcDbScale
 70
     0
300
3/4" = 1'-0"
140
0.75
141
12.0
290
     0
  0
SCALE
  5
19B
102
{ACAD_REACTORS
330
17E
102
}
330
17E
100
AcDbScale
 70
     0
300
1" = 1'-0"
140
1.0
141
12.0
290
     0
  0
SCALE
  5
19C
102
{ACAD_REACTORS
330
17E
102
}
330
17E
100
AcDbScale
 70
     0
300
1-1/2" = 1'-0"
140
1.5
141
12.0
290
     0
  0
SCALE
  5
19D
102
{ACAD_REACTORS
330
17E
102
}
330
17E
100
AcDbScale
 70
     0
300
3" = 1'-0"
140
3.0
141
12.0
290
     0
  0
SCALE
  5
19E
102
{ACAD_REACTORS
330
17E
102
}
330
17E
100
AcDbScale
 70
     0
300
6" = 1'-0"
140
6.0
141
12.0
290
     0
  0
SCALE
  5
19F
102
{ACAD_REACTORS
330
17E
102
}
330
17E
100
AcDbScale
 70
     0
300
1'-0" = 1'-0"
140
12.0
141
12.0
290
     0
  0
TABLESTYLE
  5
16E
102
{ACAD_XDICTIONARY
360
1F0
102
}
102
{ACAD_REACTORS
330
16D
102
}
330
16D
100
AcDbTableStyle
  3
Standard
 70
     0
 71
     0
 40
0.06
 41
0.06
280
     0
281
     0
  7
Standard
140
0.18
170
     2
 62
     0
 63
     7
283
     0
274
    -2
284
     1
 64
     0
275
    -2
285
     1
 65
     0
276
    -2
286
     1
 66
     0
277
    -2
287
     1
 67
     0
278
    -2
288
     1
 68
     0
279
    -2
289
     1
 69
     0
  7
Standard
140
0.25
170
     5
 62
     0
 63
     7
283
     0
274
    -2
284
     1
 64
     0
275
    -2
285
     1
 65
     0
276
    -2
286
     1
 66
     0
277
    -2
287
     1
 67
     0
278
    -2
288
     1
 68
     0
279
    -2
289
     1
 69
     0
  7
Standard
140
0.18
170
     5
 62
     0
 63
     7
283
     0
274
    -2
284
     1
 64
     0
275
    -2
285
     1
 65
     0
276
    -2
286
     1
 66
     0
277
    -2
287
     1
 67
     0
278
    -2
288
     1
 68
     0
279
    -2
289
     1
 69
     0
  0
VISUALSTYLE
  5
161
102
{ACAD_REACTORS
330
15B
102
}
330
15B
100
AcDbVisualStyle
  2
2dWireframe
 70
     4
 71
     0
 72
     2
 73
     0
 90
        0
 40
-0.6
 41
-30.0
 62
     5
 63
     7
421
 16777215
 74
     1
 91
        4
 64
     7
 65
   257
 75
     1
175
     1
 42
1.0
 92
        0
 66
   257
 43
1.0
 76
     1
 77
     6
 78
     2
 67
     7
 79
     5
170
     0
171
     0
290
     0
174
     0
 93
        1
 44
0.0
173
     0
291
     0
 45
0.0
1001
ACAD
1000
AcDbSavedByObjectVersion
1070
     0
  0
VISUALSTYLE
  5
163
102
{ACAD_REACTORS
330
15B
102
}
330
15B
100
AcDbVisualStyle
  2
3D Hidden
 70
     6
 71
     1
 72
     2
 73
     2
 90
        0
 40
-0.6
 41
-30.0
 62
     5
 63
     7
421
 16777215
 74
     2
 91
        2
 64
     7
 65
   257
 75
     2
175
     1
 42
40.0
 92
        0
 66
   257
 43
1.0
 76
     1
 77
     6
 78
     2
 67
     7
 79
     3
170
     0
171
     0
290
     0
174
     0
 93
        1
 44
0.0
173
     0
291
     0
 45
0.0
1001
ACAD
1000
AcDbSavedByObjectVersion
1070
     0
  0
VISUALSTYLE
  5
162
102
{ACAD_REACTORS
330
15B
102
}
330
15B
100
AcDbVisualStyle
  2
3dWireframe
 70
     5
 71
     0
 72
     2
 73
     0
 90
        0
 40
-0.6
 41
-30.0
 62
     5
 63
     7
421
 16777215
 74
     1
 91
        4
 64
     7
 65
   257
 75
     1
175
     1
 42
1.0
 92
        0
 66
   257
 43
1.0
 76
     1
 77
     6
 78
     2
 67
     7
 79
     5
170
     0
171
     0
290
     0
174
     0
 93
        1
 44
0.0
173
     0
291
     0
 45
0.0
1001
ACAD
1000
AcDbSavedByObjectVersion
1070
     0
  0
VISUALSTYLE
  5
160
102
{ACAD_REACTORS
330
15B
102
}
330
15B
100
AcDbVisualStyle
  2
Basic
 70
     7
 71
     1
 72
     0
 73
     1
 90
        0
 40
-0.6
 41
-30.0
 62
     5
 63
     7
421
 16777215
 74
     0
 91
        4
 64
     7
 65
   257
 75
     1
175
     1
 42
1.0
 92
        8
 66
     7
 43
1.0
 76
     1
 77
     6
 78
     2
 67
     7
 79
     5
170
     0
171
     0
290
     0
174
     0
 93
        1
 44
0.0
173
     0
291
     1
 45
0.0
1001
ACAD
1000
AcDbSavedByObjectVersion
1070
     0
  0
VISUALSTYLE
  5
167
102
{ACAD_REACTORS
330
15B
102
}
330
15B
100
AcDbVisualStyle
  2
Brighten
 70
    12
 71
     2
 72
     2
 73
     0
 90
        0
 40
-0.6
 41
-30.0
 62
     5
 63
     7
421
 16777215
 74
     1
 91
        4
 64
     7
 65
   257
 75
     1
175
     1
 42
1.0
 92
        8
 66
     7
 43
1.0
 76
     1
 77
     6
 78
     2
 67
     7
 79
     5
170
     0
171
     0
290
     0
174
     0
 93
        1
 44
50.0
173
     0
291
     1
 45
0.0
1001
ACAD
1000
AcDbSavedByObjectVersion
1070
     0
  0
VISUALSTYLE
  5
16B
102
{ACAD_REACTORS
330
15B
102
}
330
15B
100
AcDbVisualStyle
  2
ColorChange
 70
    16
 71
     2
 72
     2
 73
     3
 90
        0
 40
-0.6
 41
-30.0
 62
     5
 63
     8
421
  8421504
 74
     1
 91
        4
 64
     7
 65
   257
 75
     1
175
     1
 42
1.0
 92
        8
 66
     8
424
  8421504
 43
1.0
 76
     1
 77
     6
 78
     2
 67
     7
 79
     5
170
     0
171
     0
290
     0
174
     0
 93
        1
 44
0.0
173
     0
291
     1
 45
0.0
1001
ACAD
1000
AcDbSavedByObjectVersion
1070
     0
  0
VISUALSTYLE
  5
164
102
{ACAD_REACTORS
330
15B
102
}
330
15B
100
AcDbVisualStyle
  2
Conceptual
 70
     9
 71
     3
 72
     2
 73
     0
 90
        0
 40
-0.6
 41
-30.0
 62
     5
 63
     7
421
 16777215
 74
     2
 91
        2
 64
     7
 65
   257
 75
     1
175
     1
 42
40.0
 92
        8
 66
     7
 43
1.0
 76
     1
 77
     6
 78
     2
 67
     7
 79
     3
170
     0
171
     0
290
     0
174
     0
 93
        1
 44
0.0
173
     0
291
     0
 45
0.0
1001
ACAD
1000
AcDbSavedByObjectVersion
1070
     0
  0
VISUALSTYLE
  5
166
102
{ACAD_REACTORS
330
15B
102
}
330
15B
100
AcDbVisualStyle
  2
Dim
 70
    11
 71
     2
 72
     2
 73
     0
 90
        0
 40
-0.6
 41
-30.0
 62
     5
 63
     7
421
 16777215
 74
     1
 91
        4
 64
     7
 65
   257
 75
     1
175
     1
 42
1.0
 92
        8
 66
     7
 43
1.0
 76
     1
 77
     6
 78
     2
 67
     7
 79
     5
170
     0
171
     0
290
     0
174
     0
 93
        1
 44
-50.0
173
     0
291
     1
 45
0.0
1001
ACAD
1000
AcDbSavedByObjectVersion
1070
     0
  0
VISUALSTYLE
  5
16A
102
{ACAD_REACTORS
330
15B
102
}
330
15B
100
AcDbVisualStyle
  2
Facepattern
 70
    15
 71
     2
 72
     2
 73
     0
 90
        0
 40
-0.6
 41
-30.0
 62
     5
 63
     7
421
 16777215
 74
     1
 91
        4
 64
     7
 65
   257
 75
     1
175
     1
 42
1.0
 92
        8
 66
     7
 43
1.0
 76
     1
 77
     6
 78
     2
 67
     7
 79
     5
170
     0
171
     0
290
     0
174
     0
 93
        1
 44
0.0
173
     0
291
     1
 45
0.0
1001
ACAD
1000
AcDbSavedByObjectVersion
1070
     0
  0
VISUALSTYLE
  5
15C
102
{ACAD_REACTORS
330
15B
102
}
330
15B
100
AcDbVisualStyle
  2
Flat
 70
     0
 71
     2
 72
     1
 73
     1
 90
        2
 40
-0.6
 41
30.0
 62
     5
 63
     7
421
 16777215
 74
     0
 91
        4
 64
     7
 65
   257
 75
     1
175
     1
 42
1.0
 92
        8
 66
     7
 43
1.0
 76
     1
 77
     6
 78
     2
 67
     7
 79
     5
170
     0
171
     0
290
     0
174
     0
 93
       13
 44
0.0
173
     0
291
     1
 45
0.0
1001
ACAD
1000
AcDbSavedByObjectVersion
1070
     0
  0
VISUALSTYLE
  5
15D
102
{ACAD_REACTORS
330
15B
102
}
330
15B
100
AcDbVisualStyle
  2
FlatWithEdges
 70
     1
 71
     2
 72
     1
 73
     1
 90
        2
 40
-0.6
 41
30.0
 62
     5
 63
     7
421
 16777215
 74
     1
 91
        4
 64
     7
 65
   257
 75
     1
175
     1
 42
1.0
 92
        0
 66
   257
 43
1.0
 76
     1
 77
     6
 78
     2
 67
     7
 79
     5
170
     0
171
     0
290
     0
174
     0
 93
       13
 44
0.0
173
     0
291
     1
 45
0.0
1001
ACAD
1000
AcDbSavedByObjectVersion
1070
     0
  0
VISUALSTYLE
  5
15E
102
{ACAD_REACTORS
330
15B
102
}
330
15B
100
AcDbVisualStyle
  2
Gouraud
 70
     2
 71
     2
 72
     2
 73
     1
 90
        2
 40
-0.6
 41
30.0
 62
     5
 63
     7
421
 16777215
 74
     0
 91
        4
 64
     7
 65
   257
 75
     1
175
     1
 42
1.0
 92
        0
 66
     7
 43
1.0
 76
     1
 77
     6
 78
     2
 67
     7
 79
     5
170
     0
171
     0
290
     0
174
     0
 93
       13
 44
0.0
173
     0
291
     1
 45
0.0
1001
ACAD
1000
AcDbSavedByObjectVersion
1070
     0
  0
VISUALSTYLE
  5
15F
102
{ACAD_REACTORS
330
15B
102
}
330
15B
100
AcDbVisualStyle
  2
GouraudWithEdges
 70
     3
 71
     2
 72
     2
 73
     1
 90
        2
 40
-0.6
 41
30.0
 62
     5
 63
     7
421
 16777215
 74
     1
 91
        4
 64
     7
 65
   257
 75
     1
175
     1
 42
1.0
 92
        0
 66
   257
 43
1.0
 76
     1
 77
     6
 78
     2
 67
     7
 79
     5
170
     0
171
     0
290
     0
174
     0
 93
       13
 44
0.0
173
     0
291
     1
 45
0.0
1001
ACAD
1000
AcDbSavedByObjectVersion
1070
     0
  0
VISUALSTYLE
  5
169
102
{ACAD_REACTORS
330
15B
102
}
330
15B
100
AcDbVisualStyle
  2
Linepattern
 70
    14
 71
     2
 72
     2
 73
     0
 90
        0
 40
-0.6
 41
-30.0
 62
     5
 63
     7
421
 16777215
 74
     1
 91
        4
 64
     7
 65
   257
 75
     7
175
     7
 42
1.0
 92
        8
 66
     7
 43
1.0
 76
     1
 77
     6
 78
     2
 67
     7
 79
     5
170
     0
171
     0
290
     0
174
     0
 93
        1
 44
0.0
173
     0
291
     1
 45
0.0
1001
ACAD
1000
AcDbSavedByObjectVersion
1070
     0
  0
VISUALSTYLE
  5
165
102
{ACAD_REACTORS
330
15B
102
}
330
15B
100
AcDbVisualStyle
  2
Realistic
 70
     8
 71
     2
 72
     2
 73
     0
 90
        0
 40
-0.6
 41
-30.0
 62
     5
 63
     7
421
 16777215
 74
     1
 91
        0
 64
     7
 65
   257
 75
     1
175
     1
 42
1.0
 92
        8
 66
     8
424
  7895160
 43
1.0
 76
     1
 77
     6
 78
     2
 67
     7
 79
     5
170
     0
171
     0
290
     0
174
     0
 93
       13
 44
0.0
173
     0
291
     0
 45
0.0
1001
ACAD
1000
AcDbSavedByObjectVersion
1070
     0
  0
VISUALSTYLE
  5
168
102
{ACAD_REACTORS
330
15B
102
}
330
15B
100
AcDbVisualStyle
  2
Thicken
 70
    13
 71
     2
 72
     2
 73
     0
 90
        0
 40
-0.6
 41
-30.0
 62
     5
 63
     7
421
 16777215
 74
     1
 91
        4
 64
     7
 65
   257
 75
     1
175
     1
 42
1.0
 92
       12
 66
     7
 43
1.0
 76
     1
 77
     6
 78
     2
 67
     7
 79
     5
170
     0
171
     0
290
     0
174
     0
 93
        1
 44
0.0
173
     0
291
     1
 45
0.0
1001
ACAD
1000
AcDbSavedByObjectVersion
1070
     0
  0
DICTIONARYVAR
  5
1EF
102
{ACAD_REACTORS
330
17B
102
}
330
17B
100
DictionaryVariables
280
     0
  1
1:1
  0
DICTIONARYVAR
  5
1EE
102
{ACAD_REACTORS
330
17B
102
}
330
17B
100
DictionaryVariables
280
     0
  1
STANDARD
  0
DICTIONARYVAR
  5
17C
102
{ACAD_REACTORS
330
17B
102
}
330
17B
100
DictionaryVariables
280
     0
  1
STANDARD
  0
XRECORD
  5
17A
102
{ACAD_REACTORS
330
178
102
}
330
178
100
AcDbXrecord
280
     1
  0
DICTIONARY
  5
1F5
330
159
100
AcDbDictionary
280
     1
281
     1
  3
ACAD_XREC_ROUNDTRIP
360
1F6
  0
DICTIONARY
  5
1F3
330
158
100
AcDbDictionary
280
     1
281
     1
  3
ACAD_XREC_ROUNDTRIP
360
1F4
  0
DICTIONARY
  5
1F7
330
15A
100
AcDbDictionary
280
     1
281
     1
  3
ACAD_XREC_ROUNDTRIP
360
1F8
  0
DICTIONARY
  5
1F0
330
16E
100
AcDbDictionary
280
     1
281
     1
  3
ACAD_ROUNDTRIP_2008_TABLESTYLE_CELLSTYLEMAP
360
1F1
  3
ACAD_XREC_ROUNDTRIP
360
1F9
  0
XRECORD
  5
1F6
102
{ACAD_REACTORS
330
1F5
102
}
330
1F5
100
AcDbXrecord
280
     1
102
MATERIAL
148
0.0
149
0.0
149
0.0
 93
        0
 94
       63
282
     0
 72
     1
 77
     1
171
     1
175
     1
179
     1
273
     0
  0
XRECORD
  5
1F4
102
{ACAD_REACTORS
330
1F3
102
}
330
1F3
100
AcDbXrecord
280
     1
102
MATERIAL
148
0.0
149
0.0
149
0.0
 93
        0
 94
       63
282
     0
 72
     1
 77
     1
171
     1
175
     1
179
     1
273
     0
  0
XRECORD
  5
1F8
102
{ACAD_REACTORS
330
1F7
102
}
330
1F7
100
AcDbXrecord
280
     1
102
MATERIAL
148
0.0
149
0.0
149
0.0
 93
        0
 94
       63
282
     0
 72
     1
 77
     1
171
     1
175
     1
179
     1
273
     0
  0
CELLSTYLEMAP
  5
1F1
102
{ACAD_REACTORS
330
1F0
102
}
330
1F0
100
AcDbCellStyleMap
 90
        3
300
CELLSTYLE
  1
TABLEFORMAT_BEGIN
 90
        5
170
     1
 91
        0
 92
    32768
 62
   257
 93
        1
300
CONTENTFORMAT
  1
CONTENTFORMAT_BEGIN
 90
        0
 91
        0
 92
      512
 93
        0
300

 40
0.0
140
1.0
 94
        5
 62
     0
340
17
144
0.25
309
CONTENTFORMAT_END
171
     0
 94
        6
 95
        1
302
GRIDFORMAT
  1
GRIDFORMAT_BEGIN
 90
        0
 91
        1
 62
     0
 92
       -2
340
0
 93
        0
 40
0.045
309
GRIDFORMAT_END
 95
        2
302
GRIDFORMAT
  1
GRIDFORMAT_BEGIN
 90
        0
 91
        1
 62
     0
 92
       -2
340
0
 93
        0
 40
0.045
309
GRIDFORMAT_END
 95
        4
302
GRIDFORMAT
  1
GRIDFORMAT_BEGIN
 90
        0
 91
        1
 62
     0
 92
       -2
340
0
 93
        0
 40
0.045
309
GRIDFORMAT_END
 95
        8
302
GRIDFORMAT
  1
GRIDFORMAT_BEGIN
 90
        0
 91
        1
 62
     0
 92
       -2
340
0
 93
        0
 40
0.045
309
GRIDFORMAT_END
 95
       16
302
GRIDFORMAT
  1
GRIDFORMAT_BEGIN
 90
        0
 91
        1
 62
     0
 92
       -2
340
0
 93
        0
 40
0.045
309
GRIDFORMAT_END
 95
       32
302
GRIDFORMAT
  1
GRIDFORMAT_BEGIN
 90
        0
 91
        1
 62
     0
 92
       -2
340
0
 93
        0
 40
0.045
309
GRIDFORMAT_END
309
TABLEFORMAT_END
  1
CELLSTYLE_BEGIN
 90
        1
 91
        1
300
_TITLE
309
CELLSTYLE_END
300
CELLSTYLE
  1
TABLEFORMAT_BEGIN
 90
        5
170
     1
 91
        0
 92
        0
 62
   257
 93
        1
300
CONTENTFORMAT
  1
CONTENTFORMAT_BEGIN
 90
        0
 91
        0
 92
      512
 93
        0
300

 40
0.0
140
1.0
 94
        5
 62
     0
340
17
144
0.18
309
CONTENTFORMAT_END
171
     0
 94
        6
 95
        1
302
GRIDFORMAT
  1
GRIDFORMAT_BEGIN
 90
        0
 91
        1
 62
     0
 92
       -2
340
0
 93
        0
 40
0.045
309
GRIDFORMAT_END
 95
        2
302
GRIDFORMAT
  1
GRIDFORMAT_BEGIN
 90
        0
 91
        1
 62
     0
 92
       -2
340
0
 93
        0
 40
0.045
309
GRIDFORMAT_END
 95
        4
302
GRIDFORMAT
  1
GRIDFORMAT_BEGIN
 90
        0
 91
        1
 62
     0
 92
       -2
340
0
 93
        0
 40
0.045
309
GRIDFORMAT_END
 95
        8
302
GRIDFORMAT
  1
GRIDFORMAT_BEGIN
 90
        0
 91
        1
 62
     0
 92
       -2
340
0
 93
        0
 40
0.045
309
GRIDFORMAT_END
 95
       16
302
GRIDFORMAT
  1
GRIDFORMAT_BEGIN
 90
        0
 91
        1
 62
     0
 92
       -2
340
0
 93
        0
 40
0.045
309
GRIDFORMAT_END
 95
       32
302
GRIDFORMAT
  1
GRIDFORMAT_BEGIN
 90
        0
 91
        1
 62
     0
 92
       -2
340
0
 93
        0
 40
0.045
309
GRIDFORMAT_END
309
TABLEFORMAT_END
  1
CELLSTYLE_BEGIN
 90
        2
 91
        1
300
_HEADER
309
CELLSTYLE_END
300
CELLSTYLE
  1
TABLEFORMAT_BEGIN
 90
        5
170
     1
 91
        0
 92
        0
 62
   257
 93
        1
300
CONTENTFORMAT
  1
CONTENTFORMAT_BEGIN
 90
        0
 91
        0
 92
      512
 93
        0
300

 40
0.0
140
1.0
 94
        2
 62
     0
340
17
144
0.18
309
CONTENTFORMAT_END
171
     0
 94
        6
 95
        1
302
GRIDFORMAT
  1
GRIDFORMAT_BEGIN
 90
        0
 91
        1
 62
     0
 92
       -2
340
0
 93
        0
 40
0.045
309
GRIDFORMAT_END
 95
        2
302
GRIDFORMAT
  1
GRIDFORMAT_BEGIN
 90
        0
 91
        1
 62
     0
 92
       -2
340
0
 93
        0
 40
0.045
309
GRIDFORMAT_END
 95
        4
302
GRIDFORMAT
  1
GRIDFORMAT_BEGIN
 90
        0
 91
        1
 62
     0
 92
       -2
340
0
 93
        0
 40
0.045
309
GRIDFORMAT_END
 95
        8
302
GRIDFORMAT
  1
GRIDFORMAT_BEGIN
 90
        0
 91
        1
 62
     0
 92
       -2
340
0
 93
        0
 40
0.045
309
GRIDFORMAT_END
 95
       16
302
GRIDFORMAT
  1
GRIDFORMAT_BEGIN
 90
        0
 91
        1
 62
     0
 92
       -2
340
0
 93
        0
 40
0.045
309
GRIDFORMAT_END
 95
       32
302
GRIDFORMAT
  1
GRIDFORMAT_BEGIN
 90
        0
 91
        1
 62
     0
 92
       -2
340
0
 93
        0
 40
0.045
309
GRIDFORMAT_END
309
TABLEFORMAT_END
  1
CELLSTYLE_BEGIN
 90
        3
 91
        2
300
_DATA
309
CELLSTYLE_END
  0
XRECORD
  5
1F9
102
{ACAD_REACTORS
330
1F0
102
}
330
1F0
100
AcDbXrecord
280
     1
102
ACAD_ROUNDTRIP_PRE2007_TABLESTYLE
 90
      512
 91
        0
  1

 92
      512
 93
        0
  2

 94
      512
 95
        0
  3

  0
ENDSEC
  0
EOF
