  0
SECTION
  2
HEADER
  9
$ACADVER
  1
AC1018
  9
$ACADMAINTVER
 70
   104
  9
$DWGCODEPAGE
  3
ANSI_1252
  9
$LASTSAVEDBY
  1
EARL
  9
$INSBASE
 10
0.0
 20
0.0
 30
0.0
  9
$EXTMIN
 10
-7.33303615300706
 20
-0.3036147238319481
 30
0.0
  9
$EXTMAX
 10
3.864662
 20
4.955454403846152
 30
0.0
  9
$LIMMIN
 10
0.0
 20
0.0
  9
$LIMMAX
 10
0.0
 20
0.0
  9
$ORTHOMODE
 70
     0
  9
$REGENMODE
 70
     1
  9
$FILLMODE
 70
     1
  9
$QTEXTMODE
 70
     0
  9
$MIRRTEXT
 70
     1
  9
$LTSCALE
 40
1.0
  9
$ATTMODE
 70
     1
  9
$TEXTSIZE
 40
0.0
  9
$TRACEWID
 40
0.05
  9
$TEXTSTYLE
  7
Standard
  9
$CLAYER
  8
0
  9
$CELTYPE
  6
Continuous
  9
$CECOLOR
 62
   256
  9
$CELTSCALE
 40
1.0
  9
$DISPSILH
 70
     0
  9
$DIMSCALE
 40
1.0
  9
$DIMASZ
 40
0.18
  9
$DIMEXO
 40
0.0625
  9
$DIMDLI
 40
0.38
  9
$DIMRND
 40
0.0
  9
$DIMDLE
 40
0.0
  9
$DIMEXE
 40
0.18
  9
$DIMTP
 40
0.0
  9
$DIMTM
 40
0.0
  9
$DIMTXT
 40
0.18
  9
$DIMCEN
 40
0.09
  9
$DIMTSZ
 40
0.0
  9
$DIMTOL
 70
     0
  9
$DIMLIM
 70
     0
  9
$DIMTIH
 70
     1
  9
$DIMTOH
 70
     1
  9
$DIMSE1
 70
     0
  9
$DIMSE2
 70
     0
  9
$DIMTAD
 70
     0
  9
$DIMZIN
 70
     0
  9
$DIMBLK
  1

  9
$DIMASO
 70
     1
  9
$DIMSHO
 70
     1
  9
$DIMPOST
  1

  9
$DIMAPOST
  1

  9
$DIMALT
 70
     0
  9
$DIMALTD
 70
     2
  9
$DIMALTF
 40
25.4
  9
$DIMLFAC
 40
1.0
  9
$DIMTOFL
 70
     0
  9
$DIMTVP
 40
0.0
  9
$DIMTIX
 70
     0
  9
$DIMSOXD
 70
     0
  9
$DIMSAH
 70
     0
  9
$DIMBLK1
  1

  9
$DIMBLK2
  1

  9
$DIMSTYLE
  2
Standard
  9
$DIMCLRD
 70
     0
  9
$DIMCLRE
 70
     0
  9
$DIMCLRT
 70
     0
  9
$DIMTFAC
 40
1.0
  9
$DIMGAP
 40
0.09
  9
$DIMJUST
 70
     0
  9
$DIMSD1
 70
     0
  9
$DIMSD2
 70
     0
  9
$DIMTOLJ
 70
     1
  9
$DIMTZIN
 70
     0
  9
$DIMALTZ
 70
     0
  9
$DIMALTTZ
 70
     0
  9
$DIMUPT
 70
     0
  9
$DIMDEC
 70
     4
  9
$DIMTDEC
 70
     4
  9
$DIMALTU
 70
     2
  9
$DIMALTTD
 70
     2
  9
$DIMTXSTY
  7
Standard
  9
$DIMAUNIT
 70
     0
  9
$DIMADEC
 70
     0
  9
$DIMALTRND
 40
0.0
  9
$DIMAZIN
 70
     0
  9
$DIMDSEP
 70
    46
  9
$DIMATFIT
 70
     0
  9
$DIMFRAC
 70
     0
  9
$DIMLDRBLK
  1

  9
$DIMLUNIT
 70
     2
  9
$DIMLWD
 70
    -2
  9
$DIMLWE
 70
    -2
  9
$DIMTMOVE
 70
     0
  9
$LUNITS
 70
     2
  9
$LUPREC
 70
     4
  9
$SKETCHINC
 40
0.1
  9
$FILLETRAD
 40
0.0
  9
$AUNITS
 70
     0
  9
$AUPREC
 70
     0
  9
$MENU
  1
acad
  9
$ELEVATION
 40
0.0
  9
$PELEVATION
 40
0.0
  9
$THICKNESS
 40
0.0
  9
$LIMCHECK
 70
     0
  9
$CHAMFERA
 40
0.0
  9
$CHAMFERB
 40
0.0
  9
$CHAMFERC
 40
0.0
  9
$CHAMFERD
 40
0.0
  9
$SKPOLY
 70
     0
  9
$TDCREATE
 40
2454842.710752315
  9
$TDUCREATE
 40
2454842.877418982
  9
$TDUPDATE
 40
2455104.557470880
  9
$TDUUPDATE
 40
2455104.724137547
  9
$TDINDWG
 40
0.0019160995
  9
$TDUSRTIMER
 40
0.0019160995
  9
$USRTIMER
 70
     1
  9
$ANGBASE
 50
0.0
  9
$ANGDIR
 70
     0
  9
$PDMODE
 70
     0
  9
$PDSIZE
 40
0.0
  9
$PLINEWID
 40
0.0
  9
$SPLFRAME
 70
     0
  9
$SPLINETYPE
 70
     6
  9
$SPLINESEGS
 70
     8
  9
$HANDSEED
  5
200
  9
$SURFTAB1
 70
     6
  9
$SURFTAB2
 70
     6
  9
$SURFTYPE
 70
     6
  9
$SURFU
 70
     6
  9
$SURFV
 70
     6
  9
$UCSBASE
  2

  9
$UCSNAME
  2

  9
$UCSORG
 10
0.0
 20
0.0
 30
0.0
  9
$UCSXDIR
 10
1.0
 20
0.0
 30
0.0
  9
$UCSYDIR
 10
0.0
 20
1.0
 30
0.0
  9
$UCSORTHOREF
  2

  9
$UCSORTHOVIEW
 70
     0
  9
$UCSORGTOP
 10
0.0
 20
0.0
 30
0.0
  9
$UCSORGBOTTOM
 10
0.0
 20
0.0
 30
0.0
  9
$UCSORGLEFT
 10
0.0
 20
0.0
 30
0.0
  9
$UCSORGRIGHT
 10
0.0
 20
0.0
 30
0.0
  9
$UCSORGFRONT
 10
0.0
 20
0.0
 30
0.0
  9
$UCSORGBACK
 10
0.0
 20
0.0
 30
0.0
  9
$PUCSBASE
  2

  9
$PUCSNAME
  2

  9
$PUCSORG
 10
0.0
 20
0.0
 30
0.0
  9
$PUCSXDIR
 10
1.0
 20
0.0
 30
0.0
  9
$PUCSYDIR
 10
0.0
 20
1.0
 30
0.0
  9
$PUCSORTHOREF
  2

  9
$PUCSORTHOVIEW
 70
     0
  9
$PUCSORGTOP
 10
0.0
 20
0.0
 30
0.0
  9
$PUCSORGBOTTOM
 10
0.0
 20
0.0
 30
0.0
  9
$PUCSORGLEFT
 10
0.0
 20
0.0
 30
0.0
  9
$PUCSORGRIGHT
 10
0.0
 20
0.0
 30
0.0
  9
$PUCSORGFRONT
 10
0.0
 20
0.0
 30
0.0
  9
$PUCSORGBACK
 10
0.0
 20
0.0
 30
0.0
  9
$USERI1
 70
     0
  9
$USERI2
 70
     0
  9
$USERI3
 70
     0
  9
$USERI4
 70
     0
  9
$USERI5
 70
     0
  9
$USERR1
 40
0.0
  9
$USERR2
 40
0.0
  9
$USERR3
 40
0.0
  9
$USERR4
 40
0.0
  9
$USERR5
 40
0.0
  9
$WORLDVIEW
 70
     1
  9
$SHADEDGE
 70
     3
  9
$SHADEDIF
 70
    70
  9
$TILEMODE
 70
     0
  9
$MAXACTVP
 70
    16
  9
$PINSBASE
 10
0.0
 20
0.0
 30
0.0
  9
$PLIMCHECK
 70
     0
  9
$PEXTMIN
 10
-0.0733027175222354
 20
-0.0428619138838222
 30
-0.0015258207003583
  9
$PEXTMAX
 10
10.44732693490819
 20
7.945342815747668
 30
0.0000000349246037
  9
$PLIMMIN
 10
-0.3306119115190196
 20
-0.2812499079328949
  9
$PLIMMAX
 10
10.66938784818509
 20
8.218749851771214
  9
$UNITMODE
 70
     0
  9
$VISRETAIN
 70
     0
  9
$PLINEGEN
 70
     1
  9
$PSLTSCALE
 70
     0
  9
$TREEDEPTH
 70
  3020
  9
$CMLSTYLE
  2
Standard
  9
$CMLJUST
 70
     0
  9
$CMLSCALE
 40
1.0
  9
$PROXYGRAPHICS
 70
     0
  9
$MEASUREMENT
 70
     0
  9
$CELWEIGHT
370
     0
  9
$ENDCAPS
280
     0
  9
$JOINSTYLE
280
     0
  9
$LWDISPLAY
290
     0
  9
$INSUNITS
 70
     0
  9
$HYPERLINKBASE
  1

  9
$STYLESHEET
  1

  9
$XEDIT
290
     1
  9
$CEPSNTYPE
380
     0
  9
$PSTYLEMODE
290
     1
  9
$FINGERPRINTGUID
  2

  9
$VERSIONGUID
  2
{F3C3B258-E905-475A-8290-1293F94F3335}
  9
$EXTNAMES
290
     1
  9
$PSVPSCALE
 40
0.0
  9
$OLESTARTUP
290
     0
  9
$SORTENTS
280
   127
  9
$INDEXCTL
280
     0
  9
$HIDETEXT
280
     0
  9
$XCLIPFRAME
290
     0
  9
$HALOGAP
280
     0
  9
$OBSCOLOR
 70
   257
  9
$OBSLTYPE
280
     0
  9
$INTERSECTIONDISPLAY
280
     0
  9
$INTERSECTIONCOLOR
 70
   257
  9
$DIMASSOC
280
     1
  9
$PROJECTNAME
  1

  0
ENDSEC
  0
SECTION
  2
CLASSES
  0
CLASS
  1
IMAGE
  2
AcDbRasterImage
  3
ISM
 90
     2175
 91
        0
280
     0
281
     1
  0
CLASS
  1
DICTIONARYVAR
  2
AcDbDictionaryVar
  3
ObjectDBX Classes
 90
        0
 91
        5
280
     0
281
     0
  0
CLASS
  1
RASTERVARIABLES
  2
AcDbRasterVariables
  3
ISM
 90
        0
 91
        0
280
     0
281
     0
  0
CLASS
  1
IMAGEDEF
  2
AcDbRasterImageDef
  3
ISM
 90
        0
 91
        0
280
     0
281
     0
  0
CLASS
  1
IMAGEDEF_REACTOR
  2
AcDbRasterImageDefReactor
  3
ISM
 90
        1
 91
        0
280
     0
281
     0
  0
CLASS
  1
IDBUFFER
  2
AcDbIdBuffer
  3
ObjectDBX Classes
 90
        0
 91
        0
280
     0
281
     0
  0
CLASS
  1
SPATIAL_FILTER
  2
AcDbSpatialFilter
  3
ObjectDBX Classes
 90
        0
 91
        0
280
     0
281
     0
  0
CLASS
  1
SORTENTSTABLE
  2
AcDbSortentsTable
  3
ObjectDBX Classes
 90
        0
 91
        1
280
     0
281
     0
  0
CLASS
  1
LAYER_INDEX
  2
AcDbLayerIndex
  3
ObjectDBX Classes
 90
        0
 91
        0
280
     0
281
     0
  0
CLASS
  1
SPATIAL_INDEX
  2
AcDbSpatialIndex
  3
ObjectDBX Classes
 90
        0
 91
        0
280
     0
281
     0
  0
CLASS
  1
OBJECT_PTR
  2
CAseDLPNTableRecord
  3
ASE-LPNTableRecord
 90
        1
 91
        0
280
     0
281
     0
  0
CLASS
  1
PLOTSETTINGS
  2
AcDbPlotSettings
  3
ObjectDBX Classes
 90
        0
 91
        0
280
     0
281
     0
  0
CLASS
  1
ACDBDICTIONARYWDFLT
  2
AcDbDictionaryWithDefault
  3
ObjectDBX Classes
 90
        0
 91
        1
280
     0
281
     0
  0
CLASS
  1
WIPEOUT
  2
AcDbWipeout
  3
"WipeOut|Product Desc: Object Enabler for WipeOut entity                        |Company: Autodesk, Inc.                        |WEB Address: www.autodesk.com"
 90
     2175
 91
        0
280
     0
281
     1
  0
CLASS
  1
WIPEOUTVARIABLES
  2
AcDbWipeoutVariables
  3
"WipeOut|Product Desc:     WipeOut Dbx Application|Company:          Autodesk, Inc.|WEB Address:      www.autodesk.com"
 90
        0
 91
        1
280
     0
281
     0
  0
CLASS
  1
RTEXT
  2
RText
  3
RText|AutoCAD Express Tool|expresstools@autodesk.com
 90
     3071
 91
        0
280
     0
281
     1
  0
CLASS
  1
ARCALIGNEDTEXT
  2
AcDbArcAlignedText
  3
ATEXT|AutoCAD Express Tool|expresstools@autodesk.com
 90
        0
 91
        0
280
     0
281
     1
  0
CLASS
  1
MATERIAL
  2
AcDbMaterial
  3
ObjectDBX Classes
 90
     1153
 91
        3
280
     0
281
     0
  0
CLASS
  1
VISUALSTYLE
  2
AcDbVisualStyle
  3
ObjectDBX Classes
 90
     4095
 91
       16
280
     0
281
     0
  0
CLASS
  1
TABLESTYLE
  2
AcDbTableStyle
  3
ObjectDBX Classes
 90
     4095
 91
        1
280
     0
281
     0
  0
CLASS
  1
SCALE
  2
AcDbScale
  3
ObjectDBX Classes
 90
     1153
 91
       33
280
     0
281
     0
  0
CLASS
  1
MLEADERSTYLE
  2
AcDbMLeaderStyle
  3
ACDB_MLEADERSTYLE_CLASS
 90
     4095
 91
        1
280
     0
281
     0
  0
CLASS
  1
CELLSTYLEMAP
  2
AcDbCellStyleMap
  3
ObjectDBX Classes
 90
     1152
 91
        2
280
     0
281
     0
  0
ENDSEC
  0
SECTION
  2
TABLES
  0
TABLE
  2
VPORT
  5
7
330
0
100
AcDbSymbolTable
 70
     1
  0
VPORT
  5
15
330
7
100
AcDbSymbolTableRecord
100
AcDbViewportTableRecord
  2
*ACTIVE
 70
     0
 10
0.0
 20
0.0
 11
1.0
 21
1.0
 12
13.89621157632295
 22
4.579183999999999
 13
0.0
 23
0.0
 14
1.0
 24
1.0
 15
0.0
 25
0.0
 16
0.0
 26
0.0
 36
1.0
 17
0.0
 27
0.0
 37
0.0
 40
9.158369
 41
2.283809523809523
 42
50.0
 43
0.0
 44
0.0
 50
0.0
 51
0.0
 71
     0
 72
   100
 73
     1
 74
     1
 75
     0
 76
     0
 77
     0
 78
     0
281
     0
 65
     0
110
0.0
120
0.0
130
0.0
111
1.0
121
0.0
131
0.0
112
0.0
122
1.0
132
0.0
 79
     0
146
0.0
  0
ENDTAB
  0
TABLE
  2
LTYPE
  5
4
330
0
100
AcDbSymbolTable
 70
     5
  0
LTYPE
  5
11
330
4
100
AcDbSymbolTableRecord
100
AcDbLinetypeTableRecord
  2
ByBlock
 70
     0
  3

 72
    65
 73
     0
 40
0.0
  0
LTYPE
  5
12
330
4
100
AcDbSymbolTableRecord
100
AcDbLinetypeTableRecord
  2
ByLayer
 70
     0
  3

 72
    65
 73
     0
 40
0.0
  0
LTYPE
  5
13
330
4
100
AcDbSymbolTableRecord
100
AcDbLinetypeTableRecord
  2
Continuous
 70
     0
  3
Solid line
 72
    65
 73
     0
 40
0.0
  0
LTYPE
  5
24
330
4
100
AcDbSymbolTableRecord
100
AcDbLinetypeTableRecord
  2
solid
 70
     0
  3

 72
    65
 73
     0
 40
0.0
  0
LTYPE
  5
25
330
4
100
AcDbSymbolTableRecord
100
AcDbLinetypeTableRecord
  2
dashed
 70
     0
  3

 72
    65
 73
     0
 40
0.0
  0
LTYPE
  5
26
330
4
100
AcDbSymbolTableRecord
100
AcDbLinetypeTableRecord
  2
center
 70
     0
  3

 72
    65
 73
     0
 40
0.0
  0
ENDTAB
  0
TABLE
  2
LAYER
  5
2
330
0
100
AcDbSymbolTable
 70
     3
  0
LAYER
  5
14
102
{ACAD_XDICTIONARY
360
1AE
102
}
330
2
100
AcDbSymbolTableRecord
100
AcDbLayerTableRecord
  2
0
 70
     0
 62
     7
  6
Continuous
370
    -3
390
1D
  0
LAYER
  5
27
102
{ACAD_XDICTIONARY
360
1B0
102
}
330
2
100
AcDbSymbolTableRecord
100
AcDbLayerTableRecord
  2
1
 70
     0
 62
     1
  6
solid
370
    -3
390
1D
  0
LAYER
  5
AB
102
{ACAD_XDICTIONARY
360
1B2
102
}
330
2
100
AcDbSymbolTableRecord
100
AcDbLayerTableRecord
  2
0
 70
     0
 62
     1
  6
solid
370
    -3
390
1D
  0
ENDTAB
  0
TABLE
  2
STYLE
  5
3
330
0
100
AcDbSymbolTable
 70
     2
  0
STYLE
  5
17
330
3
100
AcDbSymbolTableRecord
100
AcDbTextStyleTableRecord
  2
Standard
 70
     0
 40
0.0
 41
1.0
 50
0.0
 71
     0
 42
0.0
  3
txt
  4

  0
ENDTAB
  0
TABLE
  2
VIEW
  5
5
330
0
100
AcDbSymbolTable
 70
     0
  0
ENDTAB
  0
TABLE
  2
UCS
  5
6
330
0
100
AcDbSymbolTable
 70
     0
  0
ENDTAB
  0
TABLE
  2
APPID
  5
8
330
0
100
AcDbSymbolTable
 70
     5
  0
APPID
  5
16
330
8
100
AcDbSymbolTableRecord
100
AcDbRegAppTableRecord
  2
ACAD
 70
     0
  0
APPID
  5
179
330
8
100
AcDbSymbolTableRecord
100
AcDbRegAppTableRecord
  2
ACAD_PSEXT
 70
     0
  0
APPID
  5
17E
330
8
100
AcDbSymbolTableRecord
100
AcDbRegAppTableRecord
  2
DCO15
 70
     0
  0
APPID
  5
1A7
330
8
100
AcDbSymbolTableRecord
100
AcDbRegAppTableRecord
  2
ACAD_MLEADERVER
 70
     0
  0
APPID
  5
1CD
330
8
100
AcDbSymbolTableRecord
100
AcDbRegAppTableRecord
  2
ACAD_EXEMPT_FROM_CAD_STANDARDS
 70
     0
  0
ENDTAB
  0
TABLE
  2
DIMSTYLE
  5
9
330
0
100
AcDbSymbolTable
 70
     3
100
AcDbDimStyleTable
 71
     1
340
18
  0
DIMSTYLE
105
18
330
9
100
AcDbSymbolTableRecord
100
AcDbDimStyleTableRecord
  2
Standard
 70
     0
289
     0
340
17
  0
ENDTAB
  0
TABLE
  2
BLOCK_RECORD
  5
1
330
0
100
AcDbSymbolTable
 70
     6
  0
BLOCK_RECORD
  5
A
102
{ACAD_XDICTIONARY
360
1C3
102
}
330
1
100
AcDbSymbolTableRecord
100
AcDbBlockTableRecord
  2
*MODEL_SPACE
340
20
  0
BLOCK_RECORD
  5
B
330
1
100
AcDbSymbolTableRecord
100
AcDbBlockTableRecord
  2
*PAPER_SPACE
340
21
  0
BLOCK_RECORD
  5
95
330
1
100
AcDbSymbolTableRecord
100
AcDbBlockTableRecord
  2
*D0
340
0
  0
BLOCK_RECORD
  5
A0
330
1
100
AcDbSymbolTableRecord
100
AcDbBlockTableRecord
  2
*D1
340
0
  0
BLOCK_RECORD
  5
145
330
1
100
AcDbSymbolTableRecord
100
AcDbBlockTableRecord
  2
*D2
340
0
  0
BLOCK_RECORD
  5
150
330
1
100
AcDbSymbolTableRecord
100
AcDbBlockTableRecord
  2
*D3
340
0
  0
ENDTAB
  0
ENDSEC
  0
SECTION
  2
BLOCKS
  0
BLOCK
  5
D
330
A
100
AcDbEntity
  8
0
100
AcDbBlockBegin
  2
*MODEL_SPACE
 70
     0
 10
0.0
 20
0.0
 30
0.0
  3
*MODEL_SPACE
  1

  0
ENDBLK
  5
E
330
A
100
AcDbEntity
  8
0
100
AcDbBlockEnd
  0
BLOCK
  5
F
330
B
100
AcDbEntity
 67
     1
  8
0
100
AcDbBlockBegin
  2
*PAPER_SPACE
 70
     0
 10
0.0
 20
0.0
 30
0.0
  3
*PAPER_SPACE
  1

  0
ENDBLK
  5
10
330
B
100
AcDbEntity
 67
     1
  8
0
100
AcDbBlockEnd
  0
BLOCK
  5
96
330
95
100
AcDbEntity
  8
1
  6
solid
 62
     7
100
AcDbBlockBegin
  2
*D0
 70
     0
 10
0.0
 20
0.0
 30
0.0
  3
*D0
  1

  0
LINE
  5
97
330
95
100
AcDbEntity
  8
1
  6
solid
 62
     7
100
AcDbLine
 10
0.377486
 20
1.215190999999999
 30
0.0
 11
0.377486
 21
4.955454403846152
 31
0.0
  0
LINE
  5
98
330
95
100
AcDbEntity
  8
1
  6
solid
 62
     7
100
AcDbLine
 10
3.424723999999999
 20
4.830033999999999
 30
0.0
 11
3.424723999999999
 21
4.955454403846152
 31
0.0
  0
LINE
  5
99
330
95
100
AcDbEntity
  8
1
  6
solid
 62
     7
100
AcDbLine
 10
0.377486
 20
4.892954403846152
 30
0.0
 11
1.780354999999999
 21
4.892954403846152
 31
0.0
  0
LINE
  5
9A
330
95
100
AcDbEntity
  8
1
  6
solid
 62
     7
100
AcDbLine
 10
3.424723999999999
 20
4.892954403846152
 30
0.0
 11
2.021854999999999
 21
4.892954403846152
 31
0.0
  0
MTEXT
  5
9B
330
95
100
AcDbEntity
  8
1
  6
solid
 62
     7
100
AcDbMText
 10
1.901105
 20
4.892954403846152
 30
0.0
 40
0.125
 41
0.0
 71
     5
 72
     1
  1
{\H0.125000;3}
 73
     1
 44
1.0
  0
SOLID
  5
9C
330
95
100
AcDbEntity
  8
1
  6
solid
 62
     7
100
AcDbTrace
 10
0.502486000001
 20
4.913766903846152
 30
0.0
 11
0.502486000001
 21
4.872141903846152
 31
0.0
 12
0.377486
 22
4.892954403846152
 32
0.0
 13
0.377486
 23
4.892954403846152
 33
0.0
  0
SOLID
  5
9D
330
95
100
AcDbEntity
  8
1
  6
solid
 62
     7
100
AcDbTrace
 10
3.299723999998999
 20
4.872141903846152
 30
0.0
 11
3.299723999998999
 21
4.913766903846152
 31
0.0
 12
3.424723999999999
 22
4.892954403846152
 32
0.0
 13
3.424723999999999
 23
4.892954403846152
 33
0.0
  0
ENDBLK
  5
9E
330
95
100
AcDbEntity
  8
1
  6
solid
 62
     7
100
AcDbBlockEnd
  0
BLOCK
  5
A1
330
A0
100
AcDbEntity
  8
1
  6
solid
 62
     7
100
AcDbBlockBegin
  2
*D1
 70
     0
 10
0.0
 20
0.0
 30
0.0
  3
*D1
  1

  0
LINE
  5
A2
330
A0
100
AcDbEntity
  8
1
  6
solid
 62
     7
100
AcDbLine
 10
0.252486
 20
0.4298920000000001
 30
0.0
 11
0.1297279999999985
 21
0.4298920000000003
 31
0.0
  0
LINE
  5
A3
330
A0
100
AcDbEntity
  8
1
  6
solid
 62
     7
100
AcDbLine
 10
2.816188999999999
 20
4.705033999999999
 30
0.0
 11
0.1297280000000016
 21
4.705034000000001
 31
0.0
  0
LINE
  5
A4
330
A0
100
AcDbEntity
  8
1
  6
solid
 62
     7
100
AcDbLine
 10
0.1922279999999985
 20
0.4298920000000002
 30
0.0
 11
0.1922279999999999
 21
2.407590403846154
 31
0.0
  0
LINE
  5
A5
330
A0
100
AcDbEntity
  8
1
  6
solid
 62
     7
100
AcDbLine
 10
0.1922280000000016
 20
4.705034000000001
 30
0.0
 11
0.1922280000000001
 21
2.727335596153846
 31
0.0
  0
MTEXT
  5
A6
330
A0
100
AcDbEntity
  8
1
  6
solid
 62
     7
100
AcDbMText
 10
0.192228
 20
2.567463
 30
0.0
 40
0.125
 41
0.0
 71
     5
 72
     1
  1
{\H0.125000;4 1/4}
 73
     1
 44
1.0
  0
SOLID
  5
A7
330
A0
100
AcDbEntity
  8
1
  6
solid
 62
     7
100
AcDbTrace
 10
0.1714154999999986
 20
0.5548920000010003
 30
0.0
 11
0.2130404999999987
 21
0.5548920000010002
 31
0.0
 12
0.1922279999999985
 22
0.4298920000000002
 32
0.0
 13
0.1922279999999985
 23
0.4298920000000002
 33
0.0
  0
SOLID
  5
A8
330
A0
100
AcDbEntity
  8
1
  6
solid
 62
     7
100
AcDbTrace
 10
0.2130405000000015
 20
4.580033999999001
 30
0.0
 11
0.1714155000000015
 21
4.580033999999001
 31
0.0
 12
0.1922280000000016
 22
4.705034000000001
 32
0.0
 13
0.1922280000000016
 23
4.705034000000001
 33
0.0
  0
ENDBLK
  5
A9
330
A0
100
AcDbEntity
  8
1
  6
solid
 62
     7
100
AcDbBlockEnd
  0
BLOCK
  5
146
330
145
100
AcDbEntity
  8
0
  6
solid
 62
     7
100
AcDbBlockBegin
  2
*D2
 70
     0
 10
0.0
 20
0.0
 30
0.0
  3
*D2
  1

  0
LINE
  5
147
330
145
100
AcDbEntity
  8
0
  6
solid
 62
     7
100
AcDbLine
 10
-5.921475410461425
 20
2.174466609954833
 30
0.0
 11
-6.776906986340393
 21
2.174466609954834
 31
0.0
  0
LINE
  5
148
330
145
100
AcDbEntity
  8
0
  6
solid
 62
     7
100
AcDbLine
 10
-5.570265293121337
 20
2.846101760864257
 30
0.0
 11
-6.776906986340393
 21
2.846101760864258
 31
0.0
  0
LINE
  5
149
330
145
100
AcDbEntity
  8
0
  6
solid
 62
     7
100
AcDbLine
 10
-6.714406986340393
 20
2.174466609954834
 30
0.0
 11
-6.714406986340393
 21
2.510284185409546
 31
0.0
  0
LINE
  5
14A
330
145
100
AcDbEntity
  8
0
  6
solid
 62
     7
100
AcDbLine
 10
-6.714406986340393
 20
2.846101760864258
 30
0.0
 11
-6.714406986340393
 21
2.510284185409546
 31
0.0
  0
MTEXT
  5
14B
330
145
100
AcDbEntity
  8
0
  6
solid
 62
     7
100
AcDbMText
 10
-7.103869486340393
 20
2.510284185409546
 30
0.0
 40
0.125
 41
0.0
 71
     5
 72
     1
  1
{\H0.125000;11/16}
 73
     1
 44
1.0
  0
SOLID
  5
14C
330
145
100
AcDbEntity
  8
0
  6
solid
 62
     7
100
AcDbTrace
 10
-6.735221986340392
 20
2.299466609954834
 30
0.0
 11
-6.693591986340392
 21
2.299466609954834
 31
0.0
 12
-6.714406986340393
 22
2.174466609954834
 32
0.0
 13
-6.714406986340393
 23
2.174466609954834
 33
0.0
  0
SOLID
  5
14D
330
145
100
AcDbEntity
  8
0
  6
solid
 62
     7
100
AcDbTrace
 10
-6.693591986340392
 20
2.721101760864258
 30
0.0
 11
-6.735221986340392
 21
2.721101760864258
 31
0.0
 12
-6.714406986340393
 22
2.846101760864258
 32
0.0
 13
-6.714406986340393
 23
2.846101760864258
 33
0.0
  0
ENDBLK
  5
14E
330
145
100
AcDbEntity
  8
0
  6
solid
 62
     7
100
AcDbBlockEnd
  0
BLOCK
  5
151
330
150
100
AcDbEntity
  8
0
  6
solid
 62
     7
100
AcDbBlockBegin
  2
*D3
 70
     0
 10
0.0
 20
0.0
 30
0.0
  3
*D3
  1

  0
LINE
  5
152
330
150
100
AcDbEntity
  8
0
  6
solid
 62
     7
100
AcDbLine
 10
-6.076199054718017
 20
2.443878889083862
 30
0.0
 11
-6.076199054718017
 21
1.378680923008339
 31
0.0
  0
LINE
  5
153
330
150
100
AcDbEntity
  8
0
  6
solid
 62
     7
100
AcDbLine
 10
-0.8262137174606323
 20
2.431447267532348
 30
0.0
 11
-0.8262137174606323
 21
1.378680923008339
 31
0.0
  0
LINE
  5
154
330
150
100
AcDbEntity
  8
0
  6
solid
 62
     7
100
AcDbLine
 10
-6.076199054718017
 20
1.441180923008339
 30
0.0
 11
-3.451206386089324
 21
1.441180923008339
 31
0.0
  0
LINE
  5
155
330
150
100
AcDbEntity
  8
0
  6
solid
 62
     7
100
AcDbLine
 10
-0.8262137174606323
 20
1.441180923008339
 30
0.0
 11
-3.451206386089324
 21
1.441180923008339
 31
0.0
  0
MTEXT
  5
156
330
150
100
AcDbEntity
  8
0
  6
solid
 62
     7
100
AcDbMText
 10
-3.451206386089324
 20
1.544766019162186
 30
0.0
 40
0.125
 41
0.0
 71
     5
 72
     1
  1
{\H0.125000;5 1/4}
 73
     1
 44
1.0
  0
SOLID
  5
157
330
150
100
AcDbEntity
  8
0
  6
solid
 62
     7
100
AcDbTrace
 10
-5.951199054718017
 20
1.461995923008339
 30
0.0
 11
-5.951199054718017
 21
1.420365923008339
 31
0.0
 12
-6.076199054718017
 22
1.441180923008339
 32
0.0
 13
-6.076199054718017
 23
1.441180923008339
 33
0.0
  0
SOLID
  5
158
330
150
100
AcDbEntity
  8
0
  6
solid
 62
     7
100
AcDbTrace
 10
-0.9512137174606323
 20
1.420365923008339
 30
0.0
 11
-0.9512137174606323
 21
1.461995923008339
 31
0.0
 12
-0.8262137174606323
 22
1.441180923008339
 32
0.0
 13
-0.8262137174606323
 23
1.441180923008339
 33
0.0
  0
ENDBLK
  5
159
330
150
100
AcDbEntity
  8
0
  6
solid
 62
     7
100
AcDbBlockEnd
  0
ENDSEC
  0
SECTION
  2
ENTITIES
  0
LINE
  5
28
330
A
100
AcDbEntity
  8
1
  6
solid
 62
     7
100
AcDbLine
 10
2.725
 20
4.432136999999999
 30
0.0
 11
2.740066999999999
 21
4.421451
 31
0.0
  0
ARC
  5
29
330
A
100
AcDbEntity
  8
1
  6
solid
 62
     7
100
AcDbCircle
 10
1.688433999999999
 20
0.147458
 30
0.0
 40
0.6035960000000001
100
AcDbArc
 50
91.51257599999999
 51
187.6295879999999
  0
LINE
  5
2A
330
A
100
AcDbEntity
  8
1
  6
solid
 62
     7
100
AcDbLine
 10
1.090180999999999
 20
0.067319
 30
0.0
 11
0.8174249999999998
 21
0.067319
 31
0.0
  0
LINE
  5
2B
330
A
100
AcDbEntity
  8
1
  6
solid
 62
     7
100
AcDbLine
 10
1.672500999999999
 20
0.9603280000000001
 30
0.0
 11
1.672500999999999
 21
0.7508430000000001
 31
0.0
  0
ARC
  5
2C
330
A
100
AcDbEntity
  8
1
  6
solid
 62
     7
100
AcDbCircle
 10
9.073552000000001
 20
-0.272389
 30
0.0
 40
7.044477
100
AcDbArc
 50
149.57735
 51
156.2585639999999
  0
ARC
  5
2D
330
A
100
AcDbEntity
  8
1
  6
solid
 62
     7
100
AcDbCircle
 10
3.815732
 20
2.597047
 30
0.0
 40
1.07417
100
AcDbArc
 50
94.80273000000002
 51
139.493611
  0
ARC
  5
2E
330
A
100
AcDbEntity
  8
1
  6
solid
 62
     7
100
AcDbCircle
 10
-0.484861
 20
3.326955999999999
 30
0.0
 40
3.202363999999999
100
AcDbArc
 50
312.351546
 51
346.212933
  0
LINE
  5
2F
330
A
100
AcDbEntity
  8
1
  6
solid
 62
     7
100
AcDbLine
 10
3.719281999999999
 20
3.662919999999999
 30
0.0
 11
3.864662
 21
4.342462
 31
0.0
  0
LINE
  5
30
330
A
100
AcDbEntity
  8
1
  6
solid
 62
     7
100
AcDbLine
 10
3.424723999999999
 20
4.705033999999999
 30
0.0
 11
3.864662
 21
4.342462
 31
0.0
  0
LINE
  5
31
330
A
100
AcDbEntity
  8
1
  6
solid
 62
     7
100
AcDbLine
 10
3.285858
 20
4.030018
 30
0.0
 11
3.725795999999999
 21
3.667445999999999
 31
0.0
  0
LINE
  5
32
330
A
100
AcDbEntity
  8
1
  6
solid
 62
     7
100
AcDbLine
 10
1.232562
 20
1.322899999999999
 30
0.0
 11
1.672500999999999
 21
0.9603280000000001
 31
0.0
  0
LINE
  5
33
330
A
100
AcDbEntity
  8
1
  6
solid
 62
     7
100
AcDbLine
 10
1.232562
 20
1.113415999999999
 30
0.0
 11
1.672500999999999
 21
0.7508430000000001
 31
0.0
  0
LINE
  5
34
330
A
100
AcDbEntity
  8
1
  6
solid
 62
     7
100
AcDbLine
 10
0.6502430000000001
 20
0.429892
 30
0.0
 11
1.090180999999999
 21
0.067319
 31
0.0
  0
LINE
  5
35
330
A
100
AcDbEntity
  8
1
  6
solid
 62
     7
100
AcDbLine
 10
0.377486
 20
0.429892
 30
0.0
 11
0.8174249999999998
 21
0.067319
 31
0.0
  0
LINE
  5
36
330
A
100
AcDbEntity
  8
1
  6
solid
 62
     7
100
AcDbLine
 10
0.6343760000000001
 20
-0.302161
 30
0.0
 11
0.609667
 21
-0.302161
 31
0.0
  0
LINE
  5
37
330
A
100
AcDbEntity
  8
1
  6
solid
 62
     7
100
AcDbLine
 10
0.609667
 20
-0.302161
 30
0.0
 11
0.609667
 21
-0.213305
 31
0.0
  0
SPLINE
  5
38
330
A
100
AcDbEntity
  8
1
  6
solid
 62
     7
100
AcDbSpline
210
0.0
220
0.0
230
1.0
 70
     8
 71
     2
 72
     6
 73
     3
 74
     0
 42
0.0000000001
 43
0.0000000001
 40
0.0
 40
0.0
 40
0.0
 40
1.0
 40
1.0
 40
1.0
 10
0.6096665535333658
 20
-0.2133049563900876
 30
0.0
 10
0.5966744605101101
 20
-0.227467747087762
 30
0.0
 10
0.5791432977194125
 20
-0.233847281971483
 30
0.0
  0
LINE
  5
39
330
A
100
AcDbEntity
  8
1
  6
solid
 62
     7
100
AcDbLine
 10
0.5791430000000001
 20
-0.233847
 30
0.0
 11
0.5791430000000001
 21
-0.209138
 31
0.0
  0
SPLINE
  5
3A
330
A
100
AcDbEntity
  8
1
  6
solid
 62
     7
100
AcDbSpline
210
0.0
220
0.0
230
1.0
 70
     8
 71
     2
 72
     7
 73
     4
 74
     0
 42
0.0000000001
 43
0.0000000001
 40
0.0
 40
0.0
 40
0.0
 40
1.0
 40
2.0
 40
2.0
 40
2.0
 10
0.5791432977194125
 20
-0.2091379796459016
 30
0.0
 10
0.5883256233008077
 20
-0.2060970494133434
 30
0.0
 10
0.6103512046961566
 20
-0.1887444912738085
 30
0.0
 10
0.6145479488822031
 20
-0.1771612354598551
 30
0.0
  0
LINE
  5
3B
330
A
100
AcDbEntity
  8
1
  6
solid
 62
     7
100
AcDbLine
 10
0.614548
 20
-0.177161
 30
0.0
 11
0.6343760000000001
 21
-0.177161
 31
0.0
  0
LINE
  5
3C
330
A
100
AcDbEntity
  8
1
  6
solid
 62
     7
100
AcDbLine
 10
0.6343760000000001
 20
-0.302161
 30
0.0
 11
0.6343760000000001
 21
-0.177161
 31
0.0
  0
LINE
  5
3D
330
A
100
AcDbEntity
  8
1
  6
solid
 62
     7
100
AcDbLine
 10
0.713708
 20
-0.302161
 30
0.0
 11
0.688999
 21
-0.302161
 31
0.0
  0
LINE
  5
3E
330
A
100
AcDbEntity
  8
1
  6
solid
 62
     7
100
AcDbLine
 10
0.688999
 20
-0.302161
 30
0.0
 11
0.688999
 21
-0.213305
 31
0.0
  0
SPLINE
  5
3F
330
A
100
AcDbEntity
  8
1
  6
solid
 62
     7
100
AcDbSpline
210
0.0
220
0.0
230
1.0
 70
     8
 71
     2
 72
     6
 73
     3
 74
     0
 42
0.0000000001
 43
0.0000000001
 40
0.0
 40
0.0
 40
0.0
 40
1.0
 40
1.0
 40
1.0
 10
0.6889991116729007
 20
-0.2133049563900876
 30
0.0
 10
0.676007018649645
 20
-0.227467747087762
 30
0.0
 10
0.6584758558589475
 20
-0.233847281971483
 30
0.0
  0
LINE
  5
40
330
A
100
AcDbEntity
  8
1
  6
solid
 62
     7
100
AcDbLine
 10
0.6584760000000001
 20
-0.233847
 30
0.0
 11
0.6584760000000001
 21
-0.209138
 31
0.0
  0
SPLINE
  5
41
330
A
100
AcDbEntity
  8
1
  6
solid
 62
     7
100
AcDbSpline
210
0.0
220
0.0
230
1.0
 70
     8
 71
     2
 72
     7
 73
     4
 74
     0
 42
0.0000000001
 43
0.0000000001
 40
0.0
 40
0.0
 40
0.0
 40
1.0
 40
2.0
 40
2.0
 40
2.0
 10
0.6584758558589475
 20
-0.2091379796459016
 30
0.0
 10
0.6676581814403427
 20
-0.2060970494133434
 30
0.0
 10
0.6896837628356916
 20
-0.1887444912738085
 30
0.0
 10
0.6938805070217379
 20
-0.1771612354598551
 30
0.0
  0
LINE
  5
42
330
A
100
AcDbEntity
  8
1
  6
solid
 62
     7
100
AcDbLine
 10
0.6938810000000001
 20
-0.177161
 30
0.0
 11
0.713708
 21
-0.177161
 31
0.0
  0
LINE
  5
43
330
A
100
AcDbEntity
  8
1
  6
solid
 62
     7
100
AcDbLine
 10
0.713708
 20
-0.302161
 30
0.0
 11
0.713708
 21
-0.177161
 31
0.0
  0
LINE
  5
44
330
A
100
AcDbEntity
  8
1
  6
solid
 62
     7
100
AcDbLine
 10
0.73698
 20
-0.302161
 30
0.0
 11
0.7660650000000001
 21
-0.177161
 31
0.0
  0
LINE
  5
45
330
A
100
AcDbEntity
  8
1
  6
solid
 62
     7
100
AcDbLine
 10
0.7660650000000001
 20
-0.177161
 30
0.0
 11
0.785774
 21
-0.177161
 31
0.0
  0
LINE
  5
46
330
A
100
AcDbEntity
  8
1
  6
solid
 62
     7
100
AcDbLine
 10
0.785774
 20
-0.177161
 30
0.0
 11
0.7567040000000001
 21
-0.302161
 31
0.0
  0
LINE
  5
47
330
A
100
AcDbEntity
  8
1
  6
solid
 62
     7
100
AcDbLine
 10
0.73698
 20
-0.302161
 30
0.0
 11
0.7567040000000001
 21
-0.302161
 31
0.0
  0
LINE
  5
48
330
A
100
AcDbEntity
  8
1
  6
solid
 62
     7
100
AcDbLine
 10
0.8651059999999999
 20
-0.302161
 30
0.0
 11
0.8403969999999999
 21
-0.302161
 31
0.0
  0
LINE
  5
49
330
A
100
AcDbEntity
  8
1
  6
solid
 62
     7
100
AcDbLine
 10
0.8403969999999999
 20
-0.302161
 30
0.0
 11
0.8403969999999999
 21
-0.213305
 31
0.0
  0
SPLINE
  5
4A
330
A
100
AcDbEntity
  8
1
  6
solid
 62
     7
100
AcDbSpline
210
0.0
220
0.0
230
1.0
 70
     8
 71
     2
 72
     6
 73
     3
 74
     0
 42
0.0000000001
 43
0.0000000001
 40
0.0
 40
0.0
 40
0.0
 40
1.0
 40
1.0
 40
1.0
 10
0.8403967860915052
 20
-0.2133049563900876
 30
0.0
 10
0.8274046930682496
 20
-0.227467747087762
 30
0.0
 10
0.8098735302775519
 20
-0.233847281971483
 30
0.0
  0
LINE
  5
4B
330
A
100
AcDbEntity
  8
1
  6
solid
 62
     7
100
AcDbLine
 10
0.8098739999999999
 20
-0.233847
 30
0.0
 11
0.8098739999999999
 21
-0.209138
 31
0.0
  0
SPLINE
  5
4C
330
A
100
AcDbEntity
  8
1
  6
solid
 62
     7
100
AcDbSpline
210
0.0
220
0.0
230
1.0
 70
     8
 71
     2
 72
     7
 73
     4
 74
     0
 42
0.0000000001
 43
0.0000000001
 40
0.0
 40
0.0
 40
0.0
 40
1.0
 40
2.0
 40
2.0
 40
2.0
 10
0.8098735302775519
 20
-0.2091379796459016
 30
0.0
 10
0.8190558558589472
 20
-0.2060970494133434
 30
0.0
 10
0.841081437254296
 20
-0.1887444912738085
 30
0.0
 10
0.8452781814403426
 20
-0.1771612354598551
 30
0.0
  0
LINE
  5
4D
330
A
100
AcDbEntity
  8
1
  6
solid
 62
     7
100
AcDbLine
 10
0.845278
 20
-0.177161
 30
0.0
 11
0.8651059999999999
 21
-0.177161
 31
0.0
  0
LINE
  5
4E
330
A
100
AcDbEntity
  8
1
  6
solid
 62
     7
100
AcDbLine
 10
0.8651059999999999
 20
-0.302161
 30
0.0
 11
0.8651059999999999
 21
-0.177161
 31
0.0
  0
LINE
  5
4F
330
A
100
AcDbEntity
  8
1
  6
solid
 62
     7
100
AcDbLine
 10
0.969148
 20
-0.211256
 30
0.0
 11
0.9444389999999998
 21
-0.213498
 31
0.0
  0
SPLINE
  5
50
330
A
100
AcDbEntity
  8
1
  6
solid
 62
     7
100
AcDbSpline
210
0.0
220
0.0
230
1.0
 70
     8
 71
     2
 72
     7
 73
     4
 74
     0
 42
0.0000000001
 43
0.0000000001
 40
0.0
 40
0.0
 40
0.0
 40
1.0
 40
2.0
 40
2.0
 40
2.0
 10
0.9444386465566216
 20
-0.2134984447621806
 30
0.0
 10
0.9433870186496447
 20
-0.2061119331342737
 30
0.0
 10
0.9362981814403426
 20
-0.1989635610412504
 30
0.0
 10
0.9306330651612727
 20
-0.1989635610412504
 30
0.0
  0
SPLINE
  5
51
330
A
100
AcDbEntity
  8
1
  6
solid
 62
     7
100
AcDbSpline
210
0.0
220
0.0
230
1.0
 70
     8
 71
     2
 72
     7
 73
     4
 74
     0
 42
0.0000000001
 43
0.0000000001
 40
0.0
 40
0.0
 40
0.0
 40
1.0
 40
2.0
 40
2.0
 40
2.0
 10
0.9306330651612727
 20
-0.1989635610412504
 30
0.0
 10
0.9232763209752263
 20
-0.1989635610412504
 30
0.0
 10
0.9130572512077844
 20
-0.2134686773203202
 30
0.0
 10
0.9116781814403426
 20
-0.2360547238319481
 30
0.0
  0
SPLINE
  5
52
330
A
100
AcDbEntity
  8
1
  6
solid
 62
     7
100
AcDbSpline
210
0.0
220
0.0
230
1.0
 70
     8
 71
     2
 72
     6
 73
     3
 74
     0
 42
0.0000000001
 43
0.0000000001
 40
0.0
 40
0.0
 40
0.0
 40
1.0
 40
1.0
 40
1.0
 10
0.9116781814403426
 20
-0.2360547238319481
 30
0.0
 10
0.9211828326031332
 20
-0.2251263517389249
 30
0.0
 10
0.9346214372542959
 20
-0.2251263517389249
 30
0.0
  0
SPLINE
  5
53
330
A
100
AcDbEntity
  8
1
  6
solid
 62
     7
100
AcDbSpline
210
0.0
220
0.0
230
1.0
 70
     8
 71
     2
 72
     7
 73
     4
 74
     0
 42
0.0000000001
 43
0.0000000001
 40
0.0
 40
0.0
 40
0.0
 40
1.0
 40
2.0
 40
2.0
 40
2.0
 10
0.9346214372542959
 20
-0.2251263517389249
 30
0.0
 10
0.9496921349287148
 20
-0.2251263517389249
 30
0.0
 10
0.9720549256263891
 20
-0.2467500726691574
 30
0.0
 10
0.9720549256263891
 20
-0.2639240261575295
 30
0.0
  0
SPLINE
  5
54
330
A
100
AcDbEntity
  8
1
  6
solid
 62
     7
100
AcDbSpline
210
0.0
220
0.0
230
1.0
 70
     8
 71
     2
 72
     7
 73
     4
 74
     0
 42
0.0000000001
 43
0.0000000001
 40
0.0
 40
0.0
 40
0.0
 40
1.0
 40
2.0
 40
2.0
 40
2.0
 10
0.9720549256263891
 20
-0.2639240261575295
 30
0.0
 10
0.9720549256263891
 20
-0.2817826308086922
 30
0.0
 10
0.94939446051011
 20
-0.3036147238319481
 30
0.0
 10
0.931907948882203
 20
-0.3036147238319481
 30
0.0
  0
SPLINE
  5
55
330
A
100
AcDbEntity
  8
1
  6
solid
 62
     7
100
AcDbSpline
210
0.0
220
0.0
230
1.0
 70
     8
 71
     2
 72
     7
 73
     4
 74
     0
 42
0.0000000001
 43
0.0000000001
 40
0.0
 40
0.0
 40
0.0
 40
1.0
 40
2.0
 40
2.0
 40
2.0
 10
0.931907948882203
 20
-0.3036147238319481
 30
0.0
 10
0.9130870186496448
 20
-0.3036147238319481
 30
0.0
 10
0.8892060884170868
 20
-0.274500305227297
 30
0.0
 10
0.8892060884170868
 20
-0.2417198401110178
 30
0.0
  0
SPLINE
  5
56
330
A
100
AcDbEntity
  8
1
  6
solid
 62
     7
100
AcDbSpline
210
0.0
220
0.0
230
1.0
 70
     8
 71
     2
 72
     7
 73
     4
 74
     0
 42
0.0000000001
 43
0.0000000001
 40
0.0
 40
0.0
 40
0.0
 40
1.0
 40
2.0
 40
2.0
 40
2.0
 10
0.8892060884170868
 20
-0.2417198401110178
 30
0.0
 10
0.8892060884170868
 20
-0.2073868168552039
 30
0.0
 10
0.9141237628356911
 20
-0.1771612354598551
 30
0.0
 10
0.9337335302775519
 20
-0.1771612354598551
 30
0.0
  0
SPLINE
  5
57
330
A
100
AcDbEntity
  8
1
  6
solid
 62
     7
100
AcDbSpline
210
0.0
220
0.0
230
1.0
 70
     8
 71
     2
 72
     7
 73
     4
 74
     0
 42
0.0000000001
 43
0.0000000001
 40
0.0
 40
0.0
 40
0.0
 40
1.0
 40
2.0
 40
2.0
 40
2.0
 10
0.9337335302775519
 20
-0.1771612354598551
 30
0.0
 10
0.9479260884170868
 20
-0.1771612354598551
 30
0.0
 10
0.966493995393831
 20
-0.1944840261575295
 30
0.0
 10
0.9691479488822032
 20
-0.2112561191807853
 30
0.0
  0
SPLINE
  5
58
330
A
100
AcDbEntity
  8
1
  6
solid
 62
     7
100
AcDbSpline
210
0.0
220
0.0
230
1.0
 70
     8
 71
     2
 72
     7
 73
     4
 74
     0
 42
0.0000000001
 43
0.0000000001
 40
0.0
 40
0.0
 40
0.0
 40
1.0
 40
2.0
 40
2.0
 40
2.0
 10
0.9139153907426679
 20
-0.2636263517389248
 30
0.0
 10
0.9139153907426679
 20
-0.2724663517389248
 30
0.0
 10
0.9245214372542958
 20
-0.2818123982505527
 30
0.0
 10
0.9315805070217379
 20
-0.2818123982505527
 30
0.0
  0
SPLINE
  5
59
330
A
100
AcDbEntity
  8
1
  6
solid
 62
     7
100
AcDbSpline
210
0.0
220
0.0
230
1.0
 70
     8
 71
     2
 72
     7
 73
     4
 74
     0
 42
0.0000000001
 43
0.0000000001
 40
0.0
 40
0.0
 40
0.0
 40
1.0
 40
2.0
 40
2.0
 40
2.0
 10
0.9315805070217379
 20
-0.2818123982505527
 30
0.0
 10
0.9379749256263892
 20
-0.2818123982505527
 30
0.0
 10
0.9473456233008075
 20
-0.2741133284831108
 30
0.0
 10
0.9473456233008075
 20
-0.2651840261575295
 30
0.0
  0
SPLINE
  5
5A
330
A
100
AcDbEntity
  8
1
  6
solid
 62
     7
100
AcDbSpline
210
0.0
220
0.0
230
1.0
 70
     8
 71
     2
 72
     7
 73
     4
 74
     0
 42
0.0000000001
 43
0.0000000001
 40
0.0
 40
0.0
 40
0.0
 40
1.0
 40
2.0
 40
2.0
 40
2.0
 10
0.9473456233008075
 20
-0.2651840261575295
 30
0.0
 10
0.9473456233008075
 20
-0.2555900726691574
 30
0.0
 10
0.9375284139984822
 20
-0.2469286773203202
 30
0.0
 10
0.9302907395798774
 20
-0.2469286773203202
 30
0.0
  0
SPLINE
  5
5B
330
A
100
AcDbEntity
  8
1
  6
solid
 62
     7
100
AcDbSpline
210
0.0
220
0.0
230
1.0
 70
     8
 71
     2
 72
     7
 73
     4
 74
     0
 42
0.0000000001
 43
0.0000000001
 40
0.0
 40
0.0
 40
0.0
 40
1.0
 40
2.0
 40
2.0
 40
2.0
 10
0.9302907395798774
 20
-0.2469286773203202
 30
0.0
 10
0.9232316698124357
 20
-0.2469286773203202
 30
0.0
 10
0.9139153907426679
 20
-0.2553370494133435
 30
0.0
 10
0.9139153907426679
 20
-0.2636263517389248
 30
0.0
  0
LINE
  5
5C
330
A
100
AcDbEntity
  8
1
  6
solid
 62
     7
100
AcDbLine
 10
1.022185
 20
-0.302161
 30
0.0
 11
1.065312999999999
 21
-0.236471
 31
0.0
  0
LINE
  5
5D
330
A
100
AcDbEntity
  8
1
  6
solid
 62
     7
100
AcDbLine
 10
1.065312999999999
 20
-0.236471
 30
0.0
 11
1.026545
 21
-0.177161
 31
0.0
  0
LINE
  5
5E
330
A
100
AcDbEntity
  8
1
  6
solid
 62
     7
100
AcDbLine
 10
1.026545
 20
-0.177161
 30
0.0
 11
1.0556
 21
-0.177161
 31
0.0
  0
LINE
  5
5F
330
A
100
AcDbEntity
  8
1
  6
solid
 62
     7
100
AcDbLine
 10
1.0556
 20
-0.177161
 30
0.0
 11
1.079847999999999
 21
-0.214327
 31
0.0
  0
LINE
  5
60
330
A
100
AcDbEntity
  8
1
  6
solid
 62
     7
100
AcDbLine
 10
1.079847999999999
 20
-0.214327
 30
0.0
 11
1.10358
 21
-0.177161
 31
0.0
  0
LINE
  5
61
330
A
100
AcDbEntity
  8
1
  6
solid
 62
     7
100
AcDbLine
 10
1.10358
 20
-0.177161
 30
0.0
 11
1.132649999999999
 21
-0.177161
 31
0.0
  0
LINE
  5
62
330
A
100
AcDbEntity
  8
1
  6
solid
 62
     7
100
AcDbLine
 10
1.132649999999999
 20
-0.177161
 30
0.0
 11
1.094382999999999
 21
-0.236471
 31
0.0
  0
LINE
  5
63
330
A
100
AcDbEntity
  8
1
  6
solid
 62
     7
100
AcDbLine
 10
1.094382999999999
 20
-0.236471
 30
0.0
 11
1.13701
 21
-0.302161
 31
0.0
  0
LINE
  5
64
330
A
100
AcDbEntity
  8
1
  6
solid
 62
     7
100
AcDbLine
 10
1.13701
 20
-0.302161
 30
0.0
 11
1.107941
 21
-0.302161
 31
0.0
  0
LINE
  5
65
330
A
100
AcDbEntity
  8
1
  6
solid
 62
     7
100
AcDbLine
 10
1.107941
 20
-0.302161
 30
0.0
 11
1.079847999999999
 21
-0.259102
 31
0.0
  0
LINE
  5
66
330
A
100
AcDbEntity
  8
1
  6
solid
 62
     7
100
AcDbLine
 10
1.079847999999999
 20
-0.259102
 30
0.0
 11
1.051239999999999
 21
-0.302161
 31
0.0
  0
LINE
  5
67
330
A
100
AcDbEntity
  8
1
  6
solid
 62
     7
100
AcDbLine
 10
1.022185
 20
-0.302161
 30
0.0
 11
1.051239999999999
 21
-0.302161
 31
0.0
  0
LINE
  5
68
330
A
100
AcDbEntity
  8
1
  6
solid
 62
     7
100
AcDbLine
 10
1.187640999999999
 20
-0.26566
 30
0.0
 11
1.209443
 21
-0.262917
 31
0.0
  0
SPLINE
  5
69
330
A
100
AcDbEntity
  8
1
  6
solid
 62
     7
100
AcDbSpline
210
0.0
220
0.0
230
1.0
 70
     8
 71
     2
 72
     7
 73
     4
 74
     0
 42
0.0000000001
 43
0.0000000001
 40
0.0
 40
0.0
 40
0.0
 40
1.0
 40
2.0
 40
2.0
 40
2.0
 10
1.209443297719412
 20
-0.2629170494133434
 30
0.0
 10
1.210157716324063
 20
-0.2716379796459016
 30
0.0
 10
1.221175390742667
 20
-0.2818123982505527
 30
0.0
 10
1.227748413998482
 20
-0.2818123982505527
 30
0.0
  0
SPLINE
  5
6A
330
A
100
AcDbEntity
  8
1
  6
solid
 62
     7
100
AcDbSpline
210
0.0
220
0.0
230
1.0
 70
     8
 71
     2
 72
     7
 73
     4
 74
     0
 42
0.0000000001
 43
0.0000000001
 40
0.0
 40
0.0
 40
0.0
 40
1.0
 40
2.0
 40
2.0
 40
2.0
 10
1.227748413998482
 20
-0.2818123982505527
 30
0.0
 10
1.235978181440342
 20
-0.2818123982505527
 30
0.0
 10
1.24723399539383
 20
-0.2721984447621806
 30
0.0
 10
1.24723399539383
 20
-0.26205379359939
 30
0.0
  0
SPLINE
  5
6B
330
A
100
AcDbEntity
  8
1
  6
solid
 62
     7
100
AcDbSpline
210
0.0
220
0.0
230
1.0
 70
     8
 71
     2
 72
     7
 73
     4
 74
     0
 42
0.0000000001
 43
0.0000000001
 40
0.0
 40
0.0
 40
0.0
 40
1.0
 40
2.0
 40
2.0
 40
2.0
 10
1.24723399539383
 20
-0.26205379359939
 30
0.0
 10
1.24723399539383
 20
-0.2523110029017155
 30
0.0
 10
1.237282832603133
 20
-0.2425682122040411
 30
0.0
 10
1.229112600044992
 20
-0.2425682122040411
 30
0.0
  0
SPLINE
  5
6C
330
A
100
AcDbEntity
  8
1
  6
solid
 62
     7
100
AcDbSpline
210
0.0
220
0.0
230
1.0
 70
     8
 71
     2
 72
     6
 73
     3
 74
     0
 42
0.0000000001
 43
0.0000000001
 40
0.0
 40
0.0
 40
0.0
 40
1.0
 40
1.0
 40
1.0
 10
1.229112600044992
 20
-0.2425682122040411
 30
0.0
 10
1.219662367486854
 20
-0.2425682122040411
 30
0.0
 10
1.211551669812434
 20
-0.2512891424365993
 30
0.0
  0
LINE
  5
6D
330
A
100
AcDbEntity
  8
1
  6
solid
 62
     7
100
AcDbLine
 10
1.211551999999999
 20
-0.251289
 30
0.0
 11
1.190547999999999
 21
-0.249032
 31
0.0
  0
LINE
  5
6E
330
A
100
AcDbEntity
  8
1
  6
solid
 62
     7
100
AcDbLine
 10
1.190547999999999
 20
-0.249032
 30
0.0
 11
1.205082999999999
 21
-0.178615
 31
0.0
  0
LINE
  5
6F
330
A
100
AcDbEntity
  8
1
  6
solid
 62
     7
100
AcDbLine
 10
1.205082999999999
 20
-0.178615
 30
0.0
 11
1.266129
 21
-0.178615
 31
0.0
  0
LINE
  5
70
330
A
100
AcDbEntity
  8
1
  6
solid
 62
     7
100
AcDbLine
 10
1.266129
 20
-0.178615
 30
0.0
 11
1.266129
 21
-0.203324
 31
0.0
  0
LINE
  5
71
330
A
100
AcDbEntity
  8
1
  6
solid
 62
     7
100
AcDbLine
 10
1.266129
 20
-0.203324
 30
0.0
 11
1.224558999999999
 21
-0.203324
 31
0.0
  0
LINE
  5
72
330
A
100
AcDbEntity
  8
1
  6
solid
 62
     7
100
AcDbLine
 10
1.224558999999999
 20
-0.203324
 30
0.0
 11
1.219781
 21
-0.226074
 31
0.0
  0
SPLINE
  5
73
330
A
100
AcDbEntity
  8
1
  6
solid
 62
     7
100
AcDbSpline
210
0.0
220
0.0
230
1.0
 70
     8
 71
     2
 72
     6
 73
     3
 74
     0
 42
0.0000000001
 43
0.0000000001
 40
0.0
 40
0.0
 40
0.0
 40
1.0
 40
1.0
 40
1.0
 10
1.219781437254294
 20
-0.2260737935993899
 30
0.0
 10
1.227301902370574
 20
-0.2207658866226458
 30
0.0
 10
1.235045623300806
 20
-0.2207658866226458
 30
0.0
  0
SPLINE
  5
74
330
A
100
AcDbEntity
  8
1
  6
solid
 62
     7
100
AcDbSpline
210
0.0
220
0.0
230
1.0
 70
     8
 71
     2
 72
     7
 73
     4
 74
     0
 42
0.0000000001
 43
0.0000000001
 40
0.0
 40
0.0
 40
0.0
 40
1.0
 40
2.0
 40
2.0
 40
2.0
 10
1.235045623300806
 20
-0.2207658866226458
 30
0.0
 10
1.250542832603132
 20
-0.2207658866226458
 30
0.0
 10
1.271943297719412
 20
-0.2434561191807853
 30
0.0
 10
1.271943297719412
 20
-0.261180770343576
 30
0.0
  0
SPLINE
  5
75
330
A
100
AcDbEntity
  8
1
  6
solid
 62
     7
100
AcDbSpline
210
0.0
220
0.0
230
1.0
 70
     8
 71
     2
 72
     6
 73
     3
 74
     0
 42
0.0000000001
 43
0.0000000001
 40
0.0
 40
0.0
 40
0.0
 40
1.0
 40
1.0
 40
1.0
 10
1.271943297719412
 20
-0.261180770343576
 30
0.0
 10
1.271943297719412
 20
-0.2759686773203202
 30
0.0
 10
1.262557716324063
 20
-0.2881421656924132
 30
0.0
  0
SPLINE
  5
76
330
A
100
AcDbEntity
  8
1
  6
solid
 62
     7
100
AcDbSpline
210
0.0
220
0.0
230
1.0
 70
     8
 71
     2
 72
     6
 73
     3
 74
     0
 42
0.0000000001
 43
0.0000000001
 40
0.0
 40
0.0
 40
0.0
 40
1.0
 40
1.0
 40
1.0
 10
1.262557716324063
 20
-0.2881421656924132
 30
0.0
 10
1.250527948882202
 20
-0.3036147238319481
 30
0.0
 10
1.228785158184527
 20
-0.3036147238319481
 30
0.0
  0
SPLINE
  5
77
330
A
100
AcDbEntity
  8
1
  6
solid
 62
     7
100
AcDbSpline
210
0.0
220
0.0
230
1.0
 70
     8
 71
     2
 72
     7
 73
     4
 74
     0
 42
0.0000000001
 43
0.0000000001
 40
0.0
 40
0.0
 40
0.0
 40
1.0
 40
2.0
 40
2.0
 40
2.0
 10
1.228785158184527
 20
-0.3036147238319481
 30
0.0
 10
1.211402832603132
 20
-0.3036147238319481
 30
0.0
 10
1.189540972138015
 20
-0.283087281971483
 30
0.0
 10
1.187640972138015
 20
-0.265660305227297
 30
0.0
  0
LINE
  5
78
330
A
100
AcDbEntity
  8
1
  6
solid
 62
     7
100
AcDbLine
 10
1.296043
 20
-0.268731
 30
0.0
 11
1.296043
 21
-0.246929
 31
0.0
  0
LINE
  5
79
330
A
100
AcDbEntity
  8
1
  6
solid
 62
     7
100
AcDbLine
 10
1.296043
 20
-0.246929
 30
0.0
 11
1.344008
 21
-0.246929
 31
0.0
  0
LINE
  5
7A
330
A
100
AcDbEntity
  8
1
  6
solid
 62
     7
100
AcDbLine
 10
1.344008
 20
-0.246929
 30
0.0
 11
1.344008
 21
-0.268731
 31
0.0
  0
LINE
  5
7B
330
A
100
AcDbEntity
  8
1
  6
solid
 62
     7
100
AcDbLine
 10
1.296043
 20
-0.268731
 30
0.0
 11
1.344008
 21
-0.268731
 31
0.0
  0
LINE
  5
7C
330
A
100
AcDbEntity
  8
1
  6
solid
 62
     7
100
AcDbLine
 10
1.423340999999999
 20
-0.302161
 30
0.0
 11
1.398631999999999
 21
-0.302161
 31
0.0
  0
LINE
  5
7D
330
A
100
AcDbEntity
  8
1
  6
solid
 62
     7
100
AcDbLine
 10
1.398631999999999
 20
-0.302161
 30
0.0
 11
1.398631999999999
 21
-0.213305
 31
0.0
  0
SPLINE
  5
7E
330
A
100
AcDbEntity
  8
1
  6
solid
 62
     7
100
AcDbSpline
210
0.0
220
0.0
230
1.0
 70
     8
 71
     2
 72
     6
 73
     3
 74
     0
 42
0.0000000001
 43
0.0000000001
 40
0.0
 40
0.0
 40
0.0
 40
1.0
 40
1.0
 40
1.0
 10
1.398631669812434
 20
-0.2133049563900876
 30
0.0
 10
1.385639576789178
 20
-0.227467747087762
 30
0.0
 10
1.36810841399848
 20
-0.233847281971483
 30
0.0
  0
LINE
  5
7F
330
A
100
AcDbEntity
  8
1
  6
solid
 62
     7
100
AcDbLine
 10
1.368108
 20
-0.233847
 30
0.0
 11
1.368108
 21
-0.209138
 31
0.0
  0
SPLINE
  5
80
330
A
100
AcDbEntity
  8
1
  6
solid
 62
     7
100
AcDbSpline
210
0.0
220
0.0
230
1.0
 70
     8
 71
     2
 72
     7
 73
     4
 74
     0
 42
0.0000000001
 43
0.0000000001
 40
0.0
 40
0.0
 40
0.0
 40
1.0
 40
2.0
 40
2.0
 40
2.0
 10
1.36810841399848
 20
-0.2091379796459016
 30
0.0
 10
1.377290739579877
 20
-0.2060970494133434
 30
0.0
 10
1.399316320975225
 20
-0.1887444912738085
 30
0.0
 10
1.403513065161271
 20
-0.1771612354598551
 30
0.0
  0
LINE
  5
81
330
A
100
AcDbEntity
  8
1
  6
solid
 62
     7
100
AcDbLine
 10
1.403513
 20
-0.177161
 30
0.0
 11
1.423340999999999
 21
-0.177161
 31
0.0
  0
LINE
  5
82
330
A
100
AcDbEntity
  8
1
  6
solid
 62
     7
100
AcDbLine
 10
1.423340999999999
 20
-0.302161
 30
0.0
 11
1.423340999999999
 21
-0.177161
 31
0.0
  0
LINE
  5
83
330
A
100
AcDbEntity
  8
1
  6
solid
 62
     7
100
AcDbLine
 10
1.446612999999999
 20
-0.302161
 30
0.0
 11
1.475697
 21
-0.177161
 31
0.0
  0
LINE
  5
84
330
A
100
AcDbEntity
  8
1
  6
solid
 62
     7
100
AcDbLine
 10
1.475697
 20
-0.177161
 30
0.0
 11
1.495406
 21
-0.177161
 31
0.0
  0
LINE
  5
85
330
A
100
AcDbEntity
  8
1
  6
solid
 62
     7
100
AcDbLine
 10
1.495406
 20
-0.177161
 30
0.0
 11
1.466336
 21
-0.302161
 31
0.0
  0
LINE
  5
86
330
A
100
AcDbEntity
  8
1
  6
solid
 62
     7
100
AcDbLine
 10
1.446612999999999
 20
-0.302161
 30
0.0
 11
1.466336
 21
-0.302161
 31
0.0
  0
LINE
  5
87
330
A
100
AcDbEntity
  8
1
  6
solid
 62
     7
100
AcDbLine
 10
1.568924999999999
 20
-0.302161
 30
0.0
 11
1.568924999999999
 21
-0.277452
 31
0.0
  0
LINE
  5
88
330
A
100
AcDbEntity
  8
1
  6
solid
 62
     7
100
AcDbLine
 10
1.568924999999999
 20
-0.277452
 30
0.0
 11
1.519505999999999
 21
-0.277452
 31
0.0
  0
LINE
  5
89
330
A
100
AcDbEntity
  8
1
  6
solid
 62
     7
100
AcDbLine
 10
1.519505999999999
 20
-0.277452
 30
0.0
 11
1.519505999999999
 21
-0.257664
 31
0.0
  0
LINE
  5
8A
330
A
100
AcDbEntity
  8
1
  6
solid
 62
     7
100
AcDbLine
 10
1.519505999999999
 20
-0.257664
 30
0.0
 11
1.57207
 21
-0.178615
 31
0.0
  0
LINE
  5
8B
330
A
100
AcDbEntity
  8
1
  6
solid
 62
     7
100
AcDbLine
 10
1.57207
 20
-0.178615
 30
0.0
 11
1.593633999999999
 21
-0.178615
 31
0.0
  0
LINE
  5
8C
330
A
100
AcDbEntity
  8
1
  6
solid
 62
     7
100
AcDbLine
 10
1.593633999999999
 20
-0.178615
 30
0.0
 11
1.593633999999999
 21
-0.257103
 31
0.0
  0
LINE
  5
8D
330
A
100
AcDbEntity
  8
1
  6
solid
 62
     7
100
AcDbLine
 10
1.593633999999999
 20
-0.257103
 30
0.0
 11
1.609621999999999
 21
-0.257103
 31
0.0
  0
LINE
  5
8E
330
A
100
AcDbEntity
  8
1
  6
solid
 62
     7
100
AcDbLine
 10
1.609621999999999
 20
-0.257103
 30
0.0
 11
1.609621999999999
 21
-0.277452
 31
0.0
  0
LINE
  5
8F
330
A
100
AcDbEntity
  8
1
  6
solid
 62
     7
100
AcDbLine
 10
1.609621999999999
 20
-0.277452
 30
0.0
 11
1.593633999999999
 21
-0.277452
 31
0.0
  0
LINE
  5
90
330
A
100
AcDbEntity
  8
1
  6
solid
 62
     7
100
AcDbLine
 10
1.593633999999999
 20
-0.277452
 30
0.0
 11
1.593633999999999
 21
-0.302161
 31
0.0
  0
LINE
  5
91
330
A
100
AcDbEntity
  8
1
  6
solid
 62
     7
100
AcDbLine
 10
1.568924999999999
 20
-0.302161
 30
0.0
 11
1.593633999999999
 21
-0.302161
 31
0.0
  0
LINE
  5
92
330
A
100
AcDbEntity
  8
1
  6
solid
 62
     7
100
AcDbLine
 10
1.568924999999999
 20
-0.257103
 30
0.0
 11
1.568924999999999
 21
-0.217278
 31
0.0
  0
LINE
  5
93
330
A
100
AcDbEntity
  8
1
  6
solid
 62
     7
100
AcDbLine
 10
1.568924999999999
 20
-0.217278
 30
0.0
 11
1.54177
 21
-0.257103
 31
0.0
  0
LINE
  5
94
330
A
100
AcDbEntity
  8
1
  6
solid
 62
     7
100
AcDbLine
 10
1.568924999999999
 20
-0.257103
 30
0.0
 11
1.54177
 21
-0.257103
 31
0.0
  0
LINE
  5
AC
330
A
100
AcDbEntity
  8
0
  6
solid
 62
     7
100
AcDbLine
 10
2.681670999999999
 20
4.206351999999999
 30
0.0
 11
2.681670999999999
 21
4.209824
 31
0.0
  0
SPLINE
  5
AD
330
A
100
AcDbEntity
  8
0
  6
solid
 62
     7
100
AcDbSpline
210
0.0
220
0.0
230
1.0
 70
     8
 71
     2
 72
     6
 73
     3
 74
     0
 42
0.0000000001
 43
0.0000000001
 40
0.0
 40
0.0
 40
0.0
 40
1.0
 40
1.0
 40
1.0
 10
2.681671075777042
 20
4.20982414280193
 30
0.0
 10
2.68929885355482
 20
4.20982414280193
 30
0.0
 10
2.692676260962227
 20
4.213308216876004
 30
0.0
  0
SPLINE
  5
AE
330
A
100
AcDbEntity
  8
0
  6
solid
 62
     7
100
AcDbSpline
210
0.0
220
0.0
230
1.0
 70
     8
 71
     2
 72
     7
 73
     4
 74
     0
 42
0.0000000001
 43
0.0000000001
 40
0.0
 40
0.0
 40
0.0
 40
1.0
 40
2.0
 40
2.0
 40
2.0
 10
2.692676260962227
 20
4.213308216876004
 30
0.0
 10
2.694284038740004
 20
4.214975253913041
 30
0.0
 10
2.69602996466593
 20
4.22149303169082
 30
0.0
 10
2.69602996466593
 20
4.227896365024152
 30
0.0
  0
LINE
  5
AF
330
A
100
AcDbEntity
  8
0
  6
solid
 62
     7
100
AcDbLine
 10
2.696029999999999
 20
4.227896
 30
0.0
 11
2.696029999999999
 21
4.278110999999999
 31
0.0
  0
SPLINE
  5
B0
330
A
100
AcDbEntity
  8
0
  6
solid
 62
     7
100
AcDbSpline
210
0.0
220
0.0
230
1.0
 70
     8
 71
     2
 72
     7
 73
     4
 74
     0
 42
0.0000000001
 43
0.0000000001
 40
0.0
 40
0.0
 40
0.0
 40
1.0
 40
2.0
 40
2.0
 40
2.0
 10
2.69602996466593
 20
4.278111179838967
 30
0.0
 10
2.69602996466593
 20
4.285055624283412
 30
0.0
 10
2.694212927628893
 20
4.291269327987116
 30
0.0
 10
2.692087742443708
 20
4.293335253913041
 30
0.0
  0
SPLINE
  5
B1
330
A
100
AcDbEntity
  8
0
  6
solid
 62
     7
100
AcDbSpline
210
0.0
220
0.0
230
1.0
 70
     8
 71
     2
 72
     7
 73
     4
 74
     0
 42
0.0000000001
 43
0.0000000001
 40
0.0
 40
0.0
 40
0.0
 40
1.0
 40
2.0
 40
2.0
 40
2.0
 10
2.692087742443708
 20
4.293335253913041
 30
0.0
 10
2.690586631332597
 20
4.294765253913041
 30
0.0
 10
2.686205890591856
 20
4.296147846505633
 30
0.0
 10
2.681671075777042
 20
4.296653402061189
 30
0.0
  0
LINE
  5
B2
330
A
100
AcDbEntity
  8
0
  6
solid
 62
     7
100
AcDbLine
 10
2.681670999999999
 20
4.296653
 30
0.0
 11
2.681670999999999
 21
4.300101999999999
 31
0.0
  0
LINE
  5
B3
330
A
100
AcDbEntity
  8
0
  6
solid
 62
     7
100
AcDbLine
 10
2.681670999999999
 20
4.300101999999999
 30
0.0
 11
2.72747
 21
4.300101999999999
 31
0.0
  0
LINE
  5
B4
330
A
100
AcDbEntity
  8
0
  6
solid
 62
     7
100
AcDbLine
 10
2.72747
 20
4.300101999999999
 30
0.0
 11
2.72747
 21
4.296712999999999
 31
0.0
  0
SPLINE
  5
B5
330
A
100
AcDbEntity
  8
0
  6
solid
 62
     7
100
AcDbSpline
210
0.0
220
0.0
230
1.0
 70
     8
 71
     2
 72
     7
 73
     4
 74
     0
 42
0.0000000001
 43
0.0000000001
 40
0.0
 40
0.0
 40
0.0
 40
1.0
 40
2.0
 40
2.0
 40
2.0
 10
2.72746959429556
 20
4.296712661320448
 30
0.0
 10
2.721967001702967
 20
4.296124142801929
 30
0.0
 10
2.718293297999264
 20
4.294871920579708
 30
0.0
 10
2.716286631332597
 20
4.293287846505633
 30
0.0
  0
SPLINE
  5
B6
330
A
100
AcDbEntity
  8
0
  6
solid
 62
     7
100
AcDbSpline
210
0.0
220
0.0
230
1.0
 70
     8
 71
     2
 72
     7
 73
     4
 74
     0
 42
0.0000000001
 43
0.0000000001
 40
0.0
 40
0.0
 40
0.0
 40
1.0
 40
2.0
 40
2.0
 40
2.0
 10
2.716286631332597
 20
4.293287846505633
 30
0.0
 10
2.714821075777042
 20
4.291447105764893
 30
0.0
 10
2.713391075777042
 20
4.285114883542671
 30
0.0
 10
2.713391075777042
 20
4.277641179838967
 30
0.0
  0
LINE
  5
B7
330
A
100
AcDbEntity
  8
0
  6
solid
 62
     7
100
AcDbLine
 10
2.713391
 20
4.277641
 30
0.0
 11
2.713391
 21
4.238770999999999
 31
0.0
  0
SPLINE
  5
B8
330
A
100
AcDbEntity
  8
0
  6
solid
 62
     7
100
AcDbSpline
210
0.0
220
0.0
230
1.0
 70
     8
 71
     2
 72
     7
 73
     4
 74
     0
 42
0.0000000001
 43
0.0000000001
 40
0.0
 40
0.0
 40
0.0
 40
1.0
 40
2.0
 40
2.0
 40
2.0
 10
2.713391075777042
 20
4.238771179838967
 30
0.0
 10
2.713391075777042
 20
4.229500068727856
 30
0.0
 10
2.713995520221486
 20
4.220679327987115
 30
0.0
 10
2.71512922392519
 20
4.2183645131723
 30
0.0
  0
SPLINE
  5
B9
330
A
100
AcDbEntity
  8
0
  6
solid
 62
     7
100
AcDbSpline
210
0.0
220
0.0
230
1.0
 70
     8
 71
     2
 72
     7
 73
     4
 74
     0
 42
0.0000000001
 43
0.0000000001
 40
0.0
 40
0.0
 40
0.0
 40
1.0
 40
2.0
 40
2.0
 40
2.0
 10
2.71512922392519
 20
4.2183645131723
 30
0.0
 10
2.717455890591856
 20
4.213592661320448
 30
0.0
 10
2.7255103350363
 20
4.20982414280193
 30
0.0
 10
2.732466631332597
 20
4.20982414280193
 30
0.0
  0
SPLINE
  5
BA
330
A
100
AcDbEntity
  8
0
  6
solid
 62
     7
100
AcDbSpline
210
0.0
220
0.0
230
1.0
 70
     8
 71
     2
 72
     7
 73
     4
 74
     0
 42
0.0000000001
 43
0.0000000001
 40
0.0
 40
0.0
 40
0.0
 40
1.0
 40
2.0
 40
2.0
 40
2.0
 10
2.732466631332597
 20
4.20982414280193
 30
0.0
 10
2.740390705406671
 20
4.20982414280193
 30
0.0
 10
2.750842927628893
 20
4.213687476135263
 30
0.0
 10
2.754220335036301
 20
4.218068216876004
 30
0.0
  0
SPLINE
  5
BB
330
A
100
AcDbEntity
  8
0
  6
solid
 62
     7
100
AcDbSpline
210
0.0
220
0.0
230
1.0
 70
     8
 71
     2
 72
     7
 73
     4
 74
     0
 42
0.0000000001
 43
0.0000000001
 40
0.0
 40
0.0
 40
0.0
 40
1.0
 40
2.0
 40
2.0
 40
2.0
 10
2.754220335036301
 20
4.218068216876004
 30
0.0
 10
2.756499594295561
 20
4.22077414280193
 30
0.0
 10
2.75922922392519
 20
4.228473031690819
 30
0.0
 10
2.760987001702968
 20
4.235571550209337
 30
0.0
  0
LINE
  5
BC
330
A
100
AcDbEntity
  8
0
  6
solid
 62
     7
100
AcDbLine
 10
2.760987
 20
4.235572
 30
0.0
 11
2.765474
 21
4.235323
 31
0.0
  0
LINE
  5
BD
330
A
100
AcDbEntity
  8
0
  6
solid
 62
     7
100
AcDbLine
 10
2.765474
 20
4.235323
 30
0.0
 11
2.765474
 21
4.206351999999999
 31
0.0
  0
LINE
  5
BE
330
A
100
AcDbEntity
  8
0
  6
solid
 62
     7
100
AcDbLine
 10
2.681670999999999
 20
4.206351999999999
 30
0.0
 11
2.765474
 21
4.206351999999999
 31
0.0
  0
SPLINE
  5
BF
330
A
100
AcDbEntity
  8
0
  6
solid
 62
     7
100
AcDbSpline
210
0.0
220
0.0
230
1.0
 70
     8
 71
     2
 72
     7
 73
     4
 74
     0
 42
0.0000000001
 43
0.0000000001
 40
0.0
 40
0.0
 40
0.0
 40
1.0
 40
2.0
 40
2.0
 40
2.0
 10
2.776814409110375
 20
4.209377846505633
 30
0.0
 10
2.781937742443708
 20
4.209930809468596
 30
0.0
 10
2.78591959429556
 20
4.2113845131723
 30
0.0
 10
2.78781959429556
 20
4.213343772431559
 30
0.0
  0
SPLINE
  5
C0
330
A
100
AcDbEntity
  8
0
  6
solid
 62
     7
100
AcDbSpline
210
0.0
220
0.0
230
1.0
 70
     8
 71
     2
 72
     7
 73
     4
 74
     0
 42
0.0000000001
 43
0.0000000001
 40
0.0
 40
0.0
 40
0.0
 40
1.0
 40
2.0
 40
2.0
 40
2.0
 10
2.78781959429556
 20
4.213343772431559
 30
0.0
 10
2.789427372073338
 20
4.215022661320448
 30
0.0
 10
2.791173297999264
 20
4.221528587246375
 30
0.0
 10
2.791173297999264
 20
4.227931920579708
 30
0.0
  0
LINE
  5
C1
330
A
100
AcDbEntity
  8
0
  6
solid
 62
     7
100
AcDbLine
 10
2.791173
 20
4.227932
 30
0.0
 11
2.791173
 21
4.278122999999999
 31
0.0
  0
SPLINE
  5
C2
330
A
100
AcDbEntity
  8
0
  6
solid
 62
     7
100
AcDbSpline
210
0.0
220
0.0
230
1.0
 70
     8
 71
     2
 72
     7
 73
     4
 74
     0
 42
0.0000000001
 43
0.0000000001
 40
0.0
 40
0.0
 40
0.0
 40
1.0
 40
2.0
 40
2.0
 40
2.0
 10
2.791173297999264
 20
4.278123031690819
 30
0.0
 10
2.791173297999264
 20
4.285280809468597
 30
0.0
 10
2.789285149851115
 20
4.291470809468596
 30
0.0
 10
2.786958483184448
 20
4.293572290950078
 30
0.0
  0
SPLINE
  5
C3
330
A
100
AcDbEntity
  8
0
  6
solid
 62
     7
100
AcDbSpline
210
0.0
220
0.0
230
1.0
 70
     8
 71
     2
 72
     6
 73
     3
 74
     0
 42
0.0000000001
 43
0.0000000001
 40
0.0
 40
0.0
 40
0.0
 40
1.0
 40
1.0
 40
1.0
 10
2.786958483184448
 20
4.293572290950078
 30
0.0
 10
2.783818112814078
 20
4.296017476135263
 30
0.0
 10
2.776814409110375
 20
4.296665253913041
 30
0.0
  0
LINE
  5
C4
330
A
100
AcDbEntity
  8
0
  6
solid
 62
     7
100
AcDbLine
 10
2.776813999999999
 20
4.296664999999999
 30
0.0
 11
2.776813999999999
 21
4.300101999999999
 31
0.0
  0
LINE
  5
C5
330
A
100
AcDbEntity
  8
0
  6
solid
 62
     7
100
AcDbLine
 10
2.776813999999999
 20
4.300101999999999
 30
0.0
 11
2.814617999999999
 21
4.300101999999999
 31
0.0
  0
SPLINE
  5
C6
330
A
100
AcDbEntity
  8
0
  6
solid
 62
     7
100
AcDbSpline
210
0.0
220
0.0
230
1.0
 70
     8
 71
     2
 72
     6
 73
     3
 74
     0
 42
0.0000000001
 43
0.0000000001
 40
0.0
 40
0.0
 40
0.0
 40
1.0
 40
1.0
 40
1.0
 10
2.814617742443708
 20
4.300101920579708
 30
0.0
 10
2.826594779480745
 20
4.299691179838967
 30
0.0
 10
2.829995890591856
 20
4.299513402061189
 30
0.0
  0
SPLINE
  5
C7
330
A
100
AcDbEntity
  8
0
  6
solid
 62
     7
100
AcDbSpline
210
0.0
220
0.0
230
1.0
 70
     8
 71
     2
 72
     6
 73
     3
 74
     0
 42
0.0000000001
 43
0.0000000001
 40
0.0
 40
0.0
 40
0.0
 40
1.0
 40
1.0
 40
1.0
 10
2.829995890591856
 20
4.299513402061189
 30
0.0
 10
2.844959223925189
 20
4.298367846505633
 30
0.0
 10
2.855032186888153
 20
4.291316735394523
 30
0.0
  0
SPLINE
  5
C8
330
A
100
AcDbEntity
  8
0
  6
solid
 62
     7
100
AcDbSpline
210
0.0
220
0.0
230
1.0
 70
     8
 71
     2
 72
     7
 73
     4
 74
     0
 42
0.0000000001
 43
0.0000000001
 40
0.0
 40
0.0
 40
0.0
 40
1.0
 40
2.0
 40
2.0
 40
2.0
 10
2.855032186888153
 20
4.291316735394523
 30
0.0
 10
2.864801075777041
 20
4.2841945131723
 30
0.0
 10
2.875664038740004
 20
4.262274883542671
 30
0.0
 10
2.875664038740004
 20
4.2496145131723
 30
0.0
  0
SPLINE
  5
C9
330
A
100
AcDbEntity
  8
0
  6
solid
 62
     7
100
AcDbSpline
210
0.0
220
0.0
230
1.0
 70
     8
 71
     2
 72
     7
 73
     4
 74
     0
 42
0.0000000001
 43
0.0000000001
 40
0.0
 40
0.0
 40
0.0
 40
1.0
 40
2.0
 40
2.0
 40
2.0
 10
2.875664038740004
 20
4.2496145131723
 30
0.0
 10
2.875664038740004
 20
4.240367105764893
 30
0.0
 10
2.869371446147411
 20
4.223878957616745
 30
0.0
 10
2.863584409110375
 20
4.217937846505634
 30
0.0
  0
SPLINE
  5
CA
330
A
100
AcDbEntity
  8
0
  6
solid
 62
     7
100
AcDbSpline
210
0.0
220
0.0
230
1.0
 70
     8
 71
     2
 72
     6
 73
     3
 74
     0
 42
0.0000000001
 43
0.0000000001
 40
0.0
 40
0.0
 40
0.0
 40
1.0
 40
1.0
 40
1.0
 10
2.863584409110375
 20
4.217937846505634
 30
0.0
 10
2.85631996466593
 20
4.210073031690819
 30
0.0
 10
2.84397959429556
 20
4.207770068727856
 30
0.0
  0
SPLINE
  5
CB
330
A
100
AcDbEntity
  8
0
  6
solid
 62
     7
100
AcDbSpline
210
0.0
220
0.0
230
1.0
 70
     8
 71
     2
 72
     6
 73
     3
 74
     0
 42
0.0000000001
 43
0.0000000001
 40
0.0
 40
0.0
 40
0.0
 40
1.0
 40
1.0
 40
1.0
 10
2.84397959429556
 20
4.207770068727856
 30
0.0
 10
2.835747372073337
 20
4.206351920579708
 30
0.0
 10
2.827183297999264
 20
4.206351920579708
 30
0.0
  0
LINE
  5
CC
330
A
100
AcDbEntity
  8
0
  6
solid
 62
     7
100
AcDbLine
 10
2.827183
 20
4.206351999999999
 30
0.0
 11
2.776813999999999
 21
4.206351999999999
 31
0.0
  0
LINE
  5
CD
330
A
100
AcDbEntity
  8
0
  6
solid
 62
     7
100
AcDbLine
 10
2.776813999999999
 20
4.209378
 30
0.0
 11
2.776813999999999
 21
4.206351999999999
 31
0.0
  0
LINE
  5
CE
330
A
100
AcDbEntity
  8
0
  6
solid
 62
     7
100
AcDbLine
 10
2.808533999999999
 20
4.295472
 30
0.0
 11
2.808533999999999
 21
4.229689999999999
 31
0.0
  0
SPLINE
  5
CF
330
A
100
AcDbEntity
  8
0
  6
solid
 62
     7
100
AcDbSpline
210
0.0
220
0.0
230
1.0
 70
     8
 71
     2
 72
     7
 73
     4
 74
     0
 42
0.0000000001
 43
0.0000000001
 40
0.0
 40
0.0
 40
0.0
 40
1.0
 40
2.0
 40
2.0
 40
2.0
 10
2.808534409110375
 20
4.229689698357486
 30
0.0
 10
2.808534409110375
 20
4.222911179838967
 30
0.0
 10
2.809893297999264
 20
4.216156365024152
 30
0.0
 10
2.811287742443708
 20
4.214572290950079
 30
0.0
  0
SPLINE
  5
D0
330
A
100
AcDbEntity
  8
0
  6
solid
 62
     7
100
AcDbSpline
210
0.0
220
0.0
230
1.0
 70
     8
 71
     2
 72
     6
 73
     3
 74
     0
 42
0.0000000001
 43
0.0000000001
 40
0.0
 40
0.0
 40
0.0
 40
1.0
 40
1.0
 40
1.0
 10
2.811287742443708
 20
4.214572290950079
 30
0.0
 10
2.815502557258523
 20
4.20982414280193
 30
0.0
 10
2.823794038740004
 20
4.20982414280193
 30
0.0
  0
SPLINE
  5
D1
330
A
100
AcDbEntity
  8
0
  6
solid
 62
     7
100
AcDbSpline
210
0.0
220
0.0
230
1.0
 70
     8
 71
     2
 72
     7
 73
     4
 74
     0
 42
0.0000000001
 43
0.0000000001
 40
0.0
 40
0.0
 40
0.0
 40
1.0
 40
2.0
 40
2.0
 40
2.0
 10
2.823794038740004
 20
4.20982414280193
 30
0.0
 10
2.831895890591856
 20
4.20982414280193
 30
0.0
 10
2.843375149851116
 20
4.214844883542671
 30
0.0
 10
2.84790996466593
 20
4.220691179838967
 30
0.0
  0
SPLINE
  5
D2
330
A
100
AcDbEntity
  8
0
  6
solid
 62
     7
100
AcDbSpline
210
0.0
220
0.0
230
1.0
 70
     8
 71
     2
 72
     7
 73
     4
 74
     0
 42
0.0000000001
 43
0.0000000001
 40
0.0
 40
0.0
 40
0.0
 40
1.0
 40
2.0
 40
2.0
 40
2.0
 10
2.84790996466593
 20
4.220691179838967
 30
0.0
 10
2.852045890591856
 20
4.226466365024152
 30
0.0
 10
2.857145520221486
 20
4.241453402061189
 30
0.0
 10
2.857145520221486
 20
4.249733031690819
 30
0.0
  0
SPLINE
  5
D3
330
A
100
AcDbEntity
  8
0
  6
solid
 62
     7
100
AcDbSpline
210
0.0
220
0.0
230
1.0
 70
     8
 71
     2
 72
     7
 73
     4
 74
     0
 42
0.0000000001
 43
0.0000000001
 40
0.0
 40
0.0
 40
0.0
 40
1.0
 40
2.0
 40
2.0
 40
2.0
 10
2.857145520221486
 20
4.249733031690819
 30
0.0
 10
2.857145520221486
 20
4.259039698357486
 30
0.0
 10
2.851405890591856
 20
4.276068957616745
 30
0.0
 10
2.84593885355482
 20
4.282175994653782
 30
0.0
  0
SPLINE
  5
D4
330
A
100
AcDbEntity
  8
0
  6
solid
 62
     7
100
AcDbSpline
210
0.0
220
0.0
230
1.0
 70
     8
 71
     2
 72
     6
 73
     3
 74
     0
 42
0.0000000001
 43
0.0000000001
 40
0.0
 40
0.0
 40
0.0
 40
1.0
 40
1.0
 40
1.0
 10
2.84593885355482
 20
4.282175994653782
 30
0.0
 10
2.838745520221486
 20
4.291055994653783
 30
0.0
 10
2.8285303350363
 20
4.293678957616744
 30
0.0
  0
SPLINE
  5
D5
330
A
100
AcDbEntity
  8
0
  6
solid
 62
     7
100
AcDbSpline
210
0.0
220
0.0
230
1.0
 70
     8
 71
     2
 72
     6
 73
     3
 74
     0
 42
0.0000000001
 43
0.0000000001
 40
0.0
 40
0.0
 40
0.0
 40
1.0
 40
1.0
 40
1.0
 10
2.8285303350363
 20
4.293678957616744
 30
0.0
 10
2.822861816517782
 20
4.295472290950078
 30
0.0
 10
2.814404409110375
 20
4.295472290950078
 30
0.0
  0
LINE
  5
D6
330
A
100
AcDbEntity
  8
0
  6
solid
 62
     7
100
AcDbLine
 10
2.808533999999999
 20
4.295472
 30
0.0
 11
2.814404
 21
4.295472
 31
0.0
  0
LINE
  5
D7
330
A
100
AcDbEntity
  8
0
  6
solid
 62
     7
100
AcDbLine
 10
2.912004999999999
 20
4.300101999999999
 30
0.0
 11
2.916408999999999
 21
4.300101999999999
 31
0.0
  0
LINE
  5
D8
330
A
100
AcDbEntity
  8
0
  6
solid
 62
     7
100
AcDbLine
 10
2.916408999999999
 20
4.300101999999999
 30
0.0
 11
2.916408999999999
 21
4.225143
 31
0.0
  0
SPLINE
  5
D9
330
A
100
AcDbEntity
  8
0
  6
solid
 62
     7
100
AcDbSpline
210
0.0
220
0.0
230
1.0
 70
     8
 71
     2
 72
     7
 73
     4
 74
     0
 42
0.0000000001
 43
0.0000000001
 40
0.0
 40
0.0
 40
0.0
 40
1.0
 40
2.0
 40
2.0
 40
2.0
 10
2.916409223925189
 20
4.225143031690818
 30
0.0
 10
2.916409223925189
 20
4.219699698357485
 30
0.0
 10
2.9179103350363
 20
4.213663772431559
 30
0.0
 10
2.919055890591856
 20
4.21262488354267
 30
0.0
  0
SPLINE
  5
DA
330
A
100
AcDbEntity
  8
0
  6
solid
 62
     7
100
AcDbSpline
210
0.0
220
0.0
230
1.0
 70
     8
 71
     2
 72
     6
 73
     3
 74
     0
 42
0.0000000001
 43
0.0000000001
 40
0.0
 40
0.0
 40
0.0
 40
1.0
 40
1.0
 40
1.0
 10
2.919055890591856
 20
4.21262488354267
 30
0.0
 10
2.92221996466593
 20
4.21014414280193
 30
0.0
 10
2.929887372073337
 20
4.20929488354267
 30
0.0
  0
LINE
  5
DB
330
A
100
AcDbEntity
  8
0
  6
solid
 62
     7
100
AcDbLine
 10
2.929886999999999
 20
4.209295
 30
0.0
 11
2.929886999999999
 21
4.206351999999999
 31
0.0
  0
LINE
  5
DC
330
A
100
AcDbEntity
  8
0
  6
solid
 62
     7
100
AcDbLine
 10
2.929886999999999
 20
4.206351999999999
 30
0.0
 11
2.887615999999999
 21
4.206351999999999
 31
0.0
  0
LINE
  5
DD
330
A
100
AcDbEntity
  8
0
  6
solid
 62
     7
100
AcDbLine
 10
2.887615999999999
 20
4.206351999999999
 30
0.0
 11
2.887615999999999
 21
4.209354
 31
0.0
  0
SPLINE
  5
DE
330
A
100
AcDbEntity
  8
0
  6
solid
 62
     7
100
AcDbSpline
210
0.0
220
0.0
230
1.0
 70
     8
 71
     2
 72
     7
 73
     4
 74
     0
 42
0.0000000001
 43
0.0000000001
 40
0.0
 40
0.0
 40
0.0
 40
1.0
 40
2.0
 40
2.0
 40
2.0
 10
2.887616260962226
 20
4.20935414280193
 30
0.0
 10
2.892731816517782
 20
4.210037476135264
 30
0.0
 10
2.896982186888152
 20
4.211348957616745
 30
0.0
 10
2.898388483184448
 20
4.212838216876004
 30
0.0
  0
SPLINE
  5
DF
330
A
100
AcDbEntity
  8
0
  6
solid
 62
     7
100
AcDbSpline
210
0.0
220
0.0
230
1.0
 70
     8
 71
     2
 72
     7
 73
     4
 74
     0
 42
0.0000000001
 43
0.0000000001
 40
0.0
 40
0.0
 40
0.0
 40
1.0
 40
2.0
 40
2.0
 40
2.0
 10
2.898388483184448
 20
4.212838216876004
 30
0.0
 10
2.899794779480745
 20
4.214702661320448
 30
0.0
 10
2.901362927628893
 20
4.219533772431559
 30
0.0
 10
2.901362927628893
 20
4.224882290950078
 30
0.0
  0
LINE
  5
E0
330
A
100
AcDbEntity
  8
0
  6
solid
 62
     7
100
AcDbLine
 10
2.901362999999999
 20
4.224882
 30
0.0
 11
2.901362999999999
 21
4.287631
 31
0.0
  0
SPLINE
  5
E1
330
A
100
AcDbEntity
  8
0
  6
solid
 62
     7
100
AcDbSpline
210
0.0
220
0.0
230
1.0
 70
     8
 71
     2
 72
     6
 73
     3
 74
     0
 42
0.0000000001
 43
0.0000000001
 40
0.0
 40
0.0
 40
0.0
 40
1.0
 40
1.0
 40
1.0
 10
2.901362927628893
 20
4.287631179838967
 30
0.0
 10
2.899083668369634
 20
4.287370439098225
 30
0.0
 10
2.896982186888152
 20
4.287370439098225
 30
0.0
  0
SPLINE
  5
E2
330
A
100
AcDbEntity
  8
0
  6
solid
 62
     7
100
AcDbSpline
210
0.0
220
0.0
230
1.0
 70
     8
 71
     2
 72
     6
 73
     3
 74
     0
 42
0.0000000001
 43
0.0000000001
 40
0.0
 40
0.0
 40
0.0
 40
1.0
 40
1.0
 40
1.0
 10
2.896982186888152
 20
4.287370439098225
 30
0.0
 10
2.891657372073337
 20
4.287370439098225
 30
0.0
 10
2.88782959429556
 20
4.288753031690819
 30
0.0
  0
LINE
  5
E3
330
A
100
AcDbEntity
  8
0
  6
solid
 62
     7
100
AcDbLine
 10
2.88783
 20
4.288752999999999
 30
0.0
 11
2.88783
 21
4.291999999999999
 31
0.0
  0
LINE
  5
E4
330
A
100
AcDbEntity
  8
0
  6
solid
 62
     7
100
AcDbLine
 10
2.88783
 20
4.291999999999999
 30
0.0
 11
2.890392999999999
 21
4.291999999999999
 31
0.0
  0
SPLINE
  5
E5
330
A
100
AcDbEntity
  8
0
  6
solid
 62
     7
100
AcDbSpline
210
0.0
220
0.0
230
1.0
 70
     8
 71
     2
 72
     7
 73
     4
 74
     0
 42
0.0000000001
 43
0.0000000001
 40
0.0
 40
0.0
 40
0.0
 40
1.0
 40
2.0
 40
2.0
 40
2.0
 10
2.890393297999263
 20
4.292000068727856
 30
0.0
 10
2.895623297999263
 20
4.292000068727856
 30
0.0
 10
2.904341446147411
 20
4.294895624283411
 30
0.0
 10
2.909986260962226
 20
4.298486365024152
 30
0.0
  0
LINE
  5
E6
330
A
100
AcDbEntity
  8
0
  6
solid
 62
     7
100
AcDbLine
 10
2.912004999999999
 20
4.300101999999999
 30
0.0
 11
2.909985999999999
 21
4.298486
 31
0.0
  0
SPLINE
  5
E7
330
A
100
AcDbEntity
  8
0
  6
solid
 62
     7
100
AcDbSpline
210
0.0
220
0.0
230
1.0
 70
     8
 71
     2
 72
     7
 73
     4
 74
     0
 42
0.0000000001
 43
0.0000000001
 40
0.0
 40
0.0
 40
0.0
 40
1.0
 40
2.0
 40
2.0
 40
2.0
 10
2.958335520221485
 20
4.260927846505633
 30
0.0
 10
2.959836631332596
 20
4.264317105764892
 30
0.0
 10
2.968764038740004
 20
4.2676945131723
 30
0.0
 10
2.973571446147412
 20
4.2676945131723
 30
0.0
  0
SPLINE
  5
E8
330
A
100
AcDbEntity
  8
0
  6
solid
 62
     7
100
AcDbSpline
210
0.0
220
0.0
230
1.0
 70
     8
 71
     2
 72
     6
 73
     3
 74
     0
 42
0.0000000001
 43
0.0000000001
 40
0.0
 40
0.0
 40
0.0
 40
1.0
 40
1.0
 40
1.0
 10
2.973571446147412
 20
4.2676945131723
 30
0.0
 10
2.979465149851116
 20
4.2676945131723
 30
0.0
 10
2.985050705406671
 20
4.264885994653782
 30
0.0
  0
SPLINE
  5
E9
330
A
100
AcDbEntity
  8
0
  6
solid
 62
     7
100
AcDbSpline
210
0.0
220
0.0
230
1.0
 70
     8
 71
     2
 72
     7
 73
     4
 74
     0
 42
0.0000000001
 43
0.0000000001
 40
0.0
 40
0.0
 40
0.0
 40
1.0
 40
2.0
 40
2.0
 40
2.0
 10
2.985050705406671
 20
4.264885994653782
 30
0.0
 10
2.993697742443708
 20
4.261070068727856
 30
0.0
 10
3.003450705406671
 20
4.246189698357485
 30
0.0
 10
3.003450705406671
 20
4.237037105764893
 30
0.0
  0
SPLINE
  5
EA
330
A
100
AcDbEntity
  8
0
  6
solid
 62
     7
100
AcDbSpline
210
0.0
220
0.0
230
1.0
 70
     8
 71
     2
 72
     7
 73
     4
 74
     0
 42
0.0000000001
 43
0.0000000001
 40
0.0
 40
0.0
 40
0.0
 40
1.0
 40
2.0
 40
2.0
 40
2.0
 10
3.003450705406671
 20
4.237037105764893
 30
0.0
 10
3.003450705406671
 20
4.230752290950078
 30
0.0
 10
2.99827996466593
 20
4.21842377243156
 30
0.0
 10
2.993437001702968
 20
4.213557105764893
 30
0.0
  0
SPLINE
  5
EB
330
A
100
AcDbEntity
  8
0
  6
solid
 62
     7
100
AcDbSpline
210
0.0
220
0.0
230
1.0
 70
     8
 71
     2
 72
     6
 73
     3
 74
     0
 42
0.0000000001
 43
0.0000000001
 40
0.0
 40
0.0
 40
0.0
 40
1.0
 40
1.0
 40
1.0
 10
2.993437001702968
 20
4.213557105764893
 30
0.0
 10
2.985086260962226
 20
4.2051945131723
 30
0.0
 10
2.972295520221485
 20
4.2051945131723
 30
0.0
  0
SPLINE
  5
EC
330
A
100
AcDbEntity
  8
0
  6
solid
 62
     7
100
AcDbSpline
210
0.0
220
0.0
230
1.0
 70
     8
 71
     2
 72
     6
 73
     3
 74
     0
 42
0.0000000001
 43
0.0000000001
 40
0.0
 40
0.0
 40
0.0
 40
1.0
 40
1.0
 40
1.0
 10
2.972295520221485
 20
4.2051945131723
 30
0.0
 10
2.95769959429556
 20
4.2051945131723
 30
0.0
 10
2.949396260962226
 20
4.216946365024152
 30
0.0
  0
SPLINE
  5
ED
330
A
100
AcDbEntity
  8
0
  6
solid
 62
     7
100
AcDbSpline
210
0.0
220
0.0
230
1.0
 70
     8
 71
     2
 72
     6
 73
     3
 74
     0
 42
0.0000000001
 43
0.0000000001
 40
0.0
 40
0.0
 40
0.0
 40
1.0
 40
1.0
 40
1.0
 10
2.949396260962226
 20
4.216946365024152
 30
0.0
 10
2.942108112814078
 20
4.227493402061189
 30
0.0
 10
2.942108112814078
 20
4.244558216876004
 30
0.0
  0
SPLINE
  5
EE
330
A
100
AcDbEntity
  8
0
  6
solid
 62
     7
100
AcDbSpline
210
0.0
220
0.0
230
1.0
 70
     8
 71
     2
 72
     7
 73
     4
 74
     0
 42
0.0000000001
 43
0.0000000001
 40
0.0
 40
0.0
 40
0.0
 40
1.0
 40
2.0
 40
2.0
 40
2.0
 10
2.942108112814078
 20
4.244558216876004
 30
0.0
 10
2.942108112814078
 20
4.257858587246374
 30
0.0
 10
2.950802557258522
 20
4.282021920579707
 30
0.0
 10
2.959034779480744
 20
4.29091377243156
 30
0.0
  0
SPLINE
  5
EF
330
A
100
AcDbEntity
  8
0
  6
solid
 62
     7
100
AcDbSpline
210
0.0
220
0.0
230
1.0
 70
     8
 71
     2
 72
     7
 73
     4
 74
     0
 42
0.0000000001
 43
0.0000000001
 40
0.0
 40
0.0
 40
0.0
 40
1.0
 40
2.0
 40
2.0
 40
2.0
 10
2.959034779480744
 20
4.29091377243156
 30
0.0
 10
2.964715149851115
 20
4.2967245131723
 30
0.0
 10
2.976948853554819
 20
4.302416735394523
 30
0.0
 10
2.9838103350363
 20
4.302416735394523
 30
0.0
  0
SPLINE
  5
F0
330
A
100
AcDbEntity
  8
0
  6
solid
 62
     7
100
AcDbSpline
210
0.0
220
0.0
230
1.0
 70
     8
 71
     2
 72
     7
 73
     4
 74
     0
 42
0.0000000001
 43
0.0000000001
 40
0.0
 40
0.0
 40
0.0
 40
1.0
 40
2.0
 40
2.0
 40
2.0
 10
2.9838103350363
 20
4.302416735394523
 30
0.0
 10
2.991454038740004
 20
4.302416735394523
 30
0.0
 10
3.002577742443708
 20
4.295875253913041
 30
0.0
 10
3.002577742443708
 20
4.291340439098227
 30
0.0
  0
SPLINE
  5
F1
330
A
100
AcDbEntity
  8
0
  6
solid
 62
     7
100
AcDbSpline
210
0.0
220
0.0
230
1.0
 70
     8
 71
     2
 72
     7
 73
     4
 74
     0
 42
0.0000000001
 43
0.0000000001
 40
0.0
 40
0.0
 40
0.0
 40
1.0
 40
2.0
 40
2.0
 40
2.0
 10
3.002577742443708
 20
4.291340439098227
 30
0.0
 10
3.002577742443708
 20
4.289025624283412
 30
0.0
 10
2.998998853554819
 20
4.285245253913041
 30
0.0
 10
2.995585890591856
 20
4.285245253913041
 30
0.0
  0
SPLINE
  5
F2
330
A
100
AcDbEntity
  8
0
  6
solid
 62
     7
100
AcDbSpline
210
0.0
220
0.0
230
1.0
 70
     8
 71
     2
 72
     6
 73
     3
 74
     0
 42
0.0000000001
 43
0.0000000001
 40
0.0
 40
0.0
 40
0.0
 40
1.0
 40
1.0
 40
1.0
 10
2.995585890591856
 20
4.285245253913041
 30
0.0
 10
2.993638483184448
 20
4.285245253913041
 30
0.0
 10
2.992315149851116
 20
4.285743031690818
 30
0.0
  0
SPLINE
  5
F3
330
A
100
AcDbEntity
  8
0
  6
solid
 62
     7
100
AcDbSpline
210
0.0
220
0.0
230
1.0
 70
     8
 71
     2
 72
     7
 73
     4
 74
     0
 42
0.0000000001
 43
0.0000000001
 40
0.0
 40
0.0
 40
0.0
 40
1.0
 40
2.0
 40
2.0
 40
2.0
 10
2.992315149851116
 20
4.285743031690818
 30
0.0
 10
2.990944409110374
 20
4.286710809468596
 30
0.0
 10
2.988985149851115
 20
4.289768216876004
 30
0.0
 10
2.987792186888152
 20
4.293169327987116
 30
0.0
  0
SPLINE
  5
F4
330
A
100
AcDbEntity
  8
0
  6
solid
 62
     7
100
AcDbSpline
210
0.0
220
0.0
230
1.0
 70
     8
 71
     2
 72
     7
 73
     4
 74
     0
 42
0.0000000001
 43
0.0000000001
 40
0.0
 40
0.0
 40
0.0
 40
1.0
 40
2.0
 40
2.0
 40
2.0
 10
2.987792186888152
 20
4.293169327987116
 30
0.0
 10
2.986611075777041
 20
4.296100439098227
 30
0.0
 10
2.983328483184448
 20
4.2989445131723
 30
0.0
 10
2.980729223925189
 20
4.2989445131723
 30
0.0
  0
SPLINE
  5
F5
330
A
100
AcDbEntity
  8
0
  6
solid
 62
     7
100
AcDbSpline
210
0.0
220
0.0
230
1.0
 70
     8
 71
     2
 72
     6
 73
     3
 74
     0
 42
0.0000000001
 43
0.0000000001
 40
0.0
 40
0.0
 40
0.0
 40
1.0
 40
1.0
 40
1.0
 10
2.980729223925189
 20
4.2989445131723
 30
0.0
 10
2.973595149851115
 20
4.2989445131723
 30
0.0
 10
2.966781075777041
 20
4.287702290950079
 30
0.0
  0
SPLINE
  5
F6
330
A
100
AcDbEntity
  8
0
  6
solid
 62
     7
100
AcDbSpline
210
0.0
220
0.0
230
1.0
 70
     8
 71
     2
 72
     6
 73
     3
 74
     0
 42
0.0000000001
 43
0.0000000001
 40
0.0
 40
0.0
 40
0.0
 40
1.0
 40
1.0
 40
1.0
 10
2.966781075777041
 20
4.287702290950079
 30
0.0
 10
2.959872186888152
 20
4.276294142801929
 30
0.0
 10
2.958335520221485
 20
4.260927846505633
 30
0.0
  0
SPLINE
  5
F7
330
A
100
AcDbEntity
  8
0
  6
solid
 62
     7
100
AcDbSpline
210
0.0
220
0.0
230
1.0
 70
     8
 71
     2
 72
     6
 73
     3
 74
     0
 42
0.0000000001
 43
0.0000000001
 40
0.0
 40
0.0
 40
0.0
 40
1.0
 40
1.0
 40
1.0
 10
2.957154409110374
 20
4.235867846505633
 30
0.0
 10
2.957154409110374
 20
4.223065253913041
 30
0.0
 10
2.961171816517781
 20
4.215943031690819
 30
0.0
  0
SPLINE
  5
F8
330
A
100
AcDbEntity
  8
0
  6
solid
 62
     7
100
AcDbSpline
210
0.0
220
0.0
230
1.0
 70
     8
 71
     2
 72
     6
 73
     3
 74
     0
 42
0.0000000001
 43
0.0000000001
 40
0.0
 40
0.0
 40
0.0
 40
1.0
 40
1.0
 40
1.0
 10
2.961171816517781
 20
4.215943031690819
 30
0.0
 10
2.965694779480745
 20
4.208666735394523
 30
0.0
 10
2.97141070540667
 20
4.208666735394523
 30
0.0
  0
SPLINE
  5
F9
330
A
100
AcDbEntity
  8
0
  6
solid
 62
     7
100
AcDbSpline
210
0.0
220
0.0
230
1.0
 70
     8
 71
     2
 72
     7
 73
     4
 74
     0
 42
0.0000000001
 43
0.0000000001
 40
0.0
 40
0.0
 40
0.0
 40
1.0
 40
2.0
 40
2.0
 40
2.0
 10
2.97141070540667
 20
4.208666735394523
 30
0.0
 10
2.974788112814078
 20
4.208666735394523
 30
0.0
 10
2.980729223925189
 20
4.2124945131723
 30
0.0
 10
2.983008483184448
 20
4.216215624283411
 30
0.0
  0
SPLINE
  5
FA
330
A
100
AcDbEntity
  8
0
  6
solid
 62
     7
100
AcDbSpline
210
0.0
220
0.0
230
1.0
 70
     8
 71
     2
 72
     7
 73
     4
 74
     0
 42
0.0000000001
 43
0.0000000001
 40
0.0
 40
0.0
 40
0.0
 40
1.0
 40
2.0
 40
2.0
 40
2.0
 10
2.983008483184448
 20
4.216215624283411
 30
0.0
 10
2.985323297999264
 20
4.22039488354267
 30
0.0
 10
2.988404409110374
 20
4.232134883542671
 30
0.0
 10
2.988404409110374
 20
4.2378745131723
 30
0.0
  0
SPLINE
  5
FB
330
A
100
AcDbEntity
  8
0
  6
solid
 62
     7
100
AcDbSpline
210
0.0
220
0.0
230
1.0
 70
     8
 71
     2
 72
     7
 73
     4
 74
     0
 42
0.0000000001
 43
0.0000000001
 40
0.0
 40
0.0
 40
0.0
 40
1.0
 40
2.0
 40
2.0
 40
2.0
 10
2.988404409110374
 20
4.2378745131723
 30
0.0
 10
2.988404409110374
 20
4.243732661320448
 30
0.0
 10
2.985299594295559
 20
4.254540439098226
 30
0.0
 10
2.982866260962226
 20
4.258435253913041
 30
0.0
  0
SPLINE
  5
FC
330
A
100
AcDbEntity
  8
0
  6
solid
 62
     7
100
AcDbSpline
210
0.0
220
0.0
230
1.0
 70
     8
 71
     2
 72
     6
 73
     3
 74
     0
 42
0.0000000001
 43
0.0000000001
 40
0.0
 40
0.0
 40
0.0
 40
1.0
 40
1.0
 40
1.0
 10
2.982866260962226
 20
4.258435253913041
 30
0.0
 10
2.978556631332596
 20
4.264222290950078
 30
0.0
 10
2.972200705406671
 20
4.264222290950078
 30
0.0
  0
SPLINE
  5
FD
330
A
100
AcDbEntity
  8
0
  6
solid
 62
     7
100
AcDbSpline
210
0.0
220
0.0
230
1.0
 70
     8
 71
     2
 72
     6
 73
     3
 74
     0
 42
0.0000000001
 43
0.0000000001
 40
0.0
 40
0.0
 40
0.0
 40
1.0
 40
1.0
 40
1.0
 10
2.972200705406671
 20
4.264222290950078
 30
0.0
 10
2.96702996466593
 20
4.264222290950078
 30
0.0
 10
2.963166631332596
 20
4.258980439098225
 30
0.0
  0
SPLINE
  5
FE
330
A
100
AcDbEntity
  8
0
  6
solid
 62
     7
100
AcDbSpline
210
0.0
220
0.0
230
1.0
 70
     8
 71
     2
 72
     7
 73
     4
 74
     0
 42
0.0000000001
 43
0.0000000001
 40
0.0
 40
0.0
 40
0.0
 40
1.0
 40
2.0
 40
2.0
 40
2.0
 10
2.963166631332596
 20
4.258980439098225
 30
0.0
 10
2.960192186888152
 20
4.255567476135263
 30
0.0
 10
2.957154409110374
 20
4.243614142801929
 30
0.0
 10
2.957154409110374
 20
4.235867846505633
 30
0.0
  0
LINE
  5
FF
330
A
100
AcDbEntity
  8
0
  6
solid
 62
     7
100
AcDbLine
 10
3.031464
 20
4.248611
 30
0.0
 11
3.042059
 21
4.300101999999999
 31
0.0
  0
SPLINE
  5
100
330
A
100
AcDbEntity
  8
0
  6
solid
 62
     7
100
AcDbSpline
210
0.0
220
0.0
230
1.0
 70
     8
 71
     2
 72
     6
 73
     3
 74
     0
 42
0.0000000001
 43
0.0000000001
 40
0.0
 40
0.0
 40
0.0
 40
1.0
 40
1.0
 40
1.0
 10
3.04205885355482
 20
4.300101920579708
 30
0.0
 10
3.053715890591856
 20
4.297787105764892
 30
0.0
 10
3.061146260962226
 20
4.297787105764892
 30
0.0
  0
SPLINE
  5
101
330
A
100
AcDbEntity
  8
0
  6
solid
 62
     7
100
AcDbSpline
210
0.0
220
0.0
230
1.0
 70
     8
 71
     2
 72
     7
 73
     4
 74
     0
 42
0.0000000001
 43
0.0000000001
 40
0.0
 40
0.0
 40
0.0
 40
1.0
 40
2.0
 40
2.0
 40
2.0
 10
3.061146260962226
 20
4.297787105764892
 30
0.0
 10
3.066317001702968
 20
4.297787105764892
 30
0.0
 10
3.071373297999263
 20
4.298438957616744
 30
0.0
 10
3.076816631332597
 20
4.300101920579708
 30
0.0
  0
SPLINE
  5
102
330
A
100
AcDbEntity
  8
0
  6
solid
 62
     7
100
AcDbSpline
210
0.0
220
0.0
230
1.0
 70
     8
 71
     2
 72
     7
 73
     4
 74
     0
 42
0.0000000001
 43
0.0000000001
 40
0.0
 40
0.0
 40
0.0
 40
1.0
 40
2.0
 40
2.0
 40
2.0
 10
3.076816631332597
 20
4.300101920579708
 30
0.0
 10
3.075979223925189
 20
4.295602661320448
 30
0.0
 10
3.073723668369634
 20
4.291304883542671
 30
0.0
 10
3.071183668369634
 20
4.289061179838967
 30
0.0
  0
SPLINE
  5
103
330
A
100
AcDbEntity
  8
0
  6
solid
 62
     7
100
AcDbSpline
210
0.0
220
0.0
230
1.0
 70
     8
 71
     2
 72
     6
 73
     3
 74
     0
 42
0.0000000001
 43
0.0000000001
 40
0.0
 40
0.0
 40
0.0
 40
1.0
 40
1.0
 40
1.0
 10
3.071183668369634
 20
4.289061179838967
 30
0.0
 10
3.067474409110375
 20
4.286213031690818
 30
0.0
 10
3.058724779480745
 20
4.286213031690818
 30
0.0
  0
SPLINE
  5
104
330
A
100
AcDbEntity
  8
0
  6
solid
 62
     7
100
AcDbSpline
210
0.0
220
0.0
230
1.0
 70
     8
 71
     2
 72
     6
 73
     3
 74
     0
 42
0.0000000001
 43
0.0000000001
 40
0.0
 40
0.0
 40
0.0
 40
1.0
 40
1.0
 40
1.0
 10
3.058724779480745
 20
4.286213031690818
 30
0.0
 10
3.053008853554819
 20
4.286213031690818
 30
0.0
 10
3.045886631332596
 20
4.287370439098225
 30
0.0
  0
LINE
  5
105
330
A
100
AcDbEntity
  8
0
  6
solid
 62
     7
100
AcDbLine
 10
3.045887
 20
4.28737
 30
0.0
 11
3.039613999999999
 21
4.260892
 31
0.0
  0
SPLINE
  5
106
330
A
100
AcDbEntity
  8
0
  6
solid
 62
     7
100
AcDbSpline
210
0.0
220
0.0
230
1.0
 70
     8
 71
     2
 72
     7
 73
     4
 74
     0
 42
0.0000000001
 43
0.0000000001
 40
0.0
 40
0.0
 40
0.0
 40
1.0
 40
2.0
 40
2.0
 40
2.0
 10
3.039613668369634
 20
4.260892290950078
 30
0.0
 10
3.0400403350363
 20
4.263242661320448
 30
0.0
 10
3.046017001702967
 20
4.265379698357485
 30
0.0
 10
3.0503503350363
 20
4.265379698357485
 30
0.0
  0
SPLINE
  5
107
330
A
100
AcDbEntity
  8
0
  6
solid
 62
     7
100
AcDbSpline
210
0.0
220
0.0
230
1.0
 70
     8
 71
     2
 72
     6
 73
     3
 74
     0
 42
0.0000000001
 43
0.0000000001
 40
0.0
 40
0.0
 40
0.0
 40
1.0
 40
1.0
 40
1.0
 10
3.0503503350363
 20
4.265379698357485
 30
0.0
 10
3.061971816517782
 20
4.265379698357485
 30
0.0
 10
3.069094038740004
 20
4.257479327987115
 30
0.0
  0
SPLINE
  5
108
330
A
100
AcDbEntity
  8
0
  6
solid
 62
     7
100
AcDbSpline
210
0.0
220
0.0
230
1.0
 70
     8
 71
     2
 72
     7
 73
     4
 74
     0
 42
0.0000000001
 43
0.0000000001
 40
0.0
 40
0.0
 40
0.0
 40
1.0
 40
2.0
 40
2.0
 40
2.0
 10
3.069094038740004
 20
4.257479327987115
 30
0.0
 10
3.0727203350363
 20
4.253300068727856
 30
0.0
 10
3.076603297999263
 20
4.244570068727856
 30
0.0
 10
3.076603297999263
 20
4.240035253913041
 30
0.0
  0
SPLINE
  5
109
330
A
100
AcDbEntity
  8
0
  6
solid
 62
     7
100
AcDbSpline
210
0.0
220
0.0
230
1.0
 70
     8
 71
     2
 72
     6
 73
     3
 74
     0
 42
0.0000000001
 43
0.0000000001
 40
0.0
 40
0.0
 40
0.0
 40
1.0
 40
1.0
 40
1.0
 10
3.076603297999263
 20
4.240035253913041
 30
0.0
 10
3.076603297999263
 20
4.233031550209337
 30
0.0
 10
3.0727203350363
 20
4.225273402061188
 30
0.0
  0
SPLINE
  5
10A
330
A
100
AcDbEntity
  8
0
  6
solid
 62
     7
100
AcDbSpline
210
0.0
220
0.0
230
1.0
 70
     8
 71
     2
 72
     7
 73
     4
 74
     0
 42
0.0000000001
 43
0.0000000001
 40
0.0
 40
0.0
 40
0.0
 40
1.0
 40
2.0
 40
2.0
 40
2.0
 10
3.0727203350363
 20
4.225273402061188
 30
0.0
 10
3.068643668369634
 20
4.215978587246374
 30
0.0
 10
3.051590705406671
 20
4.2051945131723
 30
0.0
 10
3.040301075777041
 20
4.2051945131723
 30
0.0
  0
SPLINE
  5
10B
330
A
100
AcDbEntity
  8
0
  6
solid
 62
     7
100
AcDbSpline
210
0.0
220
0.0
230
1.0
 70
     8
 71
     2
 72
     7
 73
     4
 74
     0
 42
0.0000000001
 43
0.0000000001
 40
0.0
 40
0.0
 40
0.0
 40
1.0
 40
2.0
 40
2.0
 40
2.0
 10
3.040301075777041
 20
4.2051945131723
 30
0.0
 10
3.034972186888152
 20
4.2051945131723
 30
0.0
 10
3.024555520221486
 20
4.208173031690819
 30
0.0
 10
3.021130705406671
 20
4.211230439098226
 30
0.0
  0
SPLINE
  5
10C
330
A
100
AcDbEntity
  8
0
  6
solid
 62
     7
100
AcDbSpline
210
0.0
220
0.0
230
1.0
 70
     8
 71
     2
 72
     7
 73
     4
 74
     0
 42
0.0000000001
 43
0.0000000001
 40
0.0
 40
0.0
 40
0.0
 40
1.0
 40
2.0
 40
2.0
 40
2.0
 10
3.021130705406671
 20
4.211230439098226
 30
0.0
 10
3.018108853554819
 20
4.213616365024152
 30
0.0
 10
3.015260705406671
 20
4.219758957616745
 30
0.0
 10
3.015260705406671
 20
4.223243031690818
 30
0.0
  0
SPLINE
  5
10D
330
A
100
AcDbEntity
  8
0
  6
solid
 62
     7
100
AcDbSpline
210
0.0
220
0.0
230
1.0
 70
     8
 71
     2
 72
     7
 73
     4
 74
     0
 42
0.0000000001
 43
0.0000000001
 40
0.0
 40
0.0
 40
0.0
 40
1.0
 40
2.0
 40
2.0
 40
2.0
 10
3.015260705406671
 20
4.223243031690818
 30
0.0
 10
3.015260705406671
 20
4.226727105764893
 30
0.0
 10
3.019254409110375
 20
4.23181488354267
 30
0.0
 10
3.022596260962226
 20
4.23181488354267
 30
0.0
  0
SPLINE
  5
10E
330
A
100
AcDbEntity
  8
0
  6
solid
 62
     7
100
AcDbSpline
210
0.0
220
0.0
230
1.0
 70
     8
 71
     2
 72
     7
 73
     4
 74
     0
 42
0.0000000001
 43
0.0000000001
 40
0.0
 40
0.0
 40
0.0
 40
1.0
 40
2.0
 40
2.0
 40
2.0
 10
3.022596260962226
 20
4.23181488354267
 30
0.0
 10
3.026175149851115
 20
4.23181488354267
 30
0.0
 10
3.030307001702968
 20
4.227422290950078
 30
0.0
 10
3.030307001702968
 20
4.224929698357485
 30
0.0
  0
SPLINE
  5
10F
330
A
100
AcDbEntity
  8
0
  6
solid
 62
     7
100
AcDbSpline
210
0.0
220
0.0
230
1.0
 70
     8
 71
     2
 72
     6
 73
     3
 74
     0
 42
0.0000000001
 43
0.0000000001
 40
0.0
 40
0.0
 40
0.0
 40
1.0
 40
1.0
 40
1.0
 10
3.030307001702968
 20
4.224929698357485
 30
0.0
 10
3.029896260962226
 20
4.223855253913041
 30
0.0
 10
3.02978959429556
 20
4.221813031690818
 30
0.0
  0
SPLINE
  5
110
330
A
100
AcDbEntity
  8
0
  6
solid
 62
     7
100
AcDbSpline
210
0.0
220
0.0
230
1.0
 70
     8
 71
     2
 72
     6
 73
     3
 74
     0
 42
0.0000000001
 43
0.0000000001
 40
0.0
 40
0.0
 40
0.0
 40
1.0
 40
1.0
 40
1.0
 10
3.02978959429556
 20
4.221813031690818
 30
0.0
 10
3.029659223925189
 20
4.220442290950079
 30
0.0
 10
3.029671075777041
 20
4.219237476135263
 30
0.0
  0
SPLINE
  5
111
330
A
100
AcDbEntity
  8
0
  6
solid
 62
     7
100
AcDbSpline
210
0.0
220
0.0
230
1.0
 70
     8
 71
     2
 72
     7
 73
     4
 74
     0
 42
0.0000000001
 43
0.0000000001
 40
0.0
 40
0.0
 40
0.0
 40
1.0
 40
2.0
 40
2.0
 40
2.0
 10
3.029671075777041
 20
4.219237476135263
 30
0.0
 10
3.029671075777041
 20
4.213817846505633
 30
0.0
 10
3.035493668369634
 20
4.208666735394523
 30
0.0
 10
3.040016631332597
 20
4.208666735394523
 30
0.0
  0
SPLINE
  5
112
330
A
100
AcDbEntity
  8
0
  6
solid
 62
     7
100
AcDbSpline
210
0.0
220
0.0
230
1.0
 70
     8
 71
     2
 72
     6
 73
     3
 74
     0
 42
0.0000000001
 43
0.0000000001
 40
0.0
 40
0.0
 40
0.0
 40
1.0
 40
1.0
 40
1.0
 10
3.040016631332597
 20
4.208666735394523
 30
0.0
 10
3.048967742443708
 20
4.208666735394523
 30
0.0
 10
3.054742927628893
 20
4.216298587246375
 30
0.0
  0
SPLINE
  5
113
330
A
100
AcDbEntity
  8
0
  6
solid
 62
     7
100
AcDbSpline
210
0.0
220
0.0
230
1.0
 70
     8
 71
     2
 72
     7
 73
     4
 74
     0
 42
0.0000000001
 43
0.0000000001
 40
0.0
 40
0.0
 40
0.0
 40
1.0
 40
2.0
 40
2.0
 40
2.0
 10
3.054742927628893
 20
4.216298587246375
 30
0.0
 10
3.057543668369634
 20
4.220726735394523
 30
0.0
 10
3.061557001702968
 20
4.233470068727855
 30
0.0
 10
3.061557001702968
 20
4.240201179838967
 30
0.0
  0
SPLINE
  5
114
330
A
100
AcDbEntity
  8
0
  6
solid
 62
     7
100
AcDbSpline
210
0.0
220
0.0
230
1.0
 70
     8
 71
     2
 72
     7
 73
     4
 74
     0
 42
0.0000000001
 43
0.0000000001
 40
0.0
 40
0.0
 40
0.0
 40
1.0
 40
2.0
 40
2.0
 40
2.0
 10
3.061557001702968
 20
4.240201179838967
 30
0.0
 10
3.061557001702968
 20
4.249922661320448
 30
0.0
 10
3.053952927628893
 20
4.261907476135264
 30
0.0
 10
3.048106631332596
 20
4.261907476135264
 30
0.0
  0
SPLINE
  5
115
330
A
100
AcDbEntity
  8
0
  6
solid
 62
     7
100
AcDbSpline
210
0.0
220
0.0
230
1.0
 70
     8
 71
     2
 72
     7
 73
     4
 74
     0
 42
0.0000000001
 43
0.0000000001
 40
0.0
 40
0.0
 40
0.0
 40
1.0
 40
2.0
 40
2.0
 40
2.0
 10
3.048106631332596
 20
4.261907476135264
 30
0.0
 10
3.044776631332596
 20
4.261907476135264
 30
0.0
 10
3.038977742443708
 20
4.256203402061189
 30
0.0
 10
3.036591816517782
 20
4.248611179838967
 30
0.0
  0
LINE
  5
116
330
A
100
AcDbEntity
  8
0
  6
solid
 62
     7
100
AcDbLine
 10
3.031464
 20
4.248611
 30
0.0
 11
3.036591999999999
 21
4.248611
 31
0.0
  0
LINE
  5
117
330
A
100
AcDbEntity
  8
0
  6
solid
 62
     7
100
AcDbLine
 10
3.168985999999999
 20
4.300101999999999
 30
0.0
 11
3.170589
 21
4.267694999999999
 31
0.0
  0
LINE
  5
118
330
A
100
AcDbEntity
  8
0
  6
solid
 62
     7
100
AcDbLine
 10
3.170589
 20
4.267694999999999
 30
0.0
 11
3.166173
 21
4.267694999999999
 31
0.0
  0
SPLINE
  5
119
330
A
100
AcDbEntity
  8
0
  6
solid
 62
     7
100
AcDbSpline
210
0.0
220
0.0
230
1.0
 70
     8
 71
     2
 72
     6
 73
     3
 74
     0
 42
0.0000000001
 43
0.0000000001
 40
0.0
 40
0.0
 40
0.0
 40
1.0
 40
1.0
 40
1.0
 10
3.166172927628892
 20
4.2676945131723
 30
0.0
 10
3.1651103350363
 20
4.270317476135263
 30
0.0
 10
3.16484959429556
 20
4.271427476135263
 30
0.0
  0
SPLINE
  5
11A
330
A
100
AcDbEntity
  8
0
  6
solid
 62
     7
100
AcDbSpline
210
0.0
220
0.0
230
1.0
 70
     8
 71
     2
 72
     6
 73
     3
 74
     0
 42
0.0000000001
 43
0.0000000001
 40
0.0
 40
0.0
 40
0.0
 40
1.0
 40
1.0
 40
1.0
 10
3.16484959429556
 20
4.271427476135263
 30
0.0
 10
3.162534779480744
 20
4.278205994653782
 30
0.0
 10
3.160765149851116
 20
4.28158340206119
 30
0.0
  0
SPLINE
  5
11B
330
A
100
AcDbEntity
  8
0
  6
solid
 62
     7
100
AcDbSpline
210
0.0
220
0.0
230
1.0
 70
     8
 71
     2
 72
     6
 73
     3
 74
     0
 42
0.0000000001
 43
0.0000000001
 40
0.0
 40
0.0
 40
0.0
 40
1.0
 40
1.0
 40
1.0
 10
3.160765149851116
 20
4.28158340206119
 30
0.0
 10
3.15831996466593
 20
4.286924142801929
 30
0.0
 10
3.153548112814078
 20
4.292083031690819
 30
0.0
  0
SPLINE
  5
11C
330
A
100
AcDbEntity
  8
0
  6
solid
 62
     7
100
AcDbSpline
210
0.0
220
0.0
230
1.0
 70
     8
 71
     2
 72
     7
 73
     4
 74
     0
 42
0.0000000001
 43
0.0000000001
 40
0.0
 40
0.0
 40
0.0
 40
1.0
 40
2.0
 40
2.0
 40
2.0
 10
3.153548112814078
 20
4.292083031690819
 30
0.0
 10
3.149969223925189
 20
4.295650068727856
 30
0.0
 10
3.142187372073337
 20
4.2989445131723
 30
0.0
 10
3.137451075777041
 20
4.2989445131723
 30
0.0
  0
SPLINE
  5
11D
330
A
100
AcDbEntity
  8
0
  6
solid
 62
     7
100
AcDbSpline
210
0.0
220
0.0
230
1.0
 70
     8
 71
     2
 72
     6
 73
     3
 74
     0
 42
0.0000000001
 43
0.0000000001
 40
0.0
 40
0.0
 40
0.0
 40
1.0
 40
1.0
 40
1.0
 10
3.137451075777041
 20
4.2989445131723
 30
0.0
 10
3.130684409110374
 20
4.2989445131723
 30
0.0
 10
3.125592557258523
 20
4.29567377243156
 30
0.0
  0
SPLINE
  5
11E
330
A
100
AcDbEntity
  8
0
  6
solid
 62
     7
100
AcDbSpline
210
0.0
220
0.0
230
1.0
 70
     8
 71
     2
 72
     7
 73
     4
 74
     0
 42
0.0000000001
 43
0.0000000001
 40
0.0
 40
0.0
 40
0.0
 40
1.0
 40
2.0
 40
2.0
 40
2.0
 10
3.125592557258523
 20
4.29567377243156
 30
0.0
 10
3.121294779480744
 20
4.293275994653781
 30
0.0
 10
3.113145520221486
 20
4.28282377243156
 30
0.0
 10
3.110522557258522
 20
4.275302661320448
 30
0.0
  0
SPLINE
  5
11F
330
A
100
AcDbEntity
  8
0
  6
solid
 62
     7
100
AcDbSpline
210
0.0
220
0.0
230
1.0
 70
     8
 71
     2
 72
     6
 73
     3
 74
     0
 42
0.0000000001
 43
0.0000000001
 40
0.0
 40
0.0
 40
0.0
 40
1.0
 40
1.0
 40
1.0
 10
3.110522557258522
 20
4.275302661320448
 30
0.0
 10
3.106931816517782
 20
4.266019698357485
 30
0.0
 10
3.106931816517782
 20
4.253817476135264
 30
0.0
  0
SPLINE
  5
120
330
A
100
AcDbEntity
  8
0
  6
solid
 62
     7
100
AcDbSpline
210
0.0
220
0.0
230
1.0
 70
     8
 71
     2
 72
     7
 73
     4
 74
     0
 42
0.0000000001
 43
0.0000000001
 40
0.0
 40
0.0
 40
0.0
 40
1.0
 40
2.0
 40
2.0
 40
2.0
 10
3.106931816517782
 20
4.253817476135264
 30
0.0
 10
3.106931816517782
 20
4.242859698357485
 30
0.0
 10
3.111917001702968
 20
4.226264883542672
 30
0.0
 10
3.116475520221486
 20
4.220880809468597
 30
0.0
  0
SPLINE
  5
121
330
A
100
AcDbEntity
  8
0
  6
solid
 62
     7
100
AcDbSpline
210
0.0
220
0.0
230
1.0
 70
     8
 71
     2
 72
     6
 73
     3
 74
     0
 42
0.0000000001
 43
0.0000000001
 40
0.0
 40
0.0
 40
0.0
 40
1.0
 40
1.0
 40
1.0
 10
3.116475520221486
 20
4.220880809468597
 30
0.0
 10
3.125485890591856
 20
4.210981550209337
 30
0.0
 10
3.139398483184448
 20
4.210981550209337
 30
0.0
  0
SPLINE
  5
122
330
A
100
AcDbEntity
  8
0
  6
solid
 62
     7
100
AcDbSpline
210
0.0
220
0.0
230
1.0
 70
     8
 71
     2
 72
     7
 73
     4
 74
     0
 42
0.0000000001
 43
0.0000000001
 40
0.0
 40
0.0
 40
0.0
 40
1.0
 40
2.0
 40
2.0
 40
2.0
 10
3.139398483184448
 20
4.210981550209337
 30
0.0
 10
3.146674779480745
 20
4.210981550209337
 30
0.0
 10
3.158272557258523
 20
4.215800809468596
 30
0.0
 10
3.161555149851115
 20
4.220335624283412
 30
0.0
  0
SPLINE
  5
123
330
A
100
AcDbEntity
  8
0
  6
solid
 62
     7
100
AcDbSpline
210
0.0
220
0.0
230
1.0
 70
     8
 71
     2
 72
     6
 73
     3
 74
     0
 42
0.0000000001
 43
0.0000000001
 40
0.0
 40
0.0
 40
0.0
 40
1.0
 40
1.0
 40
1.0
 10
3.161555149851115
 20
4.220335624283412
 30
0.0
 10
3.165228853554819
 20
4.225368216876004
 30
0.0
 10
3.167294779480745
 20
4.235464883542672
 30
0.0
  0
LINE
  5
124
330
A
100
AcDbEntity
  8
0
  6
solid
 62
     7
100
AcDbLine
 10
3.167295
 20
4.235465
 30
0.0
 11
3.171747
 21
4.23458
 31
0.0
  0
SPLINE
  5
125
330
A
100
AcDbEntity
  8
0
  6
solid
 62
     7
100
AcDbSpline
210
0.0
220
0.0
230
1.0
 70
     8
 71
     2
 72
     6
 73
     3
 74
     0
 42
0.0000000001
 43
0.0000000001
 40
0.0
 40
0.0
 40
0.0
 40
1.0
 40
1.0
 40
1.0
 10
3.171746631332596
 20
4.234580068727856
 30
0.0
 10
3.170107372073337
 20
4.223148216876004
 30
0.0
 10
3.165359223925189
 20
4.216334142801929
 30
0.0
  0
SPLINE
  5
126
330
A
100
AcDbEntity
  8
0
  6
solid
 62
     7
100
AcDbSpline
210
0.0
220
0.0
230
1.0
 70
     8
 71
     2
 72
     7
 73
     4
 74
     0
 42
0.0000000001
 43
0.0000000001
 40
0.0
 40
0.0
 40
0.0
 40
1.0
 40
2.0
 40
2.0
 40
2.0
 10
3.165359223925189
 20
4.216334142801929
 30
0.0
 10
3.161436631332596
 20
4.210499698357486
 30
0.0
 10
3.145304038740004
 20
4.204037105764892
 30
0.0
 10
3.134922927628892
 20
4.204037105764892
 30
0.0
  0
SPLINE
  5
127
330
A
100
AcDbEntity
  8
0
  6
solid
 62
     7
100
AcDbSpline
210
0.0
220
0.0
230
1.0
 70
     8
 71
     2
 72
     6
 73
     3
 74
     0
 42
0.0000000001
 43
0.0000000001
 40
0.0
 40
0.0
 40
0.0
 40
1.0
 40
1.0
 40
1.0
 10
3.134922927628892
 20
4.204037105764892
 30
0.0
 10
3.12563996466593
 20
4.204037105764892
 30
0.0
 10
3.116902186888153
 20
4.206671920579708
 30
0.0
  0
SPLINE
  5
128
330
A
100
AcDbEntity
  8
0
  6
solid
 62
     7
100
AcDbSpline
210
0.0
220
0.0
230
1.0
 70
     8
 71
     2
 72
     7
 73
     4
 74
     0
 42
0.0000000001
 43
0.0000000001
 40
0.0
 40
0.0
 40
0.0
 40
1.0
 40
2.0
 40
2.0
 40
2.0
 10
3.116902186888153
 20
4.206671920579708
 30
0.0
 10
3.103601816517782
 20
4.211242290950079
 30
0.0
 10
3.088413297999263
 20
4.234769698357485
 30
0.0
 10
3.088413297999263
 20
4.251490809468597
 30
0.0
  0
SPLINE
  5
129
330
A
100
AcDbEntity
  8
0
  6
solid
 62
     7
100
AcDbSpline
210
0.0
220
0.0
230
1.0
 70
     8
 71
     2
 72
     7
 73
     4
 74
     0
 42
0.0000000001
 43
0.0000000001
 40
0.0
 40
0.0
 40
0.0
 40
1.0
 40
2.0
 40
2.0
 40
2.0
 10
3.088413297999263
 20
4.251490809468597
 30
0.0
 10
3.088413297999263
 20
4.263657476135263
 30
0.0
 10
3.097048483184448
 20
4.285126735394523
 30
0.0
 10
3.105067372073337
 20
4.291352290950078
 30
0.0
  0
SPLINE
  5
12A
330
A
100
AcDbEntity
  8
0
  6
solid
 62
     7
100
AcDbSpline
210
0.0
220
0.0
230
1.0
 70
     8
 71
     2
 72
     7
 73
     4
 74
     0
 42
0.0000000001
 43
0.0000000001
 40
0.0
 40
0.0
 40
0.0
 40
1.0
 40
2.0
 40
2.0
 40
2.0
 10
3.105067372073337
 20
4.291352290950078
 30
0.0
 10
3.111103297999263
 20
4.296195253913041
 30
0.0
 10
3.128286631332596
 20
4.302416735394523
 30
0.0
 10
3.137071816517782
 20
4.302416735394523
 30
0.0
  0
SPLINE
  5
12B
330
A
100
AcDbEntity
  8
0
  6
solid
 62
     7
100
AcDbSpline
210
0.0
220
0.0
230
1.0
 70
     8
 71
     2
 72
     6
 73
     3
 74
     0
 42
0.0000000001
 43
0.0000000001
 40
0.0
 40
0.0
 40
0.0
 40
1.0
 40
1.0
 40
1.0
 10
3.137071816517782
 20
4.302416735394523
 30
0.0
 10
3.145458112814078
 20
4.302416735394523
 30
0.0
 10
3.154622557258523
 20
4.298968216876004
 30
0.0
  0
LINE
  5
12C
330
A
100
AcDbEntity
  8
0
  6
solid
 62
     7
100
AcDbLine
 10
3.154622999999999
 20
4.298968
 30
0.0
 11
3.160184
 21
4.29689
 31
0.0
  0
SPLINE
  5
12D
330
A
100
AcDbEntity
  8
0
  6
solid
 62
     7
100
AcDbSpline
210
0.0
220
0.0
230
1.0
 70
     8
 71
     2
 72
     6
 73
     3
 74
     0
 42
0.0000000001
 43
0.0000000001
 40
0.0
 40
0.0
 40
0.0
 40
1.0
 40
1.0
 40
1.0
 10
3.160184409110375
 20
4.296890439098226
 30
0.0
 10
3.16151959429556
 20
4.296124142801929
 30
0.0
 10
3.161863297999263
 20
4.296124142801929
 30
0.0
  0
SPLINE
  5
12E
330
A
100
AcDbEntity
  8
0
  6
solid
 62
     7
100
AcDbSpline
210
0.0
220
0.0
230
1.0
 70
     8
 71
     2
 72
     6
 73
     3
 74
     0
 42
0.0000000001
 43
0.0000000001
 40
0.0
 40
0.0
 40
0.0
 40
1.0
 40
1.0
 40
1.0
 10
3.161863297999263
 20
4.296124142801929
 30
0.0
 10
3.16294959429556
 20
4.296124142801929
 30
0.0
 10
3.163798853554819
 20
4.297127476135264
 30
0.0
  0
SPLINE
  5
12F
330
A
100
AcDbEntity
  8
0
  6
solid
 62
     7
100
AcDbSpline
210
0.0
220
0.0
230
1.0
 70
     8
 71
     2
 72
     6
 73
     3
 74
     0
 42
0.0000000001
 43
0.0000000001
 40
0.0
 40
0.0
 40
0.0
 40
1.0
 40
1.0
 40
1.0
 10
3.163798853554819
 20
4.297127476135264
 30
0.0
 10
3.164047742443708
 20
4.297858216876004
 30
0.0
 10
3.165051075777041
 20
4.300101920579708
 30
0.0
  0
LINE
  5
130
330
A
100
AcDbEntity
  8
0
  6
solid
 62
     7
100
AcDbLine
 10
3.168985999999999
 20
4.300101999999999
 30
0.0
 11
3.165051
 21
4.300101999999999
 31
0.0
  0
LINE
  5
131
330
A
100
AcDbEntity
  8
1
  6
solid
 62
     7
100
AcDbLine
 10
1.232562087694208
 20
1.322899909667055
 30
0.0
 11
1.232562087694208
 21
1.113414909667056
 31
0.0
  0
ARC
  5
132
330
A
100
AcDbEntity
  8
1
  6
solid
 62
     7
100
AcDbCircle
 10
1.248495087694208
 20
0.5100299096670558
 30
0.0
 40
0.6035960000000001
100
AcDbArc
 50
91.51257599999999
 51
187.6295879999999
  0
LINE
  5
133
330
A
100
AcDbEntity
  8
1
  6
solid
 62
     7
100
AcDbLine
 10
0.6502430876942081
 20
0.4298919096670558
 30
0.0
 11
0.3774860876942079
 21
0.4298919096670558
 31
0.0
  0
LINE
  5
134
330
A
100
AcDbEntity
  8
1
  6
solid
 62
     7
100
AcDbLine
 10
0.3774860876942079
 20
0.4298919096670558
 30
0.0
 11
0.3774860876942079
 21
1.090190909667055
 31
0.0
  0
LINE
  5
135
330
A
100
AcDbEntity
  8
1
  6
solid
 62
     7
100
AcDbLine
 10
2.941189087694207
 20
4.705033909667054
 30
0.0
 11
0.3774860876942079
 21
1.090190909667055
 31
0.0
  0
LINE
  5
136
330
A
100
AcDbEntity
  8
1
  6
solid
 62
     7
100
AcDbLine
 10
3.424724087694207
 20
4.705033909667054
 30
0.0
 11
2.941189087694207
 21
4.705033909667054
 31
0.0
  0
ARC
  5
137
330
A
100
AcDbEntity
  8
1
  6
solid
 62
     7
100
AcDbCircle
 10
8.633613087694207
 20
0.0901839096670558
 30
0.0
 40
7.044477
100
AcDbArc
 50
149.57735
 51
156.2585639999999
  0
ARC
  5
138
330
A
100
AcDbEntity
  8
1
  6
solid
 62
     7
100
AcDbCircle
 10
3.375793087694207
 20
2.959619909667056
 30
0.0
 40
1.07417
100
AcDbArc
 50
94.80273000000002
 51
139.493611
  0
ARC
  5
139
330
A
100
AcDbEntity
  8
1
  6
solid
 62
     7
100
AcDbCircle
 10
-0.9247989123057918
 20
3.689528909667055
 30
0.0
 40
3.202363999999999
100
AcDbArc
 50
312.351546
 51
346.212933
  0
LINE
  5
13A
330
A
100
AcDbEntity
  8
1
  6
solid
 62
     7
100
AcDbLine
 10
3.279343087694207
 20
4.025492909667056
 30
0.0
 11
3.424724087694207
 21
4.705033909667054
 31
0.0
  0
LINE
  5
13B
330
A
100
AcDbEntity
  8
1
  6
solid
 62
     7
100
AcDbLine
 10
-2.049285282940083
 20
2.73731783433713
 30
0.0
 11
-1.878411530903466
 21
2.858504162319824
 31
0.0
  0
ARC
  5
13C
330
A
100
AcDbEntity
  8
1
  6
solid
 62
     7
100
AcDbCircle
 10
-1.395456679201122
 20
3.220556547937108
 30
0.0
 40
0.6035960000000001
100
AcDbArc
 50
216.8574359999999
 51
312.9744479999999
  0
LINE
  5
13D
330
A
100
AcDbEntity
  8
1
  6
solid
 62
     7
100
AcDbLine
 10
-0.9840026666035013
 20
2.778930971158184
 30
0.0
 11
-0.8262137114917965
 21
2.556447203899185
 31
0.0
  0
LINE
  5
13E
330
A
100
AcDbEntity
  8
1
  6
solid
 62
     7
100
AcDbLine
 10
-0.8262137114917965
 20
2.556447203899185
 30
0.0
 11
-1.364809637672792
 21
2.174466579125839
 31
0.0
  0
LINE
  5
13F
330
A
100
AcDbEntity
  8
1
  6
solid
 62
     7
100
AcDbLine
 10
-5.796475575766276
 20
2.174466585396395
 30
0.0
 11
-1.364809637672792
 21
2.174466579125839
 31
0.0
  0
LINE
  5
140
330
A
100
AcDbEntity
  8
1
  6
solid
 62
     7
100
AcDbLine
 10
-6.076198854765305
 20
2.568878785272402
 30
0.0
 11
-5.796475575766276
 21
2.174466585396395
 31
0.0
  0
ARC
  5
141
330
A
100
AcDbEntity
  8
1
  6
solid
 62
     7
100
AcDbCircle
 10
-5.325259151174417
 20
9.487365230904266
 30
0.0
 40
7.044477
100
AcDbArc
 50
274.9222099999999
 51
281.6034239999999
  0
ARC
  5
142
330
A
100
AcDbEntity
  8
1
  6
solid
 62
     7
100
AcDbCircle
 10
-4.624184594786022
 20
3.538682302988136
 30
0.0
 40
1.07417
100
AcDbArc
 50
220.1475899999999
 51
264.838471
  0
ARC
  5
143
330
A
100
AcDbEntity
  8
1
  6
solid
 62
     7
100
AcDbCircle
 10
-2.731683159568933
 20
-0.3914954304542393
 30
0.0
 40
3.202363999999999
100
AcDbArc
 50
77.69640599999994
 51
111.557793
  0
LINE
  5
144
330
A
100
AcDbEntity
  8
1
  6
solid
 62
     7
100
AcDbLine
 10
-5.43780512785805
 20
2.843405751684564
 30
0.0
 11
-6.076198854765305
 21
2.568878785272402
 31
0.0
  0
LINE
  5
1BC
330
A
100
AcDbEntity
  8
0
  6
solid
 62
     7
370
     0
100
AcDbLine
 10
-6.176541669864572
 20
2.174466609954833
 30
0.0
 11
-6.776906986340393
 21
2.174466609954834
 31
0.0
  0
LINE
  5
1BD
330
A
100
AcDbEntity
  8
0
  6
solid
 62
     7
370
     0
100
AcDbLine
 10
-5.570265293121337
 20
2.846101760864257
 30
0.0
 11
-6.776906986340393
 21
2.846101760864258
 31
0.0
  0
LINE
  5
1BE
330
A
100
AcDbEntity
  8
0
  6
solid
 62
     7
370
     0
100
AcDbLine
 10
-6.714406986340393
 20
2.174466609954834
 30
0.0
 11
-6.714406986340393
 21
2.510284185409546
 31
0.0
  0
LINE
  5
1BF
330
A
100
AcDbEntity
  8
0
  6
solid
 62
     7
370
     0
100
AcDbLine
 10
-6.714406986340393
 20
2.846101760864258
 30
0.0
 11
-6.714406986340393
 21
2.510284185409546
 31
0.0
  0
MTEXT
  5
1C0
330
A
100
AcDbEntity
  8
0
  6
solid
 62
     7
370
     0
100
AcDbMText
 10
-7.103869486340393
 20
2.510284185409546
 30
0.0
 40
0.125
 41
0.0
 71
     5
 72
     1
  1
{\H0.125000;11/16}
 73
     1
 44
1.0
  0
SOLID
  5
1C1
330
A
100
AcDbEntity
  8
0
  6
solid
 62
     7
370
     0
100
AcDbTrace
 10
-6.735221986340392
 20
2.299466609954834
 30
0.0
 11
-6.693591986340392
 21
2.299466609954834
 31
0.0
 12
-6.714406986340393
 22
2.174466609954834
 32
0.0
 13
-6.714406986340393
 23
2.174466609954834
 33
0.0
  0
SOLID
  5
1C2
330
A
100
AcDbEntity
  8
0
  6
solid
 62
     7
370
     0
100
AcDbTrace
 10
-6.693591986340392
 20
2.721101760864258
 30
0.0
 11
-6.735221986340392
 21
2.721101760864258
 31
0.0
 12
-6.714406986340393
 22
2.846101760864258
 32
0.0
 13
-6.714406986340393
 23
2.846101760864258
 33
0.0
  0
LINE
  5
1C5
330
A
100
AcDbEntity
  8
0
  6
solid
 62
     7
370
     0
100
AcDbLine
 10
-6.076199054718017
 20
2.000668102356667
 30
0.0
 11
-6.076199054718017
 21
1.378680923008339
 31
0.0
  0
LINE
  5
1C6
330
A
100
AcDbEntity
  8
0
  6
solid
 62
     7
370
     0
100
AcDbLine
 10
-0.8262137174606323
 20
2.431447267532348
 30
0.0
 11
-0.8262137174606323
 21
1.378680923008339
 31
0.0
  0
LINE
  5
1C7
330
A
100
AcDbEntity
  8
0
  6
solid
 62
     7
370
     0
100
AcDbLine
 10
-6.076199054718017
 20
1.441180923008339
 30
0.0
 11
-3.451206386089324
 21
1.441180923008339
 31
0.0
  0
LINE
  5
1C8
330
A
100
AcDbEntity
  8
0
  6
solid
 62
     7
370
     0
100
AcDbLine
 10
-0.8262137174606323
 20
1.441180923008339
 30
0.0
 11
-3.451206386089324
 21
1.441180923008339
 31
0.0
  0
MTEXT
  5
1C9
330
A
100
AcDbEntity
  8
0
  6
solid
 62
     7
370
     0
100
AcDbMText
 10
-3.451206386089324
 20
1.544766019162186
 30
0.0
 40
0.125
 41
0.0
 71
     5
 72
     1
  1
{\H0.125000;5 1/4}
 73
     1
 44
1.0
  0
SOLID
  5
1CA
330
A
100
AcDbEntity
  8
0
  6
solid
 62
     7
370
     0
100
AcDbTrace
 10
-5.951199054718017
 20
1.461995923008339
 30
0.0
 11
-5.951199054718017
 21
1.420365923008339
 31
0.0
 12
-6.076199054718017
 22
1.441180923008339
 32
0.0
 13
-6.076199054718017
 23
1.441180923008339
 33
0.0
  0
SOLID
  5
1CB
330
A
100
AcDbEntity
  8
0
  6
solid
 62
     7
370
     0
100
AcDbTrace
 10
-0.9512137174606323
 20
1.420365923008339
 30
0.0
 11
-0.9512137174606323
 21
1.461995923008339
 31
0.0
 12
-0.8262137174606323
 22
1.441180923008339
 32
0.0
 13
-0.8262137174606323
 23
1.441180923008339
 33
0.0
  0
LINE
  5
1D3
330
A
100
AcDbEntity
  8
1
  6
solid
 62
     7
370
     0
100
AcDbLine
 10
0.252486
 20
0.4298920000000001
 30
0.0
 11
0.1297279999999985
 21
0.4298920000000003
 31
0.0
  0
LINE
  5
1D4
330
A
100
AcDbEntity
  8
1
  6
solid
 62
     7
370
     0
100
AcDbLine
 10
0.3082766794756822
 20
4.705033999999999
 30
0.0
 11
0.1297280000000016
 21
4.705034000000001
 31
0.0
  0
LINE
  5
1D5
330
A
100
AcDbEntity
  8
1
  6
solid
 62
     7
370
     0
100
AcDbLine
 10
0.1922279999999985
 20
0.4298920000000002
 30
0.0
 11
0.1922279999999999
 21
2.407590403846154
 31
0.0
  0
LINE
  5
1D6
330
A
100
AcDbEntity
  8
1
  6
solid
 62
     7
370
     0
100
AcDbLine
 10
0.1922280000000016
 20
4.705034000000001
 30
0.0
 11
0.1922280000000001
 21
2.727335596153846
 31
0.0
  0
MTEXT
  5
1D7
330
A
100
AcDbEntity
  8
1
  6
solid
 62
     7
370
     0
100
AcDbMText
 10
0.192228
 20
2.567463
 30
0.0
 40
0.125
 41
0.0
 71
     5
 72
     1
  1
{\H0.125000;4 1/4}
 73
     1
 44
1.0
  0
SOLID
  5
1D8
330
A
100
AcDbEntity
  8
1
  6
solid
 62
     7
370
     0
100
AcDbTrace
 10
0.1714154999999986
 20
0.5548920000010003
 30
0.0
 11
0.2130404999999987
 21
0.5548920000010002
 31
0.0
 12
0.1922279999999985
 22
0.4298920000000002
 32
0.0
 13
0.1922279999999985
 23
0.4298920000000002
 33
0.0
  0
SOLID
  5
1D9
330
A
100
AcDbEntity
  8
1
  6
solid
 62
     7
370
     0
100
AcDbTrace
 10
0.2130405000000015
 20
4.580033999999001
 30
0.0
 11
0.1714155000000015
 21
4.580033999999001
 31
0.0
 12
0.1922280000000016
 22
4.705034000000001
 32
0.0
 13
0.1922280000000016
 23
4.705034000000001
 33
0.0
  0
LINE
  5
1DA
330
A
100
AcDbEntity
  8
1
  6
solid
 62
     7
370
     0
100
AcDbLine
 10
0.3774859999999998
 20
4.77082946259129
 30
0.0
 11
0.377486
 21
4.955454403846152
 31
0.0
  0
LINE
  5
1DC
330
A
100
AcDbEntity
  8
1
  6
solid
 62
     7
370
     0
100
AcDbLine
 10
0.377486
 20
4.892954403846152
 30
0.0
 11
1.780354999999999
 21
4.892954403846152
 31
0.0
  0
LINE
  5
1DD
330
A
100
AcDbEntity
  8
1
  6
solid
 62
     7
370
     0
100
AcDbLine
 10
3.424723999999999
 20
4.892954403846152
 30
0.0
 11
2.021854999999999
 21
4.892954403846152
 31
0.0
  0
MTEXT
  5
1DE
330
A
100
AcDbEntity
  8
1
  6
solid
 62
     7
370
     0
100
AcDbMText
 10
1.901105
 20
4.892954403846152
 30
0.0
 40
0.125
 41
0.0
 71
     5
 72
     1
  1
{\H0.125000;3}
 73
     1
 44
1.0
  0
SOLID
  5
1DF
330
A
100
AcDbEntity
  8
1
  6
solid
 62
     7
370
     0
100
AcDbTrace
 10
0.502486000001
 20
4.913766903846152
 30
0.0
 11
0.502486000001
 21
4.872141903846152
 31
0.0
 12
0.377486
 22
4.892954403846152
 32
0.0
 13
0.377486
 23
4.892954403846152
 33
0.0
  0
SOLID
  5
1E0
330
A
100
AcDbEntity
  8
1
  6
solid
 62
     7
370
     0
100
AcDbTrace
 10
3.299723999998999
 20
4.872141903846152
 30
0.0
 11
3.299723999998999
 21
4.913766903846152
 31
0.0
 12
3.424723999999999
 22
4.892954403846152
 32
0.0
 13
3.424723999999999
 23
4.892954403846152
 33
0.0
  0
LINE
  5
1E1
330
A
100
AcDbEntity
  8
1
  6
solid
 62
     7
370
     0
100
AcDbLine
 10
3.424723999999999
 20
4.77082946259129
 30
0.0
 11
3.424724
 21
4.955454403846152
 31
0.0
  0
VIEWPORT
  5
178
330
B
100
AcDbEntity
 67
     1
  8
0
  6
Continuous
370
     0
100
AcDbViewport
 10
5.187012108692978
 20
3.951240450931923
 30
0.0
 40
15.27516823510626
 41
8.082183608803626
 68
     1
 69
     1
 12
5.187012108692978
 22
3.951240450931923
 13
0.0
 23
0.0
 14
0.5
 24
0.5
 15
0.5
 25
0.5
 16
0.0
 26
0.0
 36
1.0
 17
0.0
 27
0.0
 37
0.0
 42
50.0
 43
0.0
 44
0.0
 45
8.082183608803626
 50
0.0
 51
0.0
 72
   100
 90
   819232
  1

281
     0
 71
     1
 74
     0
110
0.0
120
0.0
130
0.0
111
1.0
121
0.0
131
0.0
112
0.0
122
1.0
132
0.0
 79
     0
146
0.0
170
     0
  0
VIEWPORT
  5
17B
330
B
100
AcDbEntity
 67
     1
  8
0
  6
Continuous
370
     0
100
AcDbViewport
 10
5.187037609839677
 20
3.951116626858965
 30
0.0
 40
10.51917895085643
 41
7.987899799036625
 68
     2
 69
     2
 12
-1.709977597238563
 22
2.301749543904792
 13
0.0
 23
0.0
 14
0.5
 24
0.5
 15
0.5
 25
0.5
 16
0.0
 26
0.0
 36
1.0
 17
0.0
 27
0.0
 37
0.0
 42
50.0
 43
0.0
 44
0.0
 45
10.94904104081644
 50
0.0
 51
0.0
 72
   100
 90
   819232
  1

281
     0
 71
     1
 74
     0
110
0.0
120
0.0
130
0.0
111
1.0
121
0.0
131
0.0
112
0.0
122
1.0
132
0.0
 79
     0
146
0.0
170
     0
  0
ENDSEC
  0
SECTION
  2
OBJECTS
  0
DICTIONARY
  5
19
330
0
100
AcDbDictionary
281
     1
  3
ACAD_COLOR
350
171
  3
ACAD_GROUP
350
1A
  3
ACAD_LAYOUT
350
1E
  3
ACAD_MATERIAL
350
15C
  3
ACAD_MLEADERSTYLE
350
1A5
  3
ACAD_MLINESTYLE
350
1B
  3
ACAD_PLOTSETTINGS
350
22
  3
ACAD_PLOTSTYLENAME
350
1F
  3
ACAD_SCALELIST
350
183
  3
ACAD_TABLESTYLE
350
172
  3
ACAD_VISUALSTYLE
350
160
  3
ACAD_WIPEOUT_VARS
350
23
  3
ACDB_RECOMPOSE_DATA
350
1F8
  3
AcDbVariableDictionary
350
180
  3
ASE_INDEX_DICTIONARY
350
17D
  0
DICTIONARY
  5
1AE
330
14
100
AcDbDictionary
280
     1
281
     1
  3
ADSK_XREC_LAYER_RECONCILED
360
1AF
  0
DICTIONARY
  5
1B0
330
27
100
AcDbDictionary
280
     1
281
     1
  3
ADSK_XREC_LAYER_RECONCILED
360
1B1
  0
DICTIONARY
  5
1B2
330
AB
100
AcDbDictionary
280
     1
281
     1
  3
ADSK_XREC_LAYER_RECONCILED
360
1B3
  0
DICTIONARY
  5
1C3
330
A
100
AcDbDictionary
280
     1
281
     1
  3
ACAD_SORTENTS
360
1C4
  0
DICTIONARY
  5
171
102
{ACAD_REACTORS
330
19
102
}
330
19
100
AcDbDictionary
281
     1
  0
DICTIONARY
  5
1A
102
{ACAD_REACTORS
330
19
102
}
330
19
100
AcDbDictionary
281
     1
  0
DICTIONARY
  5
1E
102
{ACAD_REACTORS
330
19
102
}
330
19
100
AcDbDictionary
281
     1
  3
Layout1
350
21
  3
Model
350
20
  0
DICTIONARY
  5
15C
102
{ACAD_REACTORS
330
19
102
}
330
19
100
AcDbDictionary
281
     1
  3
ByBlock
350
15E
  3
ByLayer
350
15D
  3
Global
350
15F
  0
DICTIONARY
  5
1A5
102
{ACAD_REACTORS
330
19
102
}
330
19
100
AcDbDictionary
281
     1
  3
Standard
350
1A6
  0
DICTIONARY
  5
1B
102
{ACAD_REACTORS
330
19
102
}
330
19
100
AcDbDictionary
281
     1
  3
Standard
350
1C
  0
DICTIONARY
  5
22
102
{ACAD_REACTORS
330
19
102
}
330
19
100
AcDbDictionary
281
     1
  0
ACDBDICTIONARYWDFLT
  5
1F
102
{ACAD_REACTORS
330
19
102
}
330
19
100
AcDbDictionary
281
     1
  3
Normal
350
1D
100
AcDbDictionaryWithDefault
340
1D
  0
DICTIONARY
  5
183
102
{ACAD_REACTORS
330
19
102
}
330
19
100
AcDbDictionary
281
     1
  3
A0
350
184
  3
A1
350
185
  3
A2
350
186
  3
A3
350
187
  3
A4
350
188
  3
A5
350
189
  3
A6
350
18A
  3
A7
350
18B
  3
A8
350
18C
  3
A9
350
18D
  3
B0
350
18E
  3
B1
350
18F
  3
B2
350
190
  3
B3
350
191
  3
B4
350
192
  3
B5
350
193
  3
B6
350
194
  3
B7
350
195
  3
B8
350
196
  3
B9
350
197
  3
C0
350
198
  3
C1
350
199
  3
C2
350
19A
  3
C3
350
19B
  3
C4
350
19C
  3
C5
350
19D
  3
C6
350
19E
  3
C7
350
19F
  3
C8
350
1A0
  3
C9
350
1A1
  3
D0
350
1A2
  3
D1
350
1A3
  3
D2
350
1A4
  0
DICTIONARY
  5
172
102
{ACAD_REACTORS
330
19
102
}
330
19
100
AcDbDictionary
281
     1
  3
Standard
350
173
  0
DICTIONARY
  5
160
102
{ACAD_REACTORS
330
19
102
}
330
19
100
AcDbDictionary
281
     1
  3
2dWireframe
350
166
  3
3D Hidden
350
168
  3
3dWireframe
350
167
  3
Basic
350
165
  3
Brighten
350
16C
  3
ColorChange
350
170
  3
Conceptual
350
169
  3
Dim
350
16B
  3
Facepattern
350
16F
  3
Flat
350
161
  3
FlatWithEdges
350
162
  3
Gouraud
350
163
  3
GouraudWithEdges
350
164
  3
Linepattern
350
16E
  3
Realistic
350
16A
  3
Thicken
350
16D
  0
WIPEOUTVARIABLES
  5
23
330
19
100
AcDbWipeoutVariables
 70
     1
  0
XRECORD
  5
1F8
102
{ACAD_REACTORS
330
19
102
}
330
19
100
AcDbXrecord
280
     1
 90
        1
330
173
  0
DICTIONARY
  5
180
102
{ACAD_REACTORS
330
19
102
}
330
19
100
AcDbDictionary
281
     1
  3
CANNOSCALE
350
1F5
  3
CMLEADERSTYLE
350
1F4
  3
CTABLESTYLE
350
181
  0
DICTIONARY
  5
17D
102
{ACAD_REACTORS
330
19
102
}
330
19
100
AcDbDictionary
281
     1
  3
ASEBlockHierarchyIndexRecord
350
17F
1001
DCO15
1040
1645027138.386
  0
XRECORD
  5
1AF
102
{ACAD_REACTORS
330
1AE
102
}
330
1AE
100
AcDbXrecord
280
     1
290
     1
  0
XRECORD
  5
1B1
102
{ACAD_REACTORS
330
1B0
102
}
330
1B0
100
AcDbXrecord
280
     1
290
     1
  0
XRECORD
  5
1B3
102
{ACAD_REACTORS
330
1B2
102
}
330
1B2
100
AcDbXrecord
280
     1
290
     1
  0
SORTENTSTABLE
  5
1C4
102
{ACAD_REACTORS
330
1C3
102
}
330
1C3
100
AcDbSortentsTable
330
A
331
1CA
  5
1DF
331
B9
  5
C7
331
117
  5
125
331
F5
  5
103
331
DB
  5
E9
331
139
  5
1BD
331
CA
  5
D8
331
128
  5
136
331
106
  5
114
331
EC
  5
FA
331
86
  5
86
331
6C
  5
6C
331
4A
  5
4A
331
5B
  5
5B
331
39
  5
39
331
28
  5
28
331
1C8
  5
1DD
331
137
  5
15A
331
115
  5
123
331
F3
  5
101
331
D9
  5
E7
331
C8
  5
D6
331
126
  5
134
331
104
  5
112
331
EA
  5
F8
331
1D9
  5
B9
331
84
  5
84
331
6A
  5
6A
331
48
  5
48
331
B7
  5
C5
331
59
  5
59
331
37
  5
37
331
135
  5
143
331
113
  5
121
331
F1
  5
FF
331
1E0
  5
B2
331
C6
  5
D4
331
124
  5
132
331
102
  5
110
331
E8
  5
F6
331
1D7
  5
B7
331
82
  5
82
331
68
  5
68
331
46
  5
46
331
1C6
  5
1DB
331
B5
  5
C3
331
D7
  5
E5
331
93
  5
93
331
57
  5
57
331
35
  5
35
331
133
  5
141
331
111
  5
11F
331
C4
  5
D2
331
122
  5
130
331
100
  5
10E
331
E6
  5
F4
331
1D5
  5
B5
331
80
  5
80
331
66
  5
66
331
44
  5
44
331
144
  5
1CB
331
D5
  5
E3
331
B3
  5
C1
331
91
  5
91
331
77
  5
77
331
55
  5
55
331
33
  5
33
331
131
  5
13F
331
C2
  5
D0
331
120
  5
12E
331
FE
  5
10C
331
E4
  5
F2
331
1D3
  5
B3
331
7E
  5
7E
331
64
  5
64
331
42
  5
42
331
142
  5
1C9
331
1C2
  5
1D9
331
B1
  5
BF
331
10F
  5
11D
331
D3
  5
E1
331
8F
  5
8F
331
75
  5
75
331
53
  5
53
331
31
  5
31
331
11E
  5
12C
331
FC
  5
10A
331
E2
  5
F0
331
C0
  5
CE
331
7C
  5
7C
331
62
  5
62
331
40
  5
40
331
140
  5
1C7
331
1C0
  5
1D7
331
AF
  5
BD
331
12F
  5
13D
331
10D
  5
11B
331
D1
  5
DF
331
8D
  5
8D
331
73
  5
73
331
51
  5
51
331
2F
  5
2F
331
11C
  5
12A
331
FA
  5
108
331
E0
  5
EE
331
BE
  5
CC
331
7A
  5
7A
331
60
  5
60
331
13E
  5
1C5
331
1BE
  5
1D5
331
AD
  5
BB
331
12D
  5
13B
331
10B
  5
119
331
CF
  5
DD
331
8B
  5
8B
331
71
  5
71
331
4F
  5
4F
331
3E
  5
3E
331
2D
  5
2D
331
11A
  5
128
331
F8
  5
106
331
DE
  5
EC
331
BC
  5
CA
331
78
  5
78
331
13C
  5
1C0
331
1BC
  5
1D3
331
CD
  5
DB
331
12B
  5
139
331
109
  5
117
331
EF
  5
FD
331
1DE
  5
B0
331
89
  5
89
331
6F
  5
6F
331
4D
  5
4D
331
5E
  5
5E
331
3C
  5
3C
331
2B
  5
2B
331
1CB
  5
1E0
331
BA
  5
C8
331
118
  5
126
331
F6
  5
104
331
DC
  5
EA
331
13A
  5
1BE
331
CB
  5
D9
331
129
  5
137
331
107
  5
115
331
ED
  5
FB
331
1DC
  5
AE
331
87
  5
87
331
6D
  5
6D
331
4B
  5
4B
331
5C
  5
5C
331
3A
  5
3A
331
29
  5
29
331
1C9
  5
1DE
331
B8
  5
C6
331
138
  5
1BC
331
116
  5
124
331
F4
  5
102
331
DA
  5
E8
331
C9
  5
D7
331
127
  5
135
331
105
  5
113
331
EB
  5
F9
331
1DA
  5
AC
331
85
  5
85
331
6B
  5
6B
331
49
  5
49
331
5A
  5
5A
331
38
  5
38
331
136
  5
144
331
114
  5
122
331
F2
  5
100
331
D8
  5
E6
331
C7
  5
D5
331
125
  5
133
331
103
  5
111
331
E9
  5
F7
331
1D8
  5
B8
331
83
  5
83
331
69
  5
69
331
47
  5
47
331
1C7
  5
1DC
331
B6
  5
C4
331
94
  5
94
331
58
  5
58
331
36
  5
36
331
134
  5
142
331
112
  5
120
331
F0
  5
FE
331
C5
  5
D3
331
123
  5
131
331
101
  5
10F
331
E7
  5
F5
331
1D6
  5
B6
331
81
  5
81
331
67
  5
67
331
45
  5
45
331
1C5
  5
1DA
331
B4
  5
C2
331
D6
  5
E4
331
92
  5
92
331
56
  5
56
331
34
  5
34
331
132
  5
140
331
110
  5
11E
331
C3
  5
D1
331
121
  5
12F
331
FF
  5
10D
331
E5
  5
F3
331
1D4
  5
B4
331
7F
  5
7F
331
65
  5
65
331
43
  5
43
331
143
  5
1CA
331
D4
  5
E2
331
B2
  5
C0
331
90
  5
90
331
76
  5
76
331
54
  5
54
331
32
  5
32
331
130
  5
13E
331
11F
  5
12D
331
FD
  5
10B
331
E3
  5
F1
331
C1
  5
CF
331
7D
  5
7D
331
63
  5
63
331
41
  5
41
331
141
  5
1C8
331
1C1
  5
1D8
331
B0
  5
BE
331
10E
  5
11C
331
D2
  5
E0
331
8E
  5
8E
331
74
  5
74
331
52
  5
52
331
30
  5
30
331
11D
  5
12B
331
FB
  5
109
331
E1
  5
EF
331
BF
  5
CD
331
7B
  5
7B
331
61
  5
61
331
13F
  5
1C6
331
1BF
  5
1D6
331
AE
  5
BC
331
12E
  5
13C
331
10C
  5
11A
331
D0
  5
DE
331
8C
  5
8C
331
72
  5
72
331
50
  5
50
331
3F
  5
3F
331
2E
  5
2E
331
11B
  5
129
331
F9
  5
107
331
DF
  5
ED
331
BD
  5
CB
331
79
  5
79
331
13D
  5
1C1
331
1BD
  5
1D4
331
AC
  5
BA
331
CE
  5
DC
331
12C
  5
13A
331
10A
  5
118
331
1DF
  5
B1
331
8A
  5
8A
331
70
  5
70
331
4E
  5
4E
331
5F
  5
5F
331
3D
  5
3D
331
2C
  5
2C
331
119
  5
127
331
F7
  5
105
331
DD
  5
EB
331
BB
  5
C9
331
13B
  5
1BF
331
CC
  5
DA
331
12A
  5
138
331
108
  5
116
331
EE
  5
FC
331
1DD
  5
AF
331
88
  5
88
331
6E
  5
6E
331
4C
  5
4C
331
5D
  5
5D
331
3B
  5
3B
331
2A
  5
2A
  0
LAYOUT
  5
21
102
{ACAD_REACTORS
330
1E
102
}
330
1E
100
AcDbPlotSettings
  1

  2
Foxit PDF Printer
  4
Letter
  6

 40
3.174999952316284
 41
3.174999952316284
 42
3.17498779296875
 43
3.175003051757812
 44
279.3999938964844
 45
215.8999938964844
 46
31.47715384821894
 47
24.12875752349356
 48
0.0
 49
0.0
140
0.0
141
0.0
142
1.0
143
1.0
 70
     4
 72
     0
 73
     0
 74
     1
  7

 75
     0
147
1.0
 76
     0
 77
     2
 78
   300
148
-26.25461124795212
149
-20.16000981431432
100
AcDbLayout
  1
Layout1
 70
     0
 71
     1
 10
-0.3306119115190196
 20
-0.2812499079328949
 11
10.66938784818509
 21
8.218749851771214
 12
0.0
 22
0.0
 32
0.0
 14
-0.0733027175222354
 24
-0.0428619138838222
 34
-0.0015258207003583
 15
10.44732693490819
 25
7.945342815747668
 35
0.0000000349246037
146
0.0
 13
0.0
 23
0.0
 33
0.0
 16
1.0
 26
0.0
 36
0.0
 17
0.0
 27
1.0
 37
0.0
 76
     0
330
B
331
178
1001
ACAD_PSEXT
1000
Foxit PDF Printer
1000
Foxit PDF Printer Driver
1000
FOXIT_PDF
1000

1070
     0
  0
LAYOUT
  5
20
102
{ACAD_REACTORS
330
1E
102
}
330
1E
100
AcDbPlotSettings
  1

  2

  4

  6

 40
0.0
 41
0.0
 42
0.0
 43
0.0
 44
0.0
 45
0.0
 46
0.0
 47
0.0
 48
0.0
 49
0.0
140
0.0
141
0.0
142
1.0
143
1.0
 70
  1024
 72
     0
 73
     0
 74
     0
  7

 75
     0
147
1.0
 76
     0
 77
     2
 78
   300
148
0.0
149
0.0
100
AcDbLayout
  1
Model
 70
     0
 71
     0
 10
0.0
 20
0.0
 11
0.0
 21
0.0
 12
0.0
 22
0.0
 32
0.0
 14
0.0
 24
0.0
 34
0.0
 15
0.0
 25
0.0
 35
0.0
146
0.0
 13
0.0
 23
0.0
 33
0.0
 16
0.0
 26
0.0
 36
0.0
 17
0.0
 27
0.0
 37
0.0
 76
     0
330
A
  0
MATERIAL
  5
15E
102
{ACAD_XDICTIONARY
360
1FB
102
}
102
{ACAD_REACTORS
330
15C
102
}
330
15C
100
AcDbMaterial
  1
ByBlock
 73
     1
 78
     1
172
     1
176
     1
270
     1
274
     1
  0
MATERIAL
  5
15D
102
{ACAD_XDICTIONARY
360
1F9
102
}
102
{ACAD_REACTORS
330
15C
102
}
330
15C
100
AcDbMaterial
  1
ByLayer
 73
     1
 78
     1
172
     1
176
     1
270
     1
274
     1
  0
MATERIAL
  5
15F
102
{ACAD_XDICTIONARY
360
1FD
102
}
102
{ACAD_REACTORS
330
15C
102
}
330
15C
100
AcDbMaterial
  1
Global
 73
     1
 78
     1
172
     1
176
     1
270
     1
274
     1
  0
MLEADERSTYLE
  5
1A6
102
{ACAD_REACTORS
330
1A5
102
}
330
1A5
100
AcDbMLeaderStyle
170
     2
171
     1
172
     0
 90
        2
 40
0.0
 41
0.0
173
     1
 91
-1056964608
340
11
 92
       -2
290
     1
 42
0.09
291
     1
 43
0.36
  3
Standard
 44
0.18
300

342
17
174
     1
178
     6
175
     1
176
     0
 93
-1056964608
 45
0.18
292
     0
297
     0
 46
0.18
 94
-1056964608
 47
1.0
 49
1.0
140
1.0
293
     1
141
0.0
294
     1
177
     0
142
1.0
295
     0
296
     0
143
0.125
1001
ACAD_MLEADERVER
1070
     2
  0
MLINESTYLE
  5
1C
102
{ACAD_REACTORS
330
1B
102
}
330
1B
100
AcDbMlineStyle
  2
STANDARD
 70
     0
  3

 62
     0
 51
90.0
 52
90.0
 71
     2
 49
0.5
 62
   256
  6
BYLAYER
 49
-0.5
 62
   256
  6
BYLAYER
  0
ACDBPLACEHOLDER
  5
1D
102
{ACAD_REACTORS
330
1F
102
}
330
1F
  0
SCALE
  5
184
102
{ACAD_REACTORS
330
183
102
}
330
183
100
AcDbScale
 70
     0
300
1:1
140
1.0
141
1.0
290
     1
  0
SCALE
  5
185
102
{ACAD_REACTORS
330
183
102
}
330
183
100
AcDbScale
 70
     0
300
1:2
140
1.0
141
2.0
290
     0
  0
SCALE
  5
186
102
{ACAD_REACTORS
330
183
102
}
330
183
100
AcDbScale
 70
     0
300
1:4
140
1.0
141
4.0
290
     0
  0
SCALE
  5
187
102
{ACAD_REACTORS
330
183
102
}
330
183
100
AcDbScale
 70
     0
300
1:5
140
1.0
141
5.0
290
     0
  0
SCALE
  5
188
102
{ACAD_REACTORS
330
183
102
}
330
183
100
AcDbScale
 70
     0
300
1:8
140
1.0
141
8.0
290
     0
  0
SCALE
  5
189
102
{ACAD_REACTORS
330
183
102
}
330
183
100
AcDbScale
 70
     0
300
1:10
140
1.0
141
10.0
290
     0
  0
SCALE
  5
18A
102
{ACAD_REACTORS
330
183
102
}
330
183
100
AcDbScale
 70
     0
300
1:16
140
1.0
141
16.0
290
     0
  0
SCALE
  5
18B
102
{ACAD_REACTORS
330
183
102
}
330
183
100
AcDbScale
 70
     0
300
1:20
140
1.0
141
20.0
290
     0
  0
SCALE
  5
18C
102
{ACAD_REACTORS
330
183
102
}
330
183
100
AcDbScale
 70
     0
300
1:30
140
1.0
141
30.0
290
     0
  0
SCALE
  5
18D
102
{ACAD_REACTORS
330
183
102
}
330
183
100
AcDbScale
 70
     0
300
1:40
140
1.0
141
40.0
290
     0
  0
SCALE
  5
18E
102
{ACAD_REACTORS
330
183
102
}
330
183
100
AcDbScale
 70
     0
300
1:50
140
1.0
141
50.0
290
     0
  0
SCALE
  5
18F
102
{ACAD_REACTORS
330
183
102
}
330
183
100
AcDbScale
 70
     0
300
1:100
140
1.0
141
100.0
290
     0
  0
SCALE
  5
190
102
{ACAD_REACTORS
330
183
102
}
330
183
100
AcDbScale
 70
     0
300
2:1
140
2.0
141
1.0
290
     0
  0
SCALE
  5
191
102
{ACAD_REACTORS
330
183
102
}
330
183
100
AcDbScale
 70
     0
300
4:1
140
4.0
141
1.0
290
     0
  0
SCALE
  5
192
102
{ACAD_REACTORS
330
183
102
}
330
183
100
AcDbScale
 70
     0
300
8:1
140
8.0
141
1.0
290
     0
  0
SCALE
  5
193
102
{ACAD_REACTORS
330
183
102
}
330
183
100
AcDbScale
 70
     0
300
10:1
140
10.0
141
1.0
290
     0
  0
SCALE
  5
194
102
{ACAD_REACTORS
330
183
102
}
330
183
100
AcDbScale
 70
     0
300
100:1
140
100.0
141
1.0
290
     0
  0
SCALE
  5
195
102
{ACAD_REACTORS
330
183
102
}
330
183
100
AcDbScale
 70
     0
300
1/128" = 1'-0"
140
0.0078125
141
12.0
290
     0
  0
SCALE
  5
196
102
{ACAD_REACTORS
330
183
102
}
330
183
100
AcDbScale
 70
     0
300
1/64" = 1'-0"
140
0.015625
141
12.0
290
     0
  0
SCALE
  5
197
102
{ACAD_REACTORS
330
183
102
}
330
183
100
AcDbScale
 70
     0
300
1/32" = 1'-0"
140
0.03125
141
12.0
290
     0
  0
SCALE
  5
198
102
{ACAD_REACTORS
330
183
102
}
330
183
100
AcDbScale
 70
     0
300
1/16" = 1'-0"
140
0.0625
141
12.0
290
     0
  0
SCALE
  5
199
102
{ACAD_REACTORS
330
183
102
}
330
183
100
AcDbScale
 70
     0
300
3/32" = 1'-0"
140
0.09375
141
12.0
290
     0
  0
SCALE
  5
19A
102
{ACAD_REACTORS
330
183
102
}
330
183
100
AcDbScale
 70
     0
300
1/8" = 1'-0"
140
0.125
141
12.0
290
     0
  0
SCALE
  5
19B
102
{ACAD_REACTORS
330
183
102
}
330
183
100
AcDbScale
 70
     0
300
3/16" = 1'-0"
140
0.1875
141
12.0
290
     0
  0
SCALE
  5
19C
102
{ACAD_REACTORS
330
183
102
}
330
183
100
AcDbScale
 70
     0
300
1/4" = 1'-0"
140
0.25
141
12.0
290
     0
  0
SCALE
  5
19D
102
{ACAD_REACTORS
330
183
102
}
330
183
100
AcDbScale
 70
     0
300
3/8" = 1'-0"
140
0.375
141
12.0
290
     0
  0
SCALE
  5
19E
102
{ACAD_REACTORS
330
183
102
}
330
183
100
AcDbScale
 70
     0
300
1/2" = 1'-0"
140
0.5
141
12.0
290
     0
  0
SCALE
  5
19F
102
{ACAD_REACTORS
330
183
102
}
330
183
100
AcDbScale
 70
     0
300
3/4" = 1'-0"
140
0.75
141
12.0
290
     0
  0
SCALE
  5
1A0
102
{ACAD_REACTORS
330
183
102
}
330
183
100
AcDbScale
 70
     0
300
1" = 1'-0"
140
1.0
141
12.0
290
     0
  0
SCALE
  5
1A1
102
{ACAD_REACTORS
330
183
102
}
330
183
100
AcDbScale
 70
     0
300
1-1/2" = 1'-0"
140
1.5
141
12.0
290
     0
  0
SCALE
  5
1A2
102
{ACAD_REACTORS
330
183
102
}
330
183
100
AcDbScale
 70
     0
300
3" = 1'-0"
140
3.0
141
12.0
290
     0
  0
SCALE
  5
1A3
102
{ACAD_REACTORS
330
183
102
}
330
183
100
AcDbScale
 70
     0
300
6" = 1'-0"
140
6.0
141
12.0
290
     0
  0
SCALE
  5
1A4
102
{ACAD_REACTORS
330
183
102
}
330
183
100
AcDbScale
 70
     0
300
1'-0" = 1'-0"
140
12.0
141
12.0
290
     0
  0
TABLESTYLE
  5
173
102
{ACAD_XDICTIONARY
360
1F6
102
}
102
{ACAD_REACTORS
330
172
102
}
330
172
100
AcDbTableStyle
  3
Standard
 70
     0
 71
     0
 40
0.06
 41
0.06
280
     0
281
     0
  7
Standard
140
0.18
170
     2
 62
     0
 63
     7
283
     0
274
    -2
284
     1
 64
     0
275
    -2
285
     1
 65
     0
276
    -2
286
     1
 66
     0
277
    -2
287
     1
 67
     0
278
    -2
288
     1
 68
     0
279
    -2
289
     1
 69
     0
  7
Standard
140
0.25
170
     5
 62
     0
 63
     7
283
     0
274
    -2
284
     1
 64
     0
275
    -2
285
     1
 65
     0
276
    -2
286
     1
 66
     0
277
    -2
287
     1
 67
     0
278
    -2
288
     1
 68
     0
279
    -2
289
     1
 69
     0
  7
Standard
140
0.18
170
     5
 62
     0
 63
     7
283
     0
274
    -2
284
     1
 64
     0
275
    -2
285
     1
 65
     0
276
    -2
286
     1
 66
     0
277
    -2
287
     1
 67
     0
278
    -2
288
     1
 68
     0
279
    -2
289
     1
 69
     0
  0
VISUALSTYLE
  5
166
102
{ACAD_REACTORS
330
160
102
}
330
160
100
AcDbVisualStyle
  2
2dWireframe
 70
     4
 71
     0
 72
     2
 73
     0
 90
        0
 40
-0.6
 41
-30.0
 62
     5
 63
     7
421
 16777215
 74
     1
 91
        4
 64
     7
 65
   257
 75
     1
175
     1
 42
1.0
 92
        0
 66
   257
 43
1.0
 76
     1
 77
     6
 78
     2
 67
     7
 79
     5
170
     0
171
     0
290
     0
174
     0
 93
        1
 44
0.0
173
     0
291
     0
 45
0.0
1001
ACAD
1000
AcDbSavedByObjectVersion
1070
     0
  0
VISUALSTYLE
  5
168
102
{ACAD_REACTORS
330
160
102
}
330
160
100
AcDbVisualStyle
  2
3D Hidden
 70
     6
 71
     1
 72
     2
 73
     2
 90
        0
 40
-0.6
 41
-30.0
 62
     5
 63
     7
421
 16777215
 74
     2
 91
        2
 64
     7
 65
   257
 75
     2
175
     1
 42
40.0
 92
        0
 66
   257
 43
1.0
 76
     1
 77
     6
 78
     2
 67
     7
 79
     3
170
     0
171
     0
290
     0
174
     0
 93
        1
 44
0.0
173
     0
291
     0
 45
0.0
1001
ACAD
1000
AcDbSavedByObjectVersion
1070
     0
  0
VISUALSTYLE
  5
167
102
{ACAD_REACTORS
330
160
102
}
330
160
100
AcDbVisualStyle
  2
3dWireframe
 70
     5
 71
     0
 72
     2
 73
     0
 90
        0
 40
-0.6
 41
-30.0
 62
     5
 63
     7
421
 16777215
 74
     1
 91
        4
 64
     7
 65
   257
 75
     1
175
     1
 42
1.0
 92
        0
 66
   257
 43
1.0
 76
     1
 77
     6
 78
     2
 67
     7
 79
     5
170
     0
171
     0
290
     0
174
     0
 93
        1
 44
0.0
173
     0
291
     0
 45
0.0
1001
ACAD
1000
AcDbSavedByObjectVersion
1070
     0
  0
VISUALSTYLE
  5
165
102
{ACAD_REACTORS
330
160
102
}
330
160
100
AcDbVisualStyle
  2
Basic
 70
     7
 71
     1
 72
     0
 73
     1
 90
        0
 40
-0.6
 41
-30.0
 62
     5
 63
     7
421
 16777215
 74
     0
 91
        4
 64
     7
 65
   257
 75
     1
175
     1
 42
1.0
 92
        8
 66
     7
 43
1.0
 76
     1
 77
     6
 78
     2
 67
     7
 79
     5
170
     0
171
     0
290
     0
174
     0
 93
        1
 44
0.0
173
     0
291
     1
 45
0.0
1001
ACAD
1000
AcDbSavedByObjectVersion
1070
     0
  0
VISUALSTYLE
  5
16C
102
{ACAD_REACTORS
330
160
102
}
330
160
100
AcDbVisualStyle
  2
Brighten
 70
    12
 71
     2
 72
     2
 73
     0
 90
        0
 40
-0.6
 41
-30.0
 62
     5
 63
     7
421
 16777215
 74
     1
 91
        4
 64
     7
 65
   257
 75
     1
175
     1
 42
1.0
 92
        8
 66
     7
 43
1.0
 76
     1
 77
     6
 78
     2
 67
     7
 79
     5
170
     0
171
     0
290
     0
174
     0
 93
        1
 44
50.0
173
     0
291
     1
 45
0.0
1001
ACAD
1000
AcDbSavedByObjectVersion
1070
     0
  0
VISUALSTYLE
  5
170
102
{ACAD_REACTORS
330
160
102
}
330
160
100
AcDbVisualStyle
  2
ColorChange
 70
    16
 71
     2
 72
     2
 73
     3
 90
        0
 40
-0.6
 41
-30.0
 62
     5
 63
     8
421
  8421504
 74
     1
 91
        4
 64
     7
 65
   257
 75
     1
175
     1
 42
1.0
 92
        8
 66
     8
424
  8421504
 43
1.0
 76
     1
 77
     6
 78
     2
 67
     7
 79
     5
170
     0
171
     0
290
     0
174
     0
 93
        1
 44
0.0
173
     0
291
     1
 45
0.0
1001
ACAD
1000
AcDbSavedByObjectVersion
1070
     0
  0
VISUALSTYLE
  5
169
102
{ACAD_REACTORS
330
160
102
}
330
160
100
AcDbVisualStyle
  2
Conceptual
 70
     9
 71
     3
 72
     2
 73
     0
 90
        0
 40
-0.6
 41
-30.0
 62
     5
 63
     7
421
 16777215
 74
     2
 91
        2
 64
     7
 65
   257
 75
     1
175
     1
 42
40.0
 92
        8
 66
     7
 43
1.0
 76
     1
 77
     6
 78
     2
 67
     7
 79
     3
170
     0
171
     0
290
     0
174
     0
 93
        1
 44
0.0
173
     0
291
     0
 45
0.0
1001
ACAD
1000
AcDbSavedByObjectVersion
1070
     0
  0
VISUALSTYLE
  5
16B
102
{ACAD_REACTORS
330
160
102
}
330
160
100
AcDbVisualStyle
  2
Dim
 70
    11
 71
     2
 72
     2
 73
     0
 90
        0
 40
-0.6
 41
-30.0
 62
     5
 63
     7
421
 16777215
 74
     1
 91
        4
 64
     7
 65
   257
 75
     1
175
     1
 42
1.0
 92
        8
 66
     7
 43
1.0
 76
     1
 77
     6
 78
     2
 67
     7
 79
     5
170
     0
171
     0
290
     0
174
     0
 93
        1
 44
-50.0
173
     0
291
     1
 45
0.0
1001
ACAD
1000
AcDbSavedByObjectVersion
1070
     0
  0
VISUALSTYLE
  5
16F
102
{ACAD_REACTORS
330
160
102
}
330
160
100
AcDbVisualStyle
  2
Facepattern
 70
    15
 71
     2
 72
     2
 73
     0
 90
        0
 40
-0.6
 41
-30.0
 62
     5
 63
     7
421
 16777215
 74
     1
 91
        4
 64
     7
 65
   257
 75
     1
175
     1
 42
1.0
 92
        8
 66
     7
 43
1.0
 76
     1
 77
     6
 78
     2
 67
     7
 79
     5
170
     0
171
     0
290
     0
174
     0
 93
        1
 44
0.0
173
     0
291
     1
 45
0.0
1001
ACAD
1000
AcDbSavedByObjectVersion
1070
     0
  0
VISUALSTYLE
  5
161
102
{ACAD_REACTORS
330
160
102
}
330
160
100
AcDbVisualStyle
  2
Flat
 70
     0
 71
     2
 72
     1
 73
     1
 90
        2
 40
-0.6
 41
30.0
 62
     5
 63
     7
421
 16777215
 74
     0
 91
        4
 64
     7
 65
   257
 75
     1
175
     1
 42
1.0
 92
        8
 66
     7
 43
1.0
 76
     1
 77
     6
 78
     2
 67
     7
 79
     5
170
     0
171
     0
290
     0
174
     0
 93
       13
 44
0.0
173
     0
291
     1
 45
0.0
1001
ACAD
1000
AcDbSavedByObjectVersion
1070
     0
  0
VISUALSTYLE
  5
162
102
{ACAD_REACTORS
330
160
102
}
330
160
100
AcDbVisualStyle
  2
FlatWithEdges
 70
     1
 71
     2
 72
     1
 73
     1
 90
        2
 40
-0.6
 41
30.0
 62
     5
 63
     7
421
 16777215
 74
     1
 91
        4
 64
     7
 65
   257
 75
     1
175
     1
 42
1.0
 92
        0
 66
   257
 43
1.0
 76
     1
 77
     6
 78
     2
 67
     7
 79
     5
170
     0
171
     0
290
     0
174
     0
 93
       13
 44
0.0
173
     0
291
     1
 45
0.0
1001
ACAD
1000
AcDbSavedByObjectVersion
1070
     0
  0
VISUALSTYLE
  5
163
102
{ACAD_REACTORS
330
160
102
}
330
160
100
AcDbVisualStyle
  2
Gouraud
 70
     2
 71
     2
 72
     2
 73
     1
 90
        2
 40
-0.6
 41
30.0
 62
     5
 63
     7
421
 16777215
 74
     0
 91
        4
 64
     7
 65
   257
 75
     1
175
     1
 42
1.0
 92
        0
 66
     7
 43
1.0
 76
     1
 77
     6
 78
     2
 67
     7
 79
     5
170
     0
171
     0
290
     0
174
     0
 93
       13
 44
0.0
173
     0
291
     1
 45
0.0
1001
ACAD
1000
AcDbSavedByObjectVersion
1070
     0
  0
VISUALSTYLE
  5
164
102
{ACAD_REACTORS
330
160
102
}
330
160
100
AcDbVisualStyle
  2
GouraudWithEdges
 70
     3
 71
     2
 72
     2
 73
     1
 90
        2
 40
-0.6
 41
30.0
 62
     5
 63
     7
421
 16777215
 74
     1
 91
        4
 64
     7
 65
   257
 75
     1
175
     1
 42
1.0
 92
        0
 66
   257
 43
1.0
 76
     1
 77
     6
 78
     2
 67
     7
 79
     5
170
     0
171
     0
290
     0
174
     0
 93
       13
 44
0.0
173
     0
291
     1
 45
0.0
1001
ACAD
1000
AcDbSavedByObjectVersion
1070
     0
  0
VISUALSTYLE
  5
16E
102
{ACAD_REACTORS
330
160
102
}
330
160
100
AcDbVisualStyle
  2
Linepattern
 70
    14
 71
     2
 72
     2
 73
     0
 90
        0
 40
-0.6
 41
-30.0
 62
     5
 63
     7
421
 16777215
 74
     1
 91
        4
 64
     7
 65
   257
 75
     7
175
     7
 42
1.0
 92
        8
 66
     7
 43
1.0
 76
     1
 77
     6
 78
     2
 67
     7
 79
     5
170
     0
171
     0
290
     0
174
     0
 93
        1
 44
0.0
173
     0
291
     1
 45
0.0
1001
ACAD
1000
AcDbSavedByObjectVersion
1070
     0
  0
VISUALSTYLE
  5
16A
102
{ACAD_REACTORS
330
160
102
}
330
160
100
AcDbVisualStyle
  2
Realistic
 70
     8
 71
     2
 72
     2
 73
     0
 90
        0
 40
-0.6
 41
-30.0
 62
     5
 63
     7
421
 16777215
 74
     1
 91
        0
 64
     7
 65
   257
 75
     1
175
     1
 42
1.0
 92
        8
 66
     8
424
  7895160
 43
1.0
 76
     1
 77
     6
 78
     2
 67
     7
 79
     5
170
     0
171
     0
290
     0
174
     0
 93
       13
 44
0.0
173
     0
291
     0
 45
0.0
1001
ACAD
1000
AcDbSavedByObjectVersion
1070
     0
  0
VISUALSTYLE
  5
16D
102
{ACAD_REACTORS
330
160
102
}
330
160
100
AcDbVisualStyle
  2
Thicken
 70
    13
 71
     2
 72
     2
 73
     0
 90
        0
 40
-0.6
 41
-30.0
 62
     5
 63
     7
421
 16777215
 74
     1
 91
        4
 64
     7
 65
   257
 75
     1
175
     1
 42
1.0
 92
       12
 66
     7
 43
1.0
 76
     1
 77
     6
 78
     2
 67
     7
 79
     5
170
     0
171
     0
290
     0
174
     0
 93
        1
 44
0.0
173
     0
291
     1
 45
0.0
1001
ACAD
1000
AcDbSavedByObjectVersion
1070
     0
  0
DICTIONARYVAR
  5
1F5
102
{ACAD_REACTORS
330
180
102
}
330
180
100
DictionaryVariables
280
     0
  1
1:1
  0
DICTIONARYVAR
  5
1F4
102
{ACAD_REACTORS
330
180
102
}
330
180
100
DictionaryVariables
280
     0
  1
STANDARD
  0
DICTIONARYVAR
  5
181
102
{ACAD_REACTORS
330
180
102
}
330
180
100
DictionaryVariables
280
     0
  1
STANDARD
  0
XRECORD
  5
17F
102
{ACAD_REACTORS
330
17D
102
}
330
17D
100
AcDbXrecord
280
     1
  0
DICTIONARY
  5
1FB
330
15E
100
AcDbDictionary
280
     1
281
     1
  3
ACAD_XREC_ROUNDTRIP
360
1FC
  0
DICTIONARY
  5
1F9
330
15D
100
AcDbDictionary
280
     1
281
     1
  3
ACAD_XREC_ROUNDTRIP
360
1FA
  0
DICTIONARY
  5
1FD
330
15F
100
AcDbDictionary
280
     1
281
     1
  3
ACAD_XREC_ROUNDTRIP
360
1FE
  0
DICTIONARY
  5
1F6
330
173
100
AcDbDictionary
280
     1
281
     1
  3
ACAD_ROUNDTRIP_2008_TABLESTYLE_CELLSTYLEMAP
360
1F7
  3
ACAD_XREC_ROUNDTRIP
360
1FF
  0
XRECORD
  5
1FC
102
{ACAD_REACTORS
330
1FB
102
}
330
1FB
100
AcDbXrecord
280
     1
102
MATERIAL
148
0.0
149
0.0
149
0.0
 93
        0
 94
       63
282
     0
 72
     1
 77
     1
171
     1
175
     1
179
     1
273
     0
  0
XRECORD
  5
1FA
102
{ACAD_REACTORS
330
1F9
102
}
330
1F9
100
AcDbXrecord
280
     1
102
MATERIAL
148
0.0
149
0.0
149
0.0
 93
        0
 94
       63
282
     0
 72
     1
 77
     1
171
     1
175
     1
179
     1
273
     0
  0
XRECORD
  5
1FE
102
{ACAD_REACTORS
330
1FD
102
}
330
1FD
100
AcDbXrecord
280
     1
102
MATERIAL
148
0.0
149
0.0
149
0.0
 93
        0
 94
       63
282
     0
 72
     1
 77
     1
171
     1
175
     1
179
     1
273
     0
  0
CELLSTYLEMAP
  5
1F7
102
{ACAD_REACTORS
330
1F6
102
}
330
1F6
100
AcDbCellStyleMap
 90
        3
300
CELLSTYLE
  1
TABLEFORMAT_BEGIN
 90
        5
170
     1
 91
        0
 92
    32768
 62
   257
 93
        1
300
CONTENTFORMAT
  1
CONTENTFORMAT_BEGIN
 90
        0
 91
        0
 92
      512
 93
        0
300

 40
0.0
140
1.0
 94
        5
 62
     0
340
17
144
0.25
309
CONTENTFORMAT_END
171
     0
 94
        6
 95
        1
302
GRIDFORMAT
  1
GRIDFORMAT_BEGIN
 90
        0
 91
        1
 62
     0
 92
       -2
340
0
 93
        0
 40
0.045
309
GRIDFORMAT_END
 95
        2
302
GRIDFORMAT
  1
GRIDFORMAT_BEGIN
 90
        0
 91
        1
 62
     0
 92
       -2
340
0
 93
        0
 40
0.045
309
GRIDFORMAT_END
 95
        4
302
GRIDFORMAT
  1
GRIDFORMAT_BEGIN
 90
        0
 91
        1
 62
     0
 92
       -2
340
0
 93
        0
 40
0.045
309
GRIDFORMAT_END
 95
        8
302
GRIDFORMAT
  1
GRIDFORMAT_BEGIN
 90
        0
 91
        1
 62
     0
 92
       -2
340
0
 93
        0
 40
0.045
309
GRIDFORMAT_END
 95
       16
302
GRIDFORMAT
  1
GRIDFORMAT_BEGIN
 90
        0
 91
        1
 62
     0
 92
       -2
340
0
 93
        0
 40
0.045
309
GRIDFORMAT_END
 95
       32
302
GRIDFORMAT
  1
GRIDFORMAT_BEGIN
 90
        0
 91
        1
 62
     0
 92
       -2
340
0
 93
        0
 40
0.045
309
GRIDFORMAT_END
309
TABLEFORMAT_END
  1
CELLSTYLE_BEGIN
 90
        1
 91
        1
300
_TITLE
309
CELLSTYLE_END
300
CELLSTYLE
  1
TABLEFORMAT_BEGIN
 90
        5
170
     1
 91
        0
 92
        0
 62
   257
 93
        1
300
CONTENTFORMAT
  1
CONTENTFORMAT_BEGIN
 90
        0
 91
        0
 92
      512
 93
        0
300

 40
0.0
140
1.0
 94
        5
 62
     0
340
17
144
0.18
309
CONTENTFORMAT_END
171
     0
 94
        6
 95
        1
302
GRIDFORMAT
  1
GRIDFORMAT_BEGIN
 90
        0
 91
        1
 62
     0
 92
       -2
340
0
 93
        0
 40
0.045
309
GRIDFORMAT_END
 95
        2
302
GRIDFORMAT
  1
GRIDFORMAT_BEGIN
 90
        0
 91
        1
 62
     0
 92
       -2
340
0
 93
        0
 40
0.045
309
GRIDFORMAT_END
 95
        4
302
GRIDFORMAT
  1
GRIDFORMAT_BEGIN
 90
        0
 91
        1
 62
     0
 92
       -2
340
0
 93
        0
 40
0.045
309
GRIDFORMAT_END
 95
        8
302
GRIDFORMAT
  1
GRIDFORMAT_BEGIN
 90
        0
 91
        1
 62
     0
 92
       -2
340
0
 93
        0
 40
0.045
309
GRIDFORMAT_END
 95
       16
302
GRIDFORMAT
  1
GRIDFORMAT_BEGIN
 90
        0
 91
        1
 62
     0
 92
       -2
340
0
 93
        0
 40
0.045
309
GRIDFORMAT_END
 95
       32
302
GRIDFORMAT
  1
GRIDFORMAT_BEGIN
 90
        0
 91
        1
 62
     0
 92
       -2
340
0
 93
        0
 40
0.045
309
GRIDFORMAT_END
309
TABLEFORMAT_END
  1
CELLSTYLE_BEGIN
 90
        2
 91
        1
300
_HEADER
309
CELLSTYLE_END
300
CELLSTYLE
  1
TABLEFORMAT_BEGIN
 90
        5
170
     1
 91
        0
 92
        0
 62
   257
 93
        1
300
CONTENTFORMAT
  1
CONTENTFORMAT_BEGIN
 90
        0
 91
        0
 92
      512
 93
        0
300

 40
0.0
140
1.0
 94
        2
 62
     0
340
17
144
0.18
309
CONTENTFORMAT_END
171
     0
 94
        6
 95
        1
302
GRIDFORMAT
  1
GRIDFORMAT_BEGIN
 90
        0
 91
        1
 62
     0
 92
       -2
340
0
 93
        0
 40
0.045
309
GRIDFORMAT_END
 95
        2
302
GRIDFORMAT
  1
GRIDFORMAT_BEGIN
 90
        0
 91
        1
 62
     0
 92
       -2
340
0
 93
        0
 40
0.045
309
GRIDFORMAT_END
 95
        4
302
GRIDFORMAT
  1
GRIDFORMAT_BEGIN
 90
        0
 91
        1
 62
     0
 92
       -2
340
0
 93
        0
 40
0.045
309
GRIDFORMAT_END
 95
        8
302
GRIDFORMAT
  1
GRIDFORMAT_BEGIN
 90
        0
 91
        1
 62
     0
 92
       -2
340
0
 93
        0
 40
0.045
309
GRIDFORMAT_END
 95
       16
302
GRIDFORMAT
  1
GRIDFORMAT_BEGIN
 90
        0
 91
        1
 62
     0
 92
       -2
340
0
 93
        0
 40
0.045
309
GRIDFORMAT_END
 95
       32
302
GRIDFORMAT
  1
GRIDFORMAT_BEGIN
 90
        0
 91
        1
 62
     0
 92
       -2
340
0
 93
        0
 40
0.045
309
GRIDFORMAT_END
309
TABLEFORMAT_END
  1
CELLSTYLE_BEGIN
 90
        3
 91
        2
300
_DATA
309
CELLSTYLE_END
  0
XRECORD
  5
1FF
102
{ACAD_REACTORS
330
1F6
102
}
330
1F6
100
AcDbXrecord
280
     1
102
ACAD_ROUNDTRIP_PRE2007_TABLESTYLE
 90
      512
 91
        0
  1

 92
      512
 93
        0
  2

 94
      512
 95
        0
  3

  0
ENDSEC
  0
EOF
