  0
SECTION
  2
HEADER
  9
$ACADVER
  1
AC1018
  9
$ACADMAINTVER
 70
   104
  9
$DWGCODEPAGE
  3
ANSI_1252
  9
$LASTSAVEDBY
  1
EARL
  9
$INSBASE
 10
0.0
 20
0.0
 30
0.0
  9
$EXTMIN
 10
-5.692558708197942
 20
-0.5576617562876628
 30
0.0
  9
$EXTMAX
 10
3.156067999999999
 20
2.965849403846153
 30
0.0
  9
$LIMMIN
 10
0.0
 20
0.0
  9
$LIMMAX
 10
0.0
 20
0.0
  9
$ORTHOMODE
 70
     0
  9
$REGENMODE
 70
     1
  9
$FILLMODE
 70
     1
  9
$QTEXTMODE
 70
     0
  9
$MIRRTEXT
 70
     1
  9
$LTSCALE
 40
1.0
  9
$ATTMODE
 70
     1
  9
$TEXTSIZE
 40
0.0
  9
$TRACEWID
 40
0.05
  9
$TEXTSTYLE
  7
Standard
  9
$CLAYER
  8
0
  9
$CELTYPE
  6
Continuous
  9
$CECOLOR
 62
   256
  9
$CELTSCALE
 40
1.0
  9
$DISPSILH
 70
     0
  9
$DIMSCALE
 40
1.0
  9
$DIMASZ
 40
0.18
  9
$DIMEXO
 40
0.0625
  9
$DIMDLI
 40
0.38
  9
$DIMRND
 40
0.0
  9
$DIMDLE
 40
0.0
  9
$DIMEXE
 40
0.18
  9
$DIMTP
 40
0.0
  9
$DIMTM
 40
0.0
  9
$DIMTXT
 40
0.18
  9
$DIMCEN
 40
0.09
  9
$DIMTSZ
 40
0.0
  9
$DIMTOL
 70
     0
  9
$DIMLIM
 70
     0
  9
$DIMTIH
 70
     1
  9
$DIMTOH
 70
     1
  9
$DIMSE1
 70
     0
  9
$DIMSE2
 70
     0
  9
$DIMTAD
 70
     0
  9
$DIMZIN
 70
     0
  9
$DIMBLK
  1

  9
$DIMASO
 70
     1
  9
$DIMSHO
 70
     1
  9
$DIMPOST
  1

  9
$DIMAPOST
  1

  9
$DIMALT
 70
     0
  9
$DIMALTD
 70
     2
  9
$DIMALTF
 40
25.4
  9
$DIMLFAC
 40
1.0
  9
$DIMTOFL
 70
     0
  9
$DIMTVP
 40
0.0
  9
$DIMTIX
 70
     0
  9
$DIMSOXD
 70
     0
  9
$DIMSAH
 70
     0
  9
$DIMBLK1
  1

  9
$DIMBLK2
  1

  9
$DIMSTYLE
  2
Standard
  9
$DIMCLRD
 70
     0
  9
$DIMCLRE
 70
     0
  9
$DIMCLRT
 70
     0
  9
$DIMTFAC
 40
1.0
  9
$DIMGAP
 40
0.09
  9
$DIMJUST
 70
     0
  9
$DIMSD1
 70
     0
  9
$DIMSD2
 70
     0
  9
$DIMTOLJ
 70
     1
  9
$DIMTZIN
 70
     0
  9
$DIMALTZ
 70
     0
  9
$DIMALTTZ
 70
     0
  9
$DIMUPT
 70
     0
  9
$DIMDEC
 70
     4
  9
$DIMTDEC
 70
     4
  9
$DIMALTU
 70
     2
  9
$DIMALTTD
 70
     2
  9
$DIMTXSTY
  7
Standard
  9
$DIMAUNIT
 70
     0
  9
$DIMADEC
 70
     0
  9
$DIMALTRND
 40
0.0
  9
$DIMAZIN
 70
     0
  9
$DIMDSEP
 70
    46
  9
$DIMATFIT
 70
     0
  9
$DIMFRAC
 70
     0
  9
$DIMLDRBLK
  1

  9
$DIMLUNIT
 70
     2
  9
$DIMLWD
 70
    -2
  9
$DIMLWE
 70
    -2
  9
$DIMTMOVE
 70
     0
  9
$LUNITS
 70
     2
  9
$LUPREC
 70
     4
  9
$SKETCHINC
 40
0.1
  9
$FILLETRAD
 40
0.0
  9
$AUNITS
 70
     0
  9
$AUPREC
 70
     0
  9
$MENU
  1
acad
  9
$ELEVATION
 40
0.0
  9
$PELEVATION
 40
0.0
  9
$THICKNESS
 40
0.0
  9
$LIMCHECK
 70
     0
  9
$CHAMFERA
 40
0.0
  9
$CHAMFERB
 40
0.0
  9
$CHAMFERC
 40
0.0
  9
$CHAMFERD
 40
0.0
  9
$SKPOLY
 70
     0
  9
$TDCREATE
 40
2454842.700231481
  9
$TDUCREATE
 40
2454842.866898149
  9
$TDUPDATE
 40
2455103.924017824
  9
$TDUUPDATE
 40
2455104.090684491
  9
$TDINDWG
 40
0.0011749884
  9
$TDUSRTIMER
 40
0.0011749884
  9
$USRTIMER
 70
     1
  9
$ANGBASE
 50
0.0
  9
$ANGDIR
 70
     0
  9
$PDMODE
 70
     0
  9
$PDSIZE
 40
0.0
  9
$PLINEWID
 40
0.0
  9
$SPLFRAME
 70
     0
  9
$SPLINETYPE
 70
     6
  9
$SPLINESEGS
 70
     8
  9
$HANDSEED
  5
1E8
  9
$SURFTAB1
 70
     6
  9
$SURFTAB2
 70
     6
  9
$SURFTYPE
 70
     6
  9
$SURFU
 70
     6
  9
$SURFV
 70
     6
  9
$UCSBASE
  2

  9
$UCSNAME
  2

  9
$UCSORG
 10
0.0
 20
0.0
 30
0.0
  9
$UCSXDIR
 10
1.0
 20
0.0
 30
0.0
  9
$UCSYDIR
 10
0.0
 20
1.0
 30
0.0
  9
$UCSORTHOREF
  2

  9
$UCSORTHOVIEW
 70
     0
  9
$UCSORGTOP
 10
0.0
 20
0.0
 30
0.0
  9
$UCSORGBOTTOM
 10
0.0
 20
0.0
 30
0.0
  9
$UCSORGLEFT
 10
0.0
 20
0.0
 30
0.0
  9
$UCSORGRIGHT
 10
0.0
 20
0.0
 30
0.0
  9
$UCSORGFRONT
 10
0.0
 20
0.0
 30
0.0
  9
$UCSORGBACK
 10
0.0
 20
0.0
 30
0.0
  9
$PUCSBASE
  2

  9
$PUCSNAME
  2

  9
$PUCSORG
 10
0.0
 20
0.0
 30
0.0
  9
$PUCSXDIR
 10
1.0
 20
0.0
 30
0.0
  9
$PUCSYDIR
 10
0.0
 20
1.0
 30
0.0
  9
$PUCSORTHOREF
  2

  9
$PUCSORTHOVIEW
 70
     0
  9
$PUCSORGTOP
 10
0.0
 20
0.0
 30
0.0
  9
$PUCSORGBOTTOM
 10
0.0
 20
0.0
 30
0.0
  9
$PUCSORGLEFT
 10
0.0
 20
0.0
 30
0.0
  9
$PUCSORGRIGHT
 10
0.0
 20
0.0
 30
0.0
  9
$PUCSORGFRONT
 10
0.0
 20
0.0
 30
0.0
  9
$PUCSORGBACK
 10
0.0
 20
0.0
 30
0.0
  9
$USERI1
 70
     0
  9
$USERI2
 70
     0
  9
$USERI3
 70
     0
  9
$USERI4
 70
     0
  9
$USERI5
 70
     0
  9
$USERR1
 40
0.0
  9
$USERR2
 40
0.0
  9
$USERR3
 40
0.0
  9
$USERR4
 40
0.0
  9
$USERR5
 40
0.0
  9
$WORLDVIEW
 70
     1
  9
$SHADEDGE
 70
     3
  9
$SHADEDIF
 70
    70
  9
$TILEMODE
 70
     0
  9
$MAXACTVP
 70
    16
  9
$PINSBASE
 10
0.0
 20
0.0
 30
0.0
  9
$PLIMCHECK
 70
     0
  9
$PEXTMIN
 10
0.0332799218750992
 20
-0.0428619138838222
 30
-0.0015258207003583
  9
$PEXTMAX
 10
10.34074429551085
 20
7.910323895798452
 30
0.0000000349246037
  9
$PLIMMIN
 10
-0.3306119115190196
 20
-0.2812499079328949
  9
$PLIMMAX
 10
10.66938784818509
 20
8.218749851771214
  9
$UNITMODE
 70
     0
  9
$VISRETAIN
 70
     0
  9
$PLINEGEN
 70
     1
  9
$PSLTSCALE
 70
     0
  9
$TREEDEPTH
 70
  3020
  9
$CMLSTYLE
  2
Standard
  9
$CMLJUST
 70
     0
  9
$CMLSCALE
 40
1.0
  9
$PROXYGRAPHICS
 70
     0
  9
$MEASUREMENT
 70
     0
  9
$CELWEIGHT
370
     0
  9
$ENDCAPS
280
     0
  9
$JOINSTYLE
280
     0
  9
$LWDISPLAY
290
     0
  9
$INSUNITS
 70
     0
  9
$HYPERLINKBASE
  1

  9
$STYLESHEET
  1

  9
$XEDIT
290
     1
  9
$CEPSNTYPE
380
     0
  9
$PSTYLEMODE
290
     1
  9
$FINGERPRINTGUID
  2

  9
$VERSIONGUID
  2
{7901AD1A-201F-423E-BFCC-0B225C8D59E0}
  9
$EXTNAMES
290
     1
  9
$PSVPSCALE
 40
0.0
  9
$OLESTARTUP
290
     0
  9
$SORTENTS
280
   127
  9
$INDEXCTL
280
     0
  9
$HIDETEXT
280
     0
  9
$XCLIPFRAME
290
     0
  9
$HALOGAP
280
     0
  9
$OBSCOLOR
 70
   257
  9
$OBSLTYPE
280
     0
  9
$INTERSECTIONDISPLAY
280
     0
  9
$INTERSECTIONCOLOR
 70
   257
  9
$DIMASSOC
280
     1
  9
$PROJECTNAME
  1

  0
ENDSEC
  0
SECTION
  2
CLASSES
  0
CLASS
  1
IMAGE
  2
AcDbRasterImage
  3
ISM
 90
     2175
 91
        0
280
     0
281
     1
  0
CLASS
  1
DICTIONARYVAR
  2
AcDbDictionaryVar
  3
ObjectDBX Classes
 90
        0
 91
        5
280
     0
281
     0
  0
CLASS
  1
RASTERVARIABLES
  2
AcDbRasterVariables
  3
ISM
 90
        0
 91
        0
280
     0
281
     0
  0
CLASS
  1
IMAGEDEF
  2
AcDbRasterImageDef
  3
ISM
 90
        0
 91
        0
280
     0
281
     0
  0
CLASS
  1
IMAGEDEF_REACTOR
  2
AcDbRasterImageDefReactor
  3
ISM
 90
        1
 91
        0
280
     0
281
     0
  0
CLASS
  1
IDBUFFER
  2
AcDbIdBuffer
  3
ObjectDBX Classes
 90
        0
 91
        0
280
     0
281
     0
  0
CLASS
  1
SPATIAL_FILTER
  2
AcDbSpatialFilter
  3
ObjectDBX Classes
 90
        0
 91
        0
280
     0
281
     0
  0
CLASS
  1
SORTENTSTABLE
  2
AcDbSortentsTable
  3
ObjectDBX Classes
 90
        0
 91
        1
280
     0
281
     0
  0
CLASS
  1
LAYER_INDEX
  2
AcDbLayerIndex
  3
ObjectDBX Classes
 90
        0
 91
        0
280
     0
281
     0
  0
CLASS
  1
SPATIAL_INDEX
  2
AcDbSpatialIndex
  3
ObjectDBX Classes
 90
        0
 91
        0
280
     0
281
     0
  0
CLASS
  1
OBJECT_PTR
  2
CAseDLPNTableRecord
  3
ASE-LPNTableRecord
 90
        1
 91
        0
280
     0
281
     0
  0
CLASS
  1
PLOTSETTINGS
  2
AcDbPlotSettings
  3
ObjectDBX Classes
 90
        0
 91
        0
280
     0
281
     0
  0
CLASS
  1
ACDBDICTIONARYWDFLT
  2
AcDbDictionaryWithDefault
  3
ObjectDBX Classes
 90
        0
 91
        1
280
     0
281
     0
  0
CLASS
  1
WIPEOUT
  2
AcDbWipeout
  3
"WipeOut|Product Desc: Object Enabler for WipeOut entity                        |Company: Autodesk, Inc.                        |WEB Address: www.autodesk.com"
 90
     2175
 91
        0
280
     0
281
     1
  0
CLASS
  1
WIPEOUTVARIABLES
  2
AcDbWipeoutVariables
  3
"WipeOut|Product Desc:     WipeOut Dbx Application|Company:          Autodesk, Inc.|WEB Address:      www.autodesk.com"
 90
        0
 91
        1
280
     0
281
     0
  0
CLASS
  1
RTEXT
  2
RText
  3
RText|AutoCAD Express Tool|expresstools@autodesk.com
 90
     3071
 91
        0
280
     0
281
     1
  0
CLASS
  1
ARCALIGNEDTEXT
  2
AcDbArcAlignedText
  3
ATEXT|AutoCAD Express Tool|expresstools@autodesk.com
 90
        0
 91
        0
280
     0
281
     1
  0
CLASS
  1
MATERIAL
  2
AcDbMaterial
  3
ObjectDBX Classes
 90
     1153
 91
        3
280
     0
281
     0
  0
CLASS
  1
VISUALSTYLE
  2
AcDbVisualStyle
  3
ObjectDBX Classes
 90
     4095
 91
       16
280
     0
281
     0
  0
CLASS
  1
TABLESTYLE
  2
AcDbTableStyle
  3
ObjectDBX Classes
 90
     4095
 91
        1
280
     0
281
     0
  0
CLASS
  1
SCALE
  2
AcDbScale
  3
ObjectDBX Classes
 90
     1153
 91
       15
280
     0
281
     0
  0
CLASS
  1
MLEADERSTYLE
  2
AcDbMLeaderStyle
  3
ACDB_MLEADERSTYLE_CLASS
 90
     4095
 91
        1
280
     0
281
     0
  0
CLASS
  1
AEC_REFEDIT_STATUS_TRACKER
  2
AecDbRefEditStatusTracker
  3
AecArchBase50|Product Desc: Autodesk Architectural Desktop 2007 |Company: Autodesk,Inc. |WEB Address: www.autodesk.com
 90
      129
 91
        1
280
     0
281
     0
  0
CLASS
  1
NPOCOLLECTION
  2
AcDbImpNonPersistentObjectsCollection
  3
ObjectDBX Classes
 90
     1153
 91
        1
280
     0
281
     0
  0
CLASS
  1
CELLSTYLEMAP
  2
AcDbCellStyleMap
  3
ObjectDBX Classes
 90
     1152
 91
        2
280
     0
281
     0
  0
ENDSEC
  0
SECTION
  2
TABLES
  0
TABLE
  2
VPORT
  5
7
330
0
100
AcDbSymbolTable
 70
     1
  0
VPORT
  5
15
330
7
100
AcDbSymbolTableRecord
100
AcDbViewportTableRecord
  2
*ACTIVE
 70
     0
 10
0.0
 20
0.0
 11
1.0
 21
1.0
 12
13.89621157632295
 22
4.579183999999999
 13
0.0
 23
0.0
 14
1.0
 24
1.0
 15
0.0
 25
0.0
 16
0.0
 26
0.0
 36
1.0
 17
0.0
 27
0.0
 37
0.0
 40
9.158369
 41
2.283809523809523
 42
50.0
 43
0.0
 44
0.0
 50
0.0
 51
0.0
 71
     0
 72
   100
 73
     1
 74
     1
 75
     0
 76
     0
 77
     0
 78
     0
281
     0
 65
     0
110
0.0
120
0.0
130
0.0
111
1.0
121
0.0
131
0.0
112
0.0
122
1.0
132
0.0
 79
     0
146
0.0
  0
ENDTAB
  0
TABLE
  2
LTYPE
  5
4
330
0
100
AcDbSymbolTable
 70
     5
  0
LTYPE
  5
11
330
4
100
AcDbSymbolTableRecord
100
AcDbLinetypeTableRecord
  2
ByBlock
 70
     0
  3

 72
    65
 73
     0
 40
0.0
  0
LTYPE
  5
12
330
4
100
AcDbSymbolTableRecord
100
AcDbLinetypeTableRecord
  2
ByLayer
 70
     0
  3

 72
    65
 73
     0
 40
0.0
  0
LTYPE
  5
13
330
4
100
AcDbSymbolTableRecord
100
AcDbLinetypeTableRecord
  2
Continuous
 70
     0
  3
Solid line
 72
    65
 73
     0
 40
0.0
  0
LTYPE
  5
24
330
4
100
AcDbSymbolTableRecord
100
AcDbLinetypeTableRecord
  2
solid
 70
     0
  3

 72
    65
 73
     0
 40
0.0
  0
LTYPE
  5
25
330
4
100
AcDbSymbolTableRecord
100
AcDbLinetypeTableRecord
  2
dashed
 70
     0
  3

 72
    65
 73
     0
 40
0.0
  0
LTYPE
  5
26
330
4
100
AcDbSymbolTableRecord
100
AcDbLinetypeTableRecord
  2
center
 70
     0
  3

 72
    65
 73
     0
 40
0.0
  0
ENDTAB
  0
TABLE
  2
LAYER
  5
2
330
0
100
AcDbSymbolTable
 70
     3
  0
LAYER
  5
14
102
{ACAD_XDICTIONARY
360
195
102
}
330
2
100
AcDbSymbolTableRecord
100
AcDbLayerTableRecord
  2
0
 70
     0
 62
     7
  6
Continuous
370
    -3
390
1D
  0
LAYER
  5
27
102
{ACAD_XDICTIONARY
360
197
102
}
330
2
100
AcDbSymbolTableRecord
100
AcDbLayerTableRecord
  2
1
 70
     0
 62
     1
  6
solid
370
    -3
390
1D
  0
LAYER
  5
C3
102
{ACAD_XDICTIONARY
360
199
102
}
330
2
100
AcDbSymbolTableRecord
100
AcDbLayerTableRecord
  2
0
 70
     0
 62
     1
  6
solid
370
    -3
390
1D
  0
ENDTAB
  0
TABLE
  2
STYLE
  5
3
330
0
100
AcDbSymbolTable
 70
     2
  0
STYLE
  5
17
330
3
100
AcDbSymbolTableRecord
100
AcDbTextStyleTableRecord
  2
Standard
 70
     0
 40
0.0
 41
1.0
 50
0.0
 71
     0
 42
0.0
  3
txt
  4

  0
ENDTAB
  0
TABLE
  2
VIEW
  5
5
330
0
100
AcDbSymbolTable
 70
     0
  0
ENDTAB
  0
TABLE
  2
UCS
  5
6
330
0
100
AcDbSymbolTable
 70
     0
  0
ENDTAB
  0
TABLE
  2
APPID
  5
8
330
0
100
AcDbSymbolTable
 70
     5
  0
APPID
  5
16
330
8
100
AcDbSymbolTableRecord
100
AcDbRegAppTableRecord
  2
ACAD
 70
     0
  0
APPID
  5
170
330
8
100
AcDbSymbolTableRecord
100
AcDbRegAppTableRecord
  2
ACAD_PSEXT
 70
     0
  0
APPID
  5
175
330
8
100
AcDbSymbolTableRecord
100
AcDbRegAppTableRecord
  2
DCO15
 70
     0
  0
APPID
  5
18C
330
8
100
AcDbSymbolTableRecord
100
AcDbRegAppTableRecord
  2
ACAD_MLEADERVER
 70
     0
  0
APPID
  5
194
330
8
100
AcDbSymbolTableRecord
100
AcDbRegAppTableRecord
  2
ACAD_EXEMPT_FROM_CAD_STANDARDS
 70
     0
  0
ENDTAB
  0
TABLE
  2
DIMSTYLE
  5
9
330
0
100
AcDbSymbolTable
 70
     3
100
AcDbDimStyleTable
 71
     1
340
18
  0
DIMSTYLE
105
18
330
9
100
AcDbSymbolTableRecord
100
AcDbDimStyleTableRecord
  2
Standard
 70
     0
289
     0
340
17
  0
ENDTAB
  0
TABLE
  2
BLOCK_RECORD
  5
1
330
0
100
AcDbSymbolTable
 70
     6
  0
BLOCK_RECORD
  5
A
102
{ACAD_XDICTIONARY
360
1AC
102
}
330
1
100
AcDbSymbolTableRecord
100
AcDbBlockTableRecord
  2
*MODEL_SPACE
340
20
  0
BLOCK_RECORD
  5
B
330
1
100
AcDbSymbolTableRecord
100
AcDbBlockTableRecord
  2
*PAPER_SPACE
340
21
  0
BLOCK_RECORD
  5
43
330
1
100
AcDbSymbolTableRecord
100
AcDbBlockTableRecord
  2
*D0
340
0
  0
BLOCK_RECORD
  5
4E
330
1
100
AcDbSymbolTableRecord
100
AcDbBlockTableRecord
  2
*D1
340
0
  0
BLOCK_RECORD
  5
13C
330
1
100
AcDbSymbolTableRecord
100
AcDbBlockTableRecord
  2
*D2
340
0
  0
BLOCK_RECORD
  5
147
330
1
100
AcDbSymbolTableRecord
100
AcDbBlockTableRecord
  2
*D3
340
0
  0
ENDTAB
  0
ENDSEC
  0
SECTION
  2
BLOCKS
  0
BLOCK
  5
D
330
A
100
AcDbEntity
  8
0
100
AcDbBlockBegin
  2
*MODEL_SPACE
 70
     0
 10
0.0
 20
0.0
 30
0.0
  3
*MODEL_SPACE
  1

  0
ENDBLK
  5
E
330
A
100
AcDbEntity
  8
0
100
AcDbBlockEnd
  0
BLOCK
  5
F
330
B
100
AcDbEntity
 67
     1
  8
0
100
AcDbBlockBegin
  2
*PAPER_SPACE
 70
     0
 10
0.0
 20
0.0
 30
0.0
  3
*PAPER_SPACE
  1

  0
ENDBLK
  5
10
330
B
100
AcDbEntity
 67
     1
  8
0
100
AcDbBlockEnd
  0
BLOCK
  5
44
330
43
100
AcDbEntity
  8
1
  6
solid
 62
     7
100
AcDbBlockBegin
  2
*D0
 70
     0
 10
0.0
 20
0.0
 30
0.0
  3
*D0
  1

  0
LINE
  5
45
330
43
100
AcDbEntity
  8
1
  6
solid
 62
     7
100
AcDbLine
 10
0.059871
 20
0.2051410000000001
 30
0.0
 11
-0.3406120000000008
 21
0.2051410000000005
 31
0.0
  0
LINE
  5
46
330
43
100
AcDbEntity
  8
1
  6
solid
 62
     7
100
AcDbLine
 10
1.408898999999999
 20
2.552784999999999
 30
0.0
 11
-0.3406119999999992
 21
2.552785
 31
0.0
  0
LINE
  5
47
330
43
100
AcDbEntity
  8
1
  6
solid
 62
     7
100
AcDbLine
 10
-0.2781120000000008
 20
0.2051410000000005
 30
0.0
 11
-0.2781120000000001
 21
1.219090403846154
 31
0.0
  0
LINE
  5
48
330
43
100
AcDbEntity
  8
1
  6
solid
 62
     7
100
AcDbLine
 10
-0.2781119999999992
 20
2.552785
 30
0.0
 11
-0.2781119999999999
 21
1.538835596153846
 31
0.0
  0
MTEXT
  5
49
330
43
100
AcDbEntity
  8
1
  6
solid
 62
     7
100
AcDbMText
 10
-0.278112
 20
1.378963
 30
0.0
 40
0.125
 41
0.0
 71
     5
 72
     1
  1
{\H0.125000;2 3/8}
 73
     1
 44
1.0
  0
SOLID
  5
4A
330
43
100
AcDbEntity
  8
1
  6
solid
 62
     7
100
AcDbTrace
 10
-0.2989245000000006
 20
0.3301410000010004
 30
0.0
 11
-0.2572995000000005
 21
0.3301410000010004
 31
0.0
 12
-0.2781120000000008
 22
0.2051410000000005
 32
0.0
 13
-0.2781120000000008
 23
0.2051410000000005
 33
0.0
  0
SOLID
  5
4B
330
43
100
AcDbEntity
  8
1
  6
solid
 62
     7
100
AcDbTrace
 10
-0.2572994999999993
 20
2.427784999999
 30
0.0
 11
-0.2989244999999992
 21
2.427784999999
 31
0.0
 12
-0.2781119999999992
 22
2.552785
 32
0.0
 13
-0.2781119999999992
 23
2.552785
 33
0.0
  0
ENDBLK
  5
4C
330
43
100
AcDbEntity
  8
1
  6
solid
 62
     7
100
AcDbBlockEnd
  0
BLOCK
  5
4F
330
4E
100
AcDbEntity
  8
1
  6
solid
 62
     7
100
AcDbBlockBegin
  2
*D1
 70
     0
 10
0.0
 20
0.0
 30
0.0
  3
*D1
  1

  0
LINE
  5
50
330
4E
100
AcDbEntity
  8
1
  6
solid
 62
     7
100
AcDbLine
 10
0.18487
 20
1.328756999999999
 30
0.0
 11
0.1848700000000001
 21
2.965849403846153
 31
0.0
  0
LINE
  5
51
330
4E
100
AcDbEntity
  8
1
  6
solid
 62
     7
100
AcDbLine
 10
2.532515
 20
2.677784999999999
 30
0.0
 11
2.532515
 21
2.965849403846153
 31
0.0
  0
LINE
  5
52
330
4E
100
AcDbEntity
  8
1
  6
solid
 62
     7
100
AcDbLine
 10
0.1848700000000001
 20
2.903349403846153
 30
0.0
 11
1.091618970588235
 21
2.903349403846153
 31
0.0
  0
LINE
  5
53
330
4E
100
AcDbEntity
  8
1
  6
solid
 62
     7
100
AcDbLine
 10
2.532515
 20
2.903349403846153
 30
0.0
 11
1.625766029411764
 21
2.903349403846153
 31
0.0
  0
MTEXT
  5
54
330
4E
100
AcDbEntity
  8
1
  6
solid
 62
     7
100
AcDbMText
 10
1.3586925
 20
2.903349403846153
 30
0.0
 40
0.125
 41
0.0
 71
     5
 72
     1
  1
{\H0.125000;2 3/8}
 73
     1
 44
1.0
  0
SOLID
  5
55
330
4E
100
AcDbEntity
  8
1
  6
solid
 62
     7
100
AcDbTrace
 10
0.3098700000010001
 20
2.924161903846154
 30
0.0
 11
0.3098700000010001
 21
2.882536903846153
 31
0.0
 12
0.1848700000000001
 22
2.903349403846153
 32
0.0
 13
0.1848700000000001
 23
2.903349403846153
 33
0.0
  0
SOLID
  5
56
330
4E
100
AcDbEntity
  8
1
  6
solid
 62
     7
100
AcDbTrace
 10
2.407514999998999
 20
2.882536903846153
 30
0.0
 11
2.407514999998999
 21
2.924161903846154
 31
0.0
 12
2.532515
 22
2.903349403846153
 32
0.0
 13
2.532515
 23
2.903349403846153
 33
0.0
  0
ENDBLK
  5
57
330
4E
100
AcDbEntity
  8
1
  6
solid
 62
     7
100
AcDbBlockEnd
  0
BLOCK
  5
13D
330
13C
100
AcDbEntity
  8
0
  6
solid
 62
     7
100
AcDbBlockBegin
  2
*D2
 70
     0
 10
0.0
 20
0.0
 30
0.0
  3
*D2
  1

  0
LINE
  5
13E
330
13C
100
AcDbEntity
  8
0
  6
solid
 62
     7
100
AcDbLine
 10
-4.255360126495361
 20
0.7183066606521608
 30
0.0
 11
-5.115596208197942
 21
0.7183066606521611
 31
0.0
  0
LINE
  5
13F
330
13C
100
AcDbEntity
  8
0
  6
solid
 62
     7
100
AcDbLine
 10
-4.892231464385986
 20
1.534994721412658
 30
0.0
 11
-5.115596208197941
 21
1.534994721412659
 31
0.0
  0
LINE
  5
140
330
13C
100
AcDbEntity
  8
0
  6
solid
 62
     7
100
AcDbLine
 10
-5.053096208197942
 20
0.7183066606521611
 30
0.0
 11
-5.053096208197942
 21
1.12665069103241
 31
0.0
  0
LINE
  5
141
330
13C
100
AcDbEntity
  8
0
  6
solid
 62
     7
100
AcDbLine
 10
-5.053096208197941
 20
1.534994721412659
 30
0.0
 11
-5.053096208197942
 21
1.12665069103241
 31
0.0
  0
MTEXT
  5
142
330
13C
100
AcDbEntity
  8
0
  6
solid
 62
     7
100
AcDbMText
 10
-5.442558708197942
 20
1.12665069103241
 30
0.0
 40
0.125
 41
0.0
 71
     5
 72
     1
  1
{\H0.125000;13/16}
 73
     1
 44
1.0
  0
SOLID
  5
143
330
13C
100
AcDbEntity
  8
0
  6
solid
 62
     7
100
AcDbTrace
 10
-5.073911208197942
 20
0.8433066606521609
 30
0.0
 11
-5.032281208197942
 21
0.8433066606521609
 31
0.0
 12
-5.053096208197942
 22
0.7183066606521611
 32
0.0
 13
-5.053096208197942
 23
0.7183066606521611
 33
0.0
  0
SOLID
  5
144
330
13C
100
AcDbEntity
  8
0
  6
solid
 62
     7
100
AcDbTrace
 10
-5.032281208197941
 20
1.409994721412659
 30
0.0
 11
-5.073911208197941
 21
1.409994721412659
 31
0.0
 12
-5.053096208197941
 22
1.534994721412659
 32
0.0
 13
-5.053096208197941
 23
1.534994721412659
 33
0.0
  0
ENDBLK
  5
145
330
13C
100
AcDbEntity
  8
0
  6
solid
 62
     7
100
AcDbBlockEnd
  0
BLOCK
  5
148
330
147
100
AcDbEntity
  8
0
  6
solid
 62
     7
100
AcDbBlockBegin
  2
*D3
 70
     0
 10
0.0
 20
0.0
 30
0.0
  3
*D3
  1

  0
LINE
  5
149
330
147
100
AcDbEntity
  8
0
  6
solid
 62
     7
100
AcDbLine
 10
-4.913478851318359
 20
1.376424670219421
 30
0.0
 11
-4.913478851318359
 21
0.3441496958842185
 31
0.0
  0
LINE
  5
14A
330
147
100
AcDbEntity
  8
0
  6
solid
 62
     7
100
AcDbLine
 10
-1.663478851318359
 20
1.376424908638
 30
0.0
 11
-1.663478851318359
 21
0.3441496958842185
 31
0.0
  0
LINE
  5
14B
330
147
100
AcDbEntity
  8
0
  6
solid
 62
     7
100
AcDbLine
 10
-4.913478851318359
 20
0.4066496958842185
 30
0.0
 11
-3.288478851318359
 21
0.4066496958842185
 31
0.0
  0
LINE
  5
14C
330
147
100
AcDbEntity
  8
0
  6
solid
 62
     7
100
AcDbLine
 10
-1.663478851318359
 20
0.4066496958842185
 30
0.0
 11
-3.288478851318359
 21
0.4066496958842185
 31
0.0
  0
MTEXT
  5
14D
330
147
100
AcDbEntity
  8
0
  6
solid
 62
     7
100
AcDbMText
 10
-3.288478851318359
 20
0.5102347920380647
 30
0.0
 40
0.125
 41
0.0
 71
     5
 72
     1
  1
{\H0.125000;3 1/4}
 73
     1
 44
1.0
  0
SOLID
  5
14E
330
147
100
AcDbEntity
  8
0
  6
solid
 62
     7
100
AcDbTrace
 10
-4.788478851318359
 20
0.4274646958842185
 30
0.0
 11
-4.788478851318359
 21
0.3858346958842184
 31
0.0
 12
-4.913478851318359
 22
0.4066496958842185
 32
0.0
 13
-4.913478851318359
 23
0.4066496958842185
 33
0.0
  0
SOLID
  5
14F
330
147
100
AcDbEntity
  8
0
  6
solid
 62
     7
100
AcDbTrace
 10
-1.788478851318359
 20
0.3858346958842187
 30
0.0
 11
-1.788478851318359
 21
0.4274646958842188
 31
0.0
 12
-1.663478851318359
 22
0.4066496958842185
 32
0.0
 13
-1.663478851318359
 23
0.4066496958842185
 33
0.0
  0
ENDBLK
  5
150
330
147
100
AcDbEntity
  8
0
  6
solid
 62
     7
100
AcDbBlockEnd
  0
ENDSEC
  0
SECTION
  2
ENTITIES
  0
LINE
  5
28
330
A
100
AcDbEntity
  8
1
  6
solid
 62
     7
100
AcDbLine
 10
0.184871
 20
0.205141
 30
0.0
 11
0.18487
 21
1.203756999999999
 31
0.0
  0
ARC
  5
29
330
A
100
AcDbEntity
  8
1
  6
solid
 62
     7
100
AcDbCircle
 10
0.188994
 20
0.416515
 30
0.0
 40
0.211414
100
AcDbArc
 50
268.882483
 51
364.429426
  0
LINE
  5
2A
330
A
100
AcDbEntity
  8
1
  6
solid
 62
     7
100
AcDbLine
 10
0.399776
 20
0.4328420000000001
 30
0.0
 11
0.47184
 21
0.4612520000000001
 31
0.0
  0
ARC
  5
2B
330
A
100
AcDbEntity
  8
1
  6
solid
 62
     7
100
AcDbCircle
 10
0.691433
 20
0.5170040000000001
 30
0.0
 40
0.226559
100
AcDbArc
 50
89.27980299999999
 51
194.245752
  0
ARC
  5
2C
330
A
100
AcDbEntity
  8
1
  6
solid
 62
     7
100
AcDbCircle
 10
2.037754999999999
 20
0.675032
 30
0.0
 40
1.34522
100
AcDbArc
 50
134.250993
 51
177.08059
  0
LINE
  5
2D
330
A
100
AcDbEntity
  8
1
  6
solid
 62
     7
100
AcDbLine
 10
2.532515
 20
2.552784999999999
 30
0.0
 11
1.533898999999999
 21
2.552784999999999
 31
0.0
  0
ARC
  5
2E
330
A
100
AcDbEntity
  8
1
  6
solid
 62
     7
100
AcDbCircle
 10
2.321140999999999
 20
2.548661999999999
 30
0.0
 40
0.211414
100
AcDbArc
 50
265.5705740000001
 51
361.117517
  0
LINE
  5
2F
330
A
100
AcDbEntity
  8
1
  6
solid
 62
     7
100
AcDbLine
 10
2.304813
 20
2.337879999999999
 30
0.0
 11
2.276403999999999
 21
2.265816
 31
0.0
  0
ARC
  5
30
330
A
100
AcDbEntity
  8
1
  6
solid
 62
     7
100
AcDbCircle
 10
2.220651999999999
 20
2.046222999999999
 30
0.0
 40
0.226559
100
AcDbArc
 50
75.75424800000002
 51
180.720197
  0
ARC
  5
31
330
A
100
AcDbEntity
  8
1
  6
solid
 62
     7
100
AcDbCircle
 10
2.062624
 20
0.6999010000000001
 30
0.0
 40
1.34522
100
AcDbArc
 50
92.91940999999999
 51
135.749007
  0
LINE
  5
32
330
A
100
AcDbEntity
  8
1
  6
solid
 62
     7
100
AcDbLine
 10
1.533898999999999
 20
2.552784999999999
 30
0.0
 11
0.18487
 21
1.203756999999999
 31
0.0
  0
ARC
  5
33
330
A
100
AcDbEntity
  8
1
  6
solid
 62
     7
100
AcDbCircle
 10
0.8125069999999999
 20
-0.118126
 30
0.0
 40
0.211414
100
AcDbArc
 50
268.882483
 51
364.429426
  0
LINE
  5
34
330
A
100
AcDbEntity
  8
1
  6
solid
 62
     7
100
AcDbLine
 10
1.023288999999999
 20
-0.101798
 30
0.0
 11
1.095353
 21
-0.073388
 31
0.0
  0
ARC
  5
35
330
A
100
AcDbEntity
  8
1
  6
solid
 62
     7
100
AcDbCircle
 10
1.314945999999999
 20
-0.017636
 30
0.0
 40
0.226559
100
AcDbArc
 50
89.27980299999999
 51
194.245752
  0
ARC
  5
36
330
A
100
AcDbEntity
  8
1
  6
solid
 62
     7
100
AcDbCircle
 10
2.661268
 20
0.140392
 30
0.0
 40
1.34522
100
AcDbArc
 50
134.250993
 51
177.08059
  0
ARC
  5
37
330
A
100
AcDbEntity
  8
1
  6
solid
 62
     7
100
AcDbCircle
 10
2.944653999999999
 20
2.014022
 30
0.0
 40
0.211414
100
AcDbArc
 50
265.5705740000001
 51
361.117517
  0
LINE
  5
38
330
A
100
AcDbEntity
  8
1
  6
solid
 62
     7
100
AcDbLine
 10
2.928325999999999
 20
1.803238999999999
 30
0.0
 11
2.899916999999999
 21
1.731174999999999
 31
0.0
  0
ARC
  5
39
330
A
100
AcDbEntity
  8
1
  6
solid
 62
     7
100
AcDbCircle
 10
2.844165
 20
1.511581999999999
 30
0.0
 40
0.226559
100
AcDbArc
 50
75.75424800000002
 51
180.720197
  0
ARC
  5
3A
330
A
100
AcDbEntity
  8
1
  6
solid
 62
     7
100
AcDbCircle
 10
2.686136999999999
 20
0.165261
 30
0.0
 40
1.34522
100
AcDbArc
 50
92.91940999999999
 51
135.749007
  0
LINE
  5
3B
330
A
100
AcDbEntity
  8
1
  6
solid
 62
     7
100
AcDbLine
 10
2.532515
 20
2.552784999999999
 30
0.0
 11
3.156028
 21
2.018145
 31
0.0
  0
LINE
  5
3C
330
A
100
AcDbEntity
  8
1
  6
solid
 62
     7
100
AcDbLine
 10
2.304813
 20
2.337879999999999
 30
0.0
 11
2.928325999999999
 21
1.803238999999999
 31
0.0
  0
LINE
  5
3D
330
A
100
AcDbEntity
  8
1
  6
solid
 62
     7
100
AcDbLine
 10
2.276403999999999
 20
2.265816
 30
0.0
 11
2.899916999999999
 21
1.731174999999999
 31
0.0
  0
LINE
  5
3E
330
A
100
AcDbEntity
  8
1
  6
solid
 62
     7
100
AcDbLine
 10
1.994109999999999
 20
2.043375
 30
0.0
 11
2.617623
 21
1.508734999999999
 31
0.0
  0
LINE
  5
3F
330
A
100
AcDbEntity
  8
1
  6
solid
 62
     7
100
AcDbLine
 10
0.6942810000000001
 20
0.7435460000000001
 30
0.0
 11
1.317794
 21
0.208905
 31
0.0
  0
LINE
  5
40
330
A
100
AcDbEntity
  8
1
  6
solid
 62
     7
100
AcDbLine
 10
0.47184
 20
0.4612520000000001
 30
0.0
 11
1.095353
 21
-0.073388
 31
0.0
  0
LINE
  5
41
330
A
100
AcDbEntity
  8
1
  6
solid
 62
     7
100
AcDbLine
 10
0.399776
 20
0.432843
 30
0.0
 11
1.023288999999999
 21
-0.101798
 31
0.0
  0
LINE
  5
42
330
A
100
AcDbEntity
  8
1
  6
solid
 62
     7
100
AcDbLine
 10
0.184871
 20
0.205141
 30
0.0
 11
0.808384
 21
-0.329499
 31
0.0
  0
LINE
  5
59
330
A
100
AcDbEntity
  8
1
  6
solid
 62
     7
100
AcDbLine
 10
0.425296
 20
-0.556208
 30
0.0
 11
0.400587
 21
-0.556208
 31
0.0
  0
LINE
  5
5A
330
A
100
AcDbEntity
  8
1
  6
solid
 62
     7
100
AcDbLine
 10
0.400587
 20
-0.556208
 30
0.0
 11
0.400587
 21
-0.4673520000000001
 31
0.0
  0
SPLINE
  5
5B
330
A
100
AcDbEntity
  8
1
  6
solid
 62
     7
100
AcDbSpline
210
0.0
220
0.0
230
1.0
 70
     8
 71
     2
 72
     6
 73
     3
 74
     0
 42
0.0000000001
 43
0.0000000001
 40
0.0
 40
0.0
 40
0.0
 40
1.0
 40
1.0
 40
1.0
 10
0.4005869483522787
 20
-0.4673519888458025
 30
0.0
 10
0.3875948553290228
 20
-0.4815147795434769
 30
0.0
 10
0.3700636925383252
 20
-0.4878943144271977
 30
0.0
  0
LINE
  5
5C
330
A
100
AcDbEntity
  8
1
  6
solid
 62
     7
100
AcDbLine
 10
0.370064
 20
-0.487894
 30
0.0
 11
0.370064
 21
-0.463185
 31
0.0
  0
SPLINE
  5
5D
330
A
100
AcDbEntity
  8
1
  6
solid
 62
     7
100
AcDbSpline
210
0.0
220
0.0
230
1.0
 70
     8
 71
     2
 72
     7
 73
     4
 74
     0
 42
0.0000000001
 43
0.0000000001
 40
0.0
 40
0.0
 40
0.0
 40
1.0
 40
2.0
 40
2.0
 40
2.0
 10
0.3700636925383252
 20
-0.4631850121016163
 30
0.0
 10
0.3792460181197205
 20
-0.4601440818690583
 30
0.0
 10
0.4012715995150693
 20
-0.4427915237295233
 30
0.0
 10
0.4054683437011159
 20
-0.4312082679155698
 30
0.0
  0
LINE
  5
5E
330
A
100
AcDbEntity
  8
1
  6
solid
 62
     7
100
AcDbLine
 10
0.4054680000000001
 20
-0.431208
 30
0.0
 11
0.425296
 21
-0.431208
 31
0.0
  0
LINE
  5
5F
330
A
100
AcDbEntity
  8
1
  6
solid
 62
     7
100
AcDbLine
 10
0.425296
 20
-0.556208
 30
0.0
 11
0.425296
 21
-0.431208
 31
0.0
  0
LINE
  5
60
330
A
100
AcDbEntity
  8
1
  6
solid
 62
     7
100
AcDbLine
 10
0.447216
 20
-0.5198710000000001
 30
0.0
 11
0.4719260000000001
 21
-0.516964
 31
0.0
  0
SPLINE
  5
61
330
A
100
AcDbEntity
  8
1
  6
solid
 62
     7
100
AcDbSpline
210
0.0
220
0.0
230
1.0
 70
     8
 71
     2
 72
     7
 73
     4
 74
     0
 42
0.0000000001
 43
0.0000000001
 40
0.0
 40
0.0
 40
0.0
 40
1.0
 40
2.0
 40
2.0
 40
2.0
 10
0.4719255530034415
 20
-0.5169640818690582
 30
0.0
 10
0.4726102041662321
 20
-0.5264836167527793
 30
0.0
 10
0.4821595064918136
 20
-0.5358594307062674
 30
0.0
 10
0.4884497390499531
 20
-0.5358594307062674
 30
0.0
  0
SPLINE
  5
62
330
A
100
AcDbEntity
  8
1
  6
solid
 62
     7
100
AcDbSpline
210
0.0
220
0.0
230
1.0
 70
     8
 71
     2
 72
     7
 73
     4
 74
     0
 42
0.0000000001
 43
0.0000000001
 40
0.0
 40
0.0
 40
0.0
 40
1.0
 40
2.0
 40
2.0
 40
2.0
 10
0.4884497390499531
 20
-0.5358594307062674
 30
0.0
 10
0.4955534599801858
 20
-0.5358594307062674
 30
0.0
 10
0.5053557855615809
 20
-0.5262157097760351
 30
0.0
 10
0.5053557855615809
 20
-0.5175840818690581
 30
0.0
  0
SPLINE
  5
63
330
A
100
AcDbEntity
  8
1
  6
solid
 62
     7
100
AcDbSpline
210
0.0
220
0.0
230
1.0
 70
     8
 71
     2
 72
     7
 73
     4
 74
     0
 42
0.0000000001
 43
0.0000000001
 40
0.0
 40
0.0
 40
0.0
 40
1.0
 40
2.0
 40
2.0
 40
2.0
 10
0.5053557855615809
 20
-0.5175840818690581
 30
0.0
 10
0.5053557855615809
 20
-0.5092650121016164
 30
0.0
 10
0.4966646227708833
 20
-0.499522221403942
 30
0.0
 10
0.4900818320732089
 20
-0.499522221403942
 30
0.0
  0
SPLINE
  5
64
330
A
100
AcDbEntity
  8
1
  6
solid
 62
     7
100
AcDbSpline
210
0.0
220
0.0
230
1.0
 70
     8
 71
     2
 72
     6
 73
     3
 74
     0
 42
0.0000000001
 43
0.0000000001
 40
0.0
 40
0.0
 40
0.0
 40
1.0
 40
1.0
 40
1.0
 10
0.4900818320732089
 20
-0.499522221403942
 30
0.0
 10
0.4858850878871623
 20
-0.499522221403942
 30
0.0
 10
0.4806464832359996
 20
-0.5016998958225465
 30
0.0
  0
LINE
  5
65
330
A
100
AcDbEntity
  8
1
  6
solid
 62
     7
100
AcDbLine
 10
0.4806460000000001
 20
-0.5017000000000001
 30
0.0
 11
0.4825910000000001
 21
-0.4806270000000001
 31
0.0
  0
SPLINE
  5
66
330
A
100
AcDbEntity
  8
1
  6
solid
 62
     7
100
AcDbSpline
210
0.0
220
0.0
230
1.0
 70
     8
 71
     2
 72
     7
 73
     4
 74
     0
 42
0.0000000001
 43
0.0000000001
 40
0.0
 40
0.0
 40
0.0
 40
1.0
 40
2.0
 40
2.0
 40
2.0
 10
0.4825911343987903
 20
-0.4806268725667326
 30
0.0
 10
0.4909250878871624
 20
-0.4813064074504535
 30
0.0
 10
0.4995418320732089
 20
-0.4728682679155698
 30
0.0
 10
0.4995418320732089
 20
-0.4658687330318489
 30
0.0
  0
SPLINE
  5
67
330
A
100
AcDbEntity
  8
1
  6
solid
 62
     7
100
AcDbSpline
210
0.0
220
0.0
230
1.0
 70
     8
 71
     2
 72
     7
 73
     4
 74
     0
 42
0.0000000001
 43
0.0000000001
 40
0.0
 40
0.0
 40
0.0
 40
1.0
 40
2.0
 40
2.0
 40
2.0
 10
0.4995418320732089
 20
-0.4658687330318489
 30
0.0
 10
0.4995418320732089
 20
-0.4600547795434768
 30
0.0
 10
0.4929143902127439
 20
-0.4530105934969651
 30
0.0
 10
0.4880032274220462
 20
-0.4530105934969651
 30
0.0
  0
SPLINE
  5
68
330
A
100
AcDbEntity
  8
1
  6
solid
 62
     7
100
AcDbSpline
210
0.0
220
0.0
230
1.0
 70
     8
 71
     2
 72
     7
 73
     4
 74
     0
 42
0.0000000001
 43
0.0000000001
 40
0.0
 40
0.0
 40
0.0
 40
1.0
 40
2.0
 40
2.0
 40
2.0
 10
0.4880032274220462
 20
-0.4530105934969651
 30
0.0
 10
0.4826209018406507
 20
-0.4530105934969651
 30
0.0
 10
0.4753534599801856
 20
-0.4613594307062675
 30
0.0
 10
0.4748325297476275
 20
-0.4689989655899884
 30
0.0
  0
LINE
  5
69
330
A
100
AcDbEntity
  8
1
  6
solid
 62
     7
100
AcDbLine
 10
0.4748330000000001
 20
-0.468999
 30
0.0
 11
0.450123
 21
-0.465645
 31
0.0
  0
SPLINE
  5
6A
330
A
100
AcDbEntity
  8
1
  6
solid
 62
     7
100
AcDbSpline
210
0.0
220
0.0
230
1.0
 70
     8
 71
     2
 72
     8
 73
     5
 74
     0
 42
0.0000000001
 43
0.0000000001
 40
0.0
 40
0.0
 40
0.0
 40
1.0
 40
2.0
 40
3.0
 40
3.0
 40
3.0
 10
0.4501232274220461
 20
-0.4656454772178954
 30
0.0
 10
0.4520976460266973
 20
-0.4538538493109188
 30
0.0
 10
0.4610715995150694
 20
-0.4395422214039419
 30
0.0
 10
0.4777692739336741
 20
-0.4312082679155698
 30
0.0
 10
0.4873981111429763
 20
-0.4312082679155698
 30
0.0
  0
SPLINE
  5
6B
330
A
100
AcDbEntity
  8
1
  6
solid
 62
     7
100
AcDbSpline
210
0.0
220
0.0
230
1.0
 70
     8
 71
     2
 72
     6
 73
     3
 74
     0
 42
0.0000000001
 43
0.0000000001
 40
0.0
 40
0.0
 40
0.0
 40
1.0
 40
1.0
 40
1.0
 10
0.4873981111429763
 20
-0.4312082679155698
 30
0.0
 10
0.5047506692825113
 20
-0.4312082679155698
 30
0.0
 10
0.5156046227708833
 20
-0.442642686520221
 30
0.0
  0
SPLINE
  5
6C
330
A
100
AcDbEntity
  8
1
  6
solid
 62
     7
100
AcDbSpline
210
0.0
220
0.0
230
1.0
 70
     8
 71
     2
 72
     6
 73
     3
 74
     0
 42
0.0000000001
 43
0.0000000001
 40
0.0
 40
0.0
 40
0.0
 40
1.0
 40
1.0
 40
1.0
 10
0.5156046227708833
 20
-0.442642686520221
 30
0.0
 10
0.5242511343987904
 20
-0.452221756287663
 30
0.0
 10
0.5242511343987904
 20
-0.4638645469853372
 30
0.0
  0
SPLINE
  5
6D
330
A
100
AcDbEntity
  8
1
  6
solid
 62
     7
100
AcDbSpline
210
0.0
220
0.0
230
1.0
 70
     8
 71
     2
 72
     6
 73
     3
 74
     0
 42
0.0000000001
 43
0.0000000001
 40
0.0
 40
0.0
 40
0.0
 40
1.0
 40
1.0
 40
1.0
 10
0.5242511343987904
 20
-0.4638645469853372
 30
0.0
 10
0.5242511343987904
 20
-0.4802398958225467
 30
0.0
 10
0.5056236925383252
 20
-0.4902059423341746
 30
0.0
  0
SPLINE
  5
6E
330
A
100
AcDbEntity
  8
1
  6
solid
 62
     7
100
AcDbSpline
210
0.0
220
0.0
230
1.0
 70
     8
 71
     2
 72
     7
 73
     4
 74
     0
 42
0.0000000001
 43
0.0000000001
 40
0.0
 40
0.0
 40
0.0
 40
1.0
 40
2.0
 40
2.0
 40
2.0
 10
0.5056236925383252
 20
-0.4902059423341746
 30
0.0
 10
0.5163785762592556
 20
-0.4921803609388256
 30
0.0
 10
0.5300650878871625
 20
-0.5079603609388256
 30
0.0
 10
0.5300650878871625
 20
-0.5192310586132442
 30
0.0
  0
SPLINE
  5
6F
330
A
100
AcDbEntity
  8
1
  6
solid
 62
     7
100
AcDbSpline
210
0.0
220
0.0
230
1.0
 70
     8
 71
     2
 72
     7
 73
     4
 74
     0
 42
0.0000000001
 43
0.0000000001
 40
0.0
 40
0.0
 40
0.0
 40
1.0
 40
2.0
 40
2.0
 40
2.0
 10
0.5300650878871625
 20
-0.5192310586132442
 30
0.0
 10
0.5300650878871625
 20
-0.5352938493109188
 30
0.0
 10
0.5058320646313483
 20
-0.5576617562876628
 30
0.0
 10
0.4881074134685577
 20
-0.5576617562876628
 30
0.0
  0
SPLINE
  5
70
330
A
100
AcDbEntity
  8
1
  6
solid
 62
     7
100
AcDbSpline
210
0.0
220
0.0
230
1.0
 70
     8
 71
     2
 72
     7
 73
     4
 74
     0
 42
0.0000000001
 43
0.0000000001
 40
0.0
 40
0.0
 40
0.0
 40
1.0
 40
2.0
 40
2.0
 40
2.0
 10
0.4881074134685577
 20
-0.5576617562876628
 30
0.0
 10
0.4710078785848368
 20
-0.5576617562876628
 30
0.0
 10
0.4488929948639066
 20
-0.536955709776035
 30
0.0
 10
0.4472162506778601
 20
-0.5198710586132444
 30
0.0
  0
LINE
  5
71
330
A
100
AcDbEntity
  8
1
  6
solid
 62
     7
100
AcDbLine
 10
0.551157
 20
-0.556208
 30
0.0
 11
0.580241
 21
-0.431208
 31
0.0
  0
LINE
  5
72
330
A
100
AcDbEntity
  8
1
  6
solid
 62
     7
100
AcDbLine
 10
0.580241
 20
-0.431208
 30
0.0
 11
0.59995
 21
-0.431208
 31
0.0
  0
LINE
  5
73
330
A
100
AcDbEntity
  8
1
  6
solid
 62
     7
100
AcDbLine
 10
0.59995
 20
-0.431208
 30
0.0
 11
0.57088
 21
-0.556208
 31
0.0
  0
LINE
  5
74
330
A
100
AcDbEntity
  8
1
  6
solid
 62
     7
100
AcDbLine
 10
0.551157
 20
-0.556208
 30
0.0
 11
0.57088
 21
-0.556208
 31
0.0
  0
LINE
  5
75
330
A
100
AcDbEntity
  8
1
  6
solid
 62
     7
100
AcDbLine
 10
0.677103
 20
-0.556208
 30
0.0
 11
0.652393
 21
-0.556208
 31
0.0
  0
LINE
  5
76
330
A
100
AcDbEntity
  8
1
  6
solid
 62
     7
100
AcDbLine
 10
0.652393
 20
-0.556208
 30
0.0
 11
0.652393
 21
-0.4673520000000001
 31
0.0
  0
SPLINE
  5
77
330
A
100
AcDbEntity
  8
1
  6
solid
 62
     7
100
AcDbSpline
210
0.0
220
0.0
230
1.0
 70
     8
 71
     2
 72
     6
 73
     3
 74
     0
 42
0.0000000001
 43
0.0000000001
 40
0.0
 40
0.0
 40
0.0
 40
1.0
 40
1.0
 40
1.0
 10
0.6523934599801856
 20
-0.4673519888458025
 30
0.0
 10
0.6394013669569301
 20
-0.4815147795434769
 30
0.0
 10
0.6218702041662322
 20
-0.4878943144271977
 30
0.0
  0
LINE
  5
78
330
A
100
AcDbEntity
  8
1
  6
solid
 62
     7
100
AcDbLine
 10
0.6218700000000001
 20
-0.487894
 30
0.0
 11
0.6218700000000001
 21
-0.463185
 31
0.0
  0
SPLINE
  5
79
330
A
100
AcDbEntity
  8
1
  6
solid
 62
     7
100
AcDbSpline
210
0.0
220
0.0
230
1.0
 70
     8
 71
     2
 72
     7
 73
     4
 74
     0
 42
0.0000000001
 43
0.0000000001
 40
0.0
 40
0.0
 40
0.0
 40
1.0
 40
2.0
 40
2.0
 40
2.0
 10
0.6218702041662322
 20
-0.4631850121016163
 30
0.0
 10
0.6310525297476275
 20
-0.4601440818690583
 30
0.0
 10
0.6530781111429765
 20
-0.4427915237295233
 30
0.0
 10
0.6572748553290229
 20
-0.4312082679155698
 30
0.0
  0
LINE
  5
7A
330
A
100
AcDbEntity
  8
1
  6
solid
 62
     7
100
AcDbLine
 10
0.6572750000000001
 20
-0.431208
 30
0.0
 11
0.677103
 21
-0.431208
 31
0.0
  0
LINE
  5
7B
330
A
100
AcDbEntity
  8
1
  6
solid
 62
     7
100
AcDbLine
 10
0.677103
 20
-0.556208
 30
0.0
 11
0.677103
 21
-0.431208
 31
0.0
  0
LINE
  5
7C
330
A
100
AcDbEntity
  8
1
  6
solid
 62
     7
100
AcDbLine
 10
0.778965
 20
-0.465303
 30
0.0
 11
0.7542550000000001
 21
-0.467545
 31
0.0
  0
SPLINE
  5
7D
330
A
100
AcDbEntity
  8
1
  6
solid
 62
     7
100
AcDbSpline
210
0.0
220
0.0
230
1.0
 70
     8
 71
     2
 72
     7
 73
     4
 74
     0
 42
0.0000000001
 43
0.0000000001
 40
0.0
 40
0.0
 40
0.0
 40
1.0
 40
2.0
 40
2.0
 40
2.0
 10
0.754255320445302
 20
-0.4675454772178954
 30
0.0
 10
0.7532036925383254
 20
-0.4601589655899885
 30
0.0
 10
0.7461148553290231
 20
-0.4530105934969651
 30
0.0
 10
0.7404497390499532
 20
-0.4530105934969651
 30
0.0
  0
SPLINE
  5
7E
330
A
100
AcDbEntity
  8
1
  6
solid
 62
     7
100
AcDbSpline
210
0.0
220
0.0
230
1.0
 70
     8
 71
     2
 72
     7
 73
     4
 74
     0
 42
0.0000000001
 43
0.0000000001
 40
0.0
 40
0.0
 40
0.0
 40
1.0
 40
2.0
 40
2.0
 40
2.0
 10
0.7404497390499532
 20
-0.4530105934969651
 30
0.0
 10
0.7330929948639067
 20
-0.4530105934969651
 30
0.0
 10
0.7228739250964648
 20
-0.4675157097760349
 30
0.0
 10
0.7214948553290231
 20
-0.4901017562876628
 30
0.0
  0
SPLINE
  5
7F
330
A
100
AcDbEntity
  8
1
  6
solid
 62
     7
100
AcDbSpline
210
0.0
220
0.0
230
1.0
 70
     8
 71
     2
 72
     6
 73
     3
 74
     0
 42
0.0000000001
 43
0.0000000001
 40
0.0
 40
0.0
 40
0.0
 40
1.0
 40
1.0
 40
1.0
 10
0.7214948553290231
 20
-0.4901017562876628
 30
0.0
 10
0.7309995064918136
 20
-0.4791733841946395
 30
0.0
 10
0.7444381111429764
 20
-0.4791733841946395
 30
0.0
  0
SPLINE
  5
80
330
A
100
AcDbEntity
  8
1
  6
solid
 62
     7
100
AcDbSpline
210
0.0
220
0.0
230
1.0
 70
     8
 71
     2
 72
     7
 73
     4
 74
     0
 42
0.0000000001
 43
0.0000000001
 40
0.0
 40
0.0
 40
0.0
 40
1.0
 40
2.0
 40
2.0
 40
2.0
 10
0.7444381111429764
 20
-0.4791733841946395
 30
0.0
 10
0.7595088088173952
 20
-0.4791733841946395
 30
0.0
 10
0.7818715995150695
 20
-0.5007971051248721
 30
0.0
 10
0.7818715995150695
 20
-0.5179710586132443
 30
0.0
  0
SPLINE
  5
81
330
A
100
AcDbEntity
  8
1
  6
solid
 62
     7
100
AcDbSpline
210
0.0
220
0.0
230
1.0
 70
     8
 71
     2
 72
     7
 73
     4
 74
     0
 42
0.0000000001
 43
0.0000000001
 40
0.0
 40
0.0
 40
0.0
 40
1.0
 40
2.0
 40
2.0
 40
2.0
 10
0.7818715995150695
 20
-0.5179710586132443
 30
0.0
 10
0.7818715995150695
 20
-0.5358296632644071
 30
0.0
 10
0.7592111343987904
 20
-0.5576617562876628
 30
0.0
 10
0.7417246227708834
 20
-0.5576617562876628
 30
0.0
  0
SPLINE
  5
82
330
A
100
AcDbEntity
  8
1
  6
solid
 62
     7
100
AcDbSpline
210
0.0
220
0.0
230
1.0
 70
     8
 71
     2
 72
     7
 73
     4
 74
     0
 42
0.0000000001
 43
0.0000000001
 40
0.0
 40
0.0
 40
0.0
 40
1.0
 40
2.0
 40
2.0
 40
2.0
 10
0.7417246227708834
 20
-0.5576617562876628
 30
0.0
 10
0.7229036925383252
 20
-0.5576617562876628
 30
0.0
 10
0.6990227623057672
 20
-0.5285473376830117
 30
0.0
 10
0.6990227623057672
 20
-0.4957668725667326
 30
0.0
  0
SPLINE
  5
83
330
A
100
AcDbEntity
  8
1
  6
solid
 62
     7
100
AcDbSpline
210
0.0
220
0.0
230
1.0
 70
     8
 71
     2
 72
     7
 73
     4
 74
     0
 42
0.0000000001
 43
0.0000000001
 40
0.0
 40
0.0
 40
0.0
 40
1.0
 40
2.0
 40
2.0
 40
2.0
 10
0.6990227623057672
 20
-0.4957668725667326
 30
0.0
 10
0.6990227623057672
 20
-0.4614338493109186
 30
0.0
 10
0.7239404367243717
 20
-0.4312082679155698
 30
0.0
 10
0.7435502041662322
 20
-0.4312082679155698
 30
0.0
  0
SPLINE
  5
84
330
A
100
AcDbEntity
  8
1
  6
solid
 62
     7
100
AcDbSpline
210
0.0
220
0.0
230
1.0
 70
     8
 71
     2
 72
     7
 73
     4
 74
     0
 42
0.0000000001
 43
0.0000000001
 40
0.0
 40
0.0
 40
0.0
 40
1.0
 40
2.0
 40
2.0
 40
2.0
 10
0.7435502041662322
 20
-0.4312082679155698
 30
0.0
 10
0.7577427623057673
 20
-0.4312082679155698
 30
0.0
 10
0.7763106692825113
 20
-0.4485310586132443
 30
0.0
 10
0.7789646227708836
 20
-0.4653031516365
 30
0.0
  0
SPLINE
  5
85
330
A
100
AcDbEntity
  8
1
  6
solid
 62
     7
100
AcDbSpline
210
0.0
220
0.0
230
1.0
 70
     8
 71
     2
 72
     7
 73
     4
 74
     0
 42
0.0000000001
 43
0.0000000001
 40
0.0
 40
0.0
 40
0.0
 40
1.0
 40
2.0
 40
2.0
 40
2.0
 10
0.7237320646313485
 20
-0.5176733841946395
 30
0.0
 10
0.7237320646313485
 20
-0.5265133841946396
 30
0.0
 10
0.7343381111429764
 20
-0.5358594307062674
 30
0.0
 10
0.7413971809104183
 20
-0.5358594307062674
 30
0.0
  0
SPLINE
  5
86
330
A
100
AcDbEntity
  8
1
  6
solid
 62
     7
100
AcDbSpline
210
0.0
220
0.0
230
1.0
 70
     8
 71
     2
 72
     7
 73
     4
 74
     0
 42
0.0000000001
 43
0.0000000001
 40
0.0
 40
0.0
 40
0.0
 40
1.0
 40
2.0
 40
2.0
 40
2.0
 10
0.7413971809104183
 20
-0.5358594307062674
 30
0.0
 10
0.7477915995150695
 20
-0.5358594307062674
 30
0.0
 10
0.7571622971894882
 20
-0.5281603609388256
 30
0.0
 10
0.7571622971894882
 20
-0.5192310586132442
 30
0.0
  0
SPLINE
  5
87
330
A
100
AcDbEntity
  8
1
  6
solid
 62
     7
100
AcDbSpline
210
0.0
220
0.0
230
1.0
 70
     8
 71
     2
 72
     7
 73
     4
 74
     0
 42
0.0000000001
 43
0.0000000001
 40
0.0
 40
0.0
 40
0.0
 40
1.0
 40
2.0
 40
2.0
 40
2.0
 10
0.7571622971894882
 20
-0.5192310586132442
 30
0.0
 10
0.7571622971894882
 20
-0.5096371051248722
 30
0.0
 10
0.7473450878871625
 20
-0.5009757097760349
 30
0.0
 10
0.7401074134685578
 20
-0.5009757097760349
 30
0.0
  0
SPLINE
  5
88
330
A
100
AcDbEntity
  8
1
  6
solid
 62
     7
100
AcDbSpline
210
0.0
220
0.0
230
1.0
 70
     8
 71
     2
 72
     7
 73
     4
 74
     0
 42
0.0000000001
 43
0.0000000001
 40
0.0
 40
0.0
 40
0.0
 40
1.0
 40
2.0
 40
2.0
 40
2.0
 10
0.7401074134685578
 20
-0.5009757097760349
 30
0.0
 10
0.7330483437011159
 20
-0.5009757097760349
 30
0.0
 10
0.7237320646313485
 20
-0.5093840818690582
 30
0.0
 10
0.7237320646313485
 20
-0.5176733841946395
 30
0.0
  0
LINE
  5
89
330
A
100
AcDbEntity
  8
1
  6
solid
 62
     7
100
AcDbLine
 10
0.827641
 20
-0.556208
 30
0.0
 11
0.87077
 21
-0.4905190000000001
 31
0.0
  0
LINE
  5
8A
330
A
100
AcDbEntity
  8
1
  6
solid
 62
     7
100
AcDbLine
 10
0.87077
 20
-0.4905190000000001
 30
0.0
 11
0.8320019999999999
 21
-0.431208
 31
0.0
  0
LINE
  5
8B
330
A
100
AcDbEntity
  8
1
  6
solid
 62
     7
100
AcDbLine
 10
0.8320019999999999
 20
-0.431208
 30
0.0
 11
0.8610569999999999
 21
-0.431208
 31
0.0
  0
LINE
  5
8C
330
A
100
AcDbEntity
  8
1
  6
solid
 62
     7
100
AcDbLine
 10
0.8610569999999999
 20
-0.431208
 30
0.0
 11
0.8853049999999999
 21
-0.468374
 31
0.0
  0
LINE
  5
8D
330
A
100
AcDbEntity
  8
1
  6
solid
 62
     7
100
AcDbLine
 10
0.8853049999999999
 20
-0.468374
 30
0.0
 11
0.909037
 21
-0.431208
 31
0.0
  0
LINE
  5
8E
330
A
100
AcDbEntity
  8
1
  6
solid
 62
     7
100
AcDbLine
 10
0.909037
 20
-0.431208
 30
0.0
 11
0.9381059999999999
 21
-0.431208
 31
0.0
  0
LINE
  5
8F
330
A
100
AcDbEntity
  8
1
  6
solid
 62
     7
100
AcDbLine
 10
0.9381059999999999
 20
-0.431208
 30
0.0
 11
0.89984
 21
-0.4905190000000001
 31
0.0
  0
LINE
  5
90
330
A
100
AcDbEntity
  8
1
  6
solid
 62
     7
100
AcDbLine
 10
0.89984
 20
-0.4905190000000001
 30
0.0
 11
0.942467
 21
-0.556208
 31
0.0
  0
LINE
  5
91
330
A
100
AcDbEntity
  8
1
  6
solid
 62
     7
100
AcDbLine
 10
0.942467
 20
-0.556208
 30
0.0
 11
0.9133969999999999
 21
-0.556208
 31
0.0
  0
LINE
  5
92
330
A
100
AcDbEntity
  8
1
  6
solid
 62
     7
100
AcDbLine
 10
0.9133969999999999
 20
-0.556208
 30
0.0
 11
0.8853049999999999
 21
-0.513149
 31
0.0
  0
LINE
  5
93
330
A
100
AcDbEntity
  8
1
  6
solid
 62
     7
100
AcDbLine
 10
0.8853049999999999
 20
-0.513149
 30
0.0
 11
0.8566959999999998
 21
-0.556208
 31
0.0
  0
LINE
  5
94
330
A
100
AcDbEntity
  8
1
  6
solid
 62
     7
100
AcDbLine
 10
0.827641
 20
-0.556208
 30
0.0
 11
0.8566959999999998
 21
-0.556208
 31
0.0
  0
LINE
  5
95
330
A
100
AcDbEntity
  8
1
  6
solid
 62
     7
100
AcDbLine
 10
0.9887379999999998
 20
-0.5198710000000001
 30
0.0
 11
1.013446999999999
 21
-0.516964
 31
0.0
  0
SPLINE
  5
96
330
A
100
AcDbEntity
  8
1
  6
solid
 62
     7
100
AcDbSpline
210
0.0
220
0.0
230
1.0
 70
     8
 71
     2
 72
     7
 73
     4
 74
     0
 42
0.0000000001
 43
0.0000000001
 40
0.0
 40
0.0
 40
0.0
 40
1.0
 40
2.0
 40
2.0
 40
2.0
 10
1.013446948352278
 20
-0.5169640818690582
 30
0.0
 10
1.014131599515069
 20
-0.5264836167527793
 30
0.0
 10
1.02368090184065
 20
-0.5358594307062674
 30
0.0
 10
1.02997113439879
 20
-0.5358594307062674
 30
0.0
  0
SPLINE
  5
97
330
A
100
AcDbEntity
  8
1
  6
solid
 62
     7
100
AcDbSpline
210
0.0
220
0.0
230
1.0
 70
     8
 71
     2
 72
     7
 73
     4
 74
     0
 42
0.0000000001
 43
0.0000000001
 40
0.0
 40
0.0
 40
0.0
 40
1.0
 40
2.0
 40
2.0
 40
2.0
 10
1.02997113439879
 20
-0.5358594307062674
 30
0.0
 10
1.037074855329022
 20
-0.5358594307062674
 30
0.0
 10
1.046877180910418
 20
-0.5262157097760351
 30
0.0
 10
1.046877180910418
 20
-0.5175840818690581
 30
0.0
  0
SPLINE
  5
98
330
A
100
AcDbEntity
  8
1
  6
solid
 62
     7
100
AcDbSpline
210
0.0
220
0.0
230
1.0
 70
     8
 71
     2
 72
     7
 73
     4
 74
     0
 42
0.0000000001
 43
0.0000000001
 40
0.0
 40
0.0
 40
0.0
 40
1.0
 40
2.0
 40
2.0
 40
2.0
 10
1.046877180910418
 20
-0.5175840818690581
 30
0.0
 10
1.046877180910418
 20
-0.5092650121016164
 30
0.0
 10
1.038186018119719
 20
-0.499522221403942
 30
0.0
 10
1.031603227422045
 20
-0.499522221403942
 30
0.0
  0
SPLINE
  5
99
330
A
100
AcDbEntity
  8
1
  6
solid
 62
     7
100
AcDbSpline
210
0.0
220
0.0
230
1.0
 70
     8
 71
     2
 72
     6
 73
     3
 74
     0
 42
0.0000000001
 43
0.0000000001
 40
0.0
 40
0.0
 40
0.0
 40
1.0
 40
1.0
 40
1.0
 10
1.031603227422045
 20
-0.499522221403942
 30
0.0
 10
1.027406483235999
 20
-0.499522221403942
 30
0.0
 10
1.022167878584836
 20
-0.5016998958225465
 30
0.0
  0
LINE
  5
9A
330
A
100
AcDbEntity
  8
1
  6
solid
 62
     7
100
AcDbLine
 10
1.022167999999999
 20
-0.5017000000000001
 30
0.0
 11
1.024112999999999
 21
-0.4806270000000001
 31
0.0
  0
SPLINE
  5
9B
330
A
100
AcDbEntity
  8
1
  6
solid
 62
     7
100
AcDbSpline
210
0.0
220
0.0
230
1.0
 70
     8
 71
     2
 72
     7
 73
     4
 74
     0
 42
0.0000000001
 43
0.0000000001
 40
0.0
 40
0.0
 40
0.0
 40
1.0
 40
2.0
 40
2.0
 40
2.0
 10
1.024112529747627
 20
-0.4806268725667326
 30
0.0
 10
1.032446483235998
 20
-0.4813064074504535
 30
0.0
 10
1.041063227422045
 20
-0.4728682679155698
 30
0.0
 10
1.041063227422045
 20
-0.4658687330318489
 30
0.0
  0
SPLINE
  5
9C
330
A
100
AcDbEntity
  8
1
  6
solid
 62
     7
100
AcDbSpline
210
0.0
220
0.0
230
1.0
 70
     8
 71
     2
 72
     7
 73
     4
 74
     0
 42
0.0000000001
 43
0.0000000001
 40
0.0
 40
0.0
 40
0.0
 40
1.0
 40
2.0
 40
2.0
 40
2.0
 10
1.041063227422045
 20
-0.4658687330318489
 30
0.0
 10
1.041063227422045
 20
-0.4600547795434768
 30
0.0
 10
1.03443578556158
 20
-0.4530105934969651
 30
0.0
 10
1.029524622770882
 20
-0.4530105934969651
 30
0.0
  0
SPLINE
  5
9D
330
A
100
AcDbEntity
  8
1
  6
solid
 62
     7
100
AcDbSpline
210
0.0
220
0.0
230
1.0
 70
     8
 71
     2
 72
     7
 73
     4
 74
     0
 42
0.0000000001
 43
0.0000000001
 40
0.0
 40
0.0
 40
0.0
 40
1.0
 40
2.0
 40
2.0
 40
2.0
 10
1.029524622770882
 20
-0.4530105934969651
 30
0.0
 10
1.024142297189488
 20
-0.4530105934969651
 30
0.0
 10
1.016874855329022
 20
-0.4613594307062675
 30
0.0
 10
1.016353925096463
 20
-0.4689989655899884
 30
0.0
  0
LINE
  5
9E
330
A
100
AcDbEntity
  8
1
  6
solid
 62
     7
100
AcDbLine
 10
1.016353999999999
 20
-0.468999
 30
0.0
 11
0.9916450000000001
 21
-0.465645
 31
0.0
  0
SPLINE
  5
9F
330
A
100
AcDbEntity
  8
1
  6
solid
 62
     7
100
AcDbSpline
210
0.0
220
0.0
230
1.0
 70
     8
 71
     2
 72
     8
 73
     5
 74
     0
 42
0.0000000001
 43
0.0000000001
 40
0.0
 40
0.0
 40
0.0
 40
1.0
 40
2.0
 40
3.0
 40
3.0
 40
3.0
 10
0.9916446227708831
 20
-0.4656454772178954
 30
0.0
 10
0.9936190413755344
 20
-0.4538538493109188
 30
0.0
 10
1.002592994863906
 20
-0.4395422214039419
 30
0.0
 10
1.01929066928251
 20
-0.4312082679155698
 30
0.0
 10
1.028919506491813
 20
-0.4312082679155698
 30
0.0
  0
SPLINE
  5
A0
330
A
100
AcDbEntity
  8
1
  6
solid
 62
     7
100
AcDbSpline
210
0.0
220
0.0
230
1.0
 70
     8
 71
     2
 72
     6
 73
     3
 74
     0
 42
0.0000000001
 43
0.0000000001
 40
0.0
 40
0.0
 40
0.0
 40
1.0
 40
1.0
 40
1.0
 10
1.028919506491813
 20
-0.4312082679155698
 30
0.0
 10
1.046272064631347
 20
-0.4312082679155698
 30
0.0
 10
1.057126018119719
 20
-0.442642686520221
 30
0.0
  0
SPLINE
  5
A1
330
A
100
AcDbEntity
  8
1
  6
solid
 62
     7
100
AcDbSpline
210
0.0
220
0.0
230
1.0
 70
     8
 71
     2
 72
     6
 73
     3
 74
     0
 42
0.0000000001
 43
0.0000000001
 40
0.0
 40
0.0
 40
0.0
 40
1.0
 40
1.0
 40
1.0
 10
1.057126018119719
 20
-0.442642686520221
 30
0.0
 10
1.065772529747627
 20
-0.452221756287663
 30
0.0
 10
1.065772529747627
 20
-0.4638645469853372
 30
0.0
  0
SPLINE
  5
A2
330
A
100
AcDbEntity
  8
1
  6
solid
 62
     7
100
AcDbSpline
210
0.0
220
0.0
230
1.0
 70
     8
 71
     2
 72
     6
 73
     3
 74
     0
 42
0.0000000001
 43
0.0000000001
 40
0.0
 40
0.0
 40
0.0
 40
1.0
 40
1.0
 40
1.0
 10
1.065772529747627
 20
-0.4638645469853372
 30
0.0
 10
1.065772529747627
 20
-0.4802398958225467
 30
0.0
 10
1.047145087887161
 20
-0.4902059423341746
 30
0.0
  0
SPLINE
  5
A3
330
A
100
AcDbEntity
  8
1
  6
solid
 62
     7
100
AcDbSpline
210
0.0
220
0.0
230
1.0
 70
     8
 71
     2
 72
     7
 73
     4
 74
     0
 42
0.0000000001
 43
0.0000000001
 40
0.0
 40
0.0
 40
0.0
 40
1.0
 40
2.0
 40
2.0
 40
2.0
 10
1.047145087887161
 20
-0.4902059423341746
 30
0.0
 10
1.057899971608091
 20
-0.4921803609388256
 30
0.0
 10
1.071586483235998
 20
-0.5079603609388256
 30
0.0
 10
1.071586483235998
 20
-0.5192310586132442
 30
0.0
  0
SPLINE
  5
A4
330
A
100
AcDbEntity
  8
1
  6
solid
 62
     7
100
AcDbSpline
210
0.0
220
0.0
230
1.0
 70
     8
 71
     2
 72
     7
 73
     4
 74
     0
 42
0.0000000001
 43
0.0000000001
 40
0.0
 40
0.0
 40
0.0
 40
1.0
 40
2.0
 40
2.0
 40
2.0
 10
1.071586483235998
 20
-0.5192310586132442
 30
0.0
 10
1.071586483235998
 20
-0.5352938493109188
 30
0.0
 10
1.047353459980185
 20
-0.5576617562876628
 30
0.0
 10
1.029628808817393
 20
-0.5576617562876628
 30
0.0
  0
SPLINE
  5
A5
330
A
100
AcDbEntity
  8
1
  6
solid
 62
     7
100
AcDbSpline
210
0.0
220
0.0
230
1.0
 70
     8
 71
     2
 72
     7
 73
     4
 74
     0
 42
0.0000000001
 43
0.0000000001
 40
0.0
 40
0.0
 40
0.0
 40
1.0
 40
2.0
 40
2.0
 40
2.0
 10
1.029628808817393
 20
-0.5576617562876628
 30
0.0
 10
1.012529273933673
 20
-0.5576617562876628
 30
0.0
 10
0.9904143902127435
 20
-0.536955709776035
 30
0.0
 10
0.9887376460266972
 20
-0.5198710586132444
 30
0.0
  0
LINE
  5
A6
330
A
100
AcDbEntity
  8
1
  6
solid
 62
     7
100
AcDbLine
 10
1.093505999999999
 20
-0.522778
 30
0.0
 11
1.093505999999999
 21
-0.500976
 31
0.0
  0
LINE
  5
A7
330
A
100
AcDbEntity
  8
1
  6
solid
 62
     7
100
AcDbLine
 10
1.093505999999999
 20
-0.500976
 30
0.0
 11
1.141472
 21
-0.500976
 31
0.0
  0
LINE
  5
A8
330
A
100
AcDbEntity
  8
1
  6
solid
 62
     7
100
AcDbLine
 10
1.141472
 20
-0.500976
 30
0.0
 11
1.141472
 21
-0.522778
 31
0.0
  0
LINE
  5
A9
330
A
100
AcDbEntity
  8
1
  6
solid
 62
     7
100
AcDbLine
 10
1.093505999999999
 20
-0.522778
 30
0.0
 11
1.141472
 21
-0.522778
 31
0.0
  0
LINE
  5
AA
330
A
100
AcDbEntity
  8
1
  6
solid
 62
     7
100
AcDbLine
 10
1.218623999999999
 20
-0.556208
 30
0.0
 11
1.193915
 21
-0.556208
 31
0.0
  0
LINE
  5
AB
330
A
100
AcDbEntity
  8
1
  6
solid
 62
     7
100
AcDbLine
 10
1.193915
 20
-0.556208
 30
0.0
 11
1.193915
 21
-0.4673520000000001
 31
0.0
  0
SPLINE
  5
AC
330
A
100
AcDbEntity
  8
1
  6
solid
 62
     7
100
AcDbSpline
210
0.0
220
0.0
230
1.0
 70
     8
 71
     2
 72
     6
 73
     3
 74
     0
 42
0.0000000001
 43
0.0000000001
 40
0.0
 40
0.0
 40
0.0
 40
1.0
 40
1.0
 40
1.0
 10
1.193914855329021
 20
-0.4673519888458025
 30
0.0
 10
1.180922762305766
 20
-0.4815147795434769
 30
0.0
 10
1.163391599515069
 20
-0.4878943144271977
 30
0.0
  0
LINE
  5
AD
330
A
100
AcDbEntity
  8
1
  6
solid
 62
     7
100
AcDbLine
 10
1.163391999999999
 20
-0.487894
 30
0.0
 11
1.163391999999999
 21
-0.463185
 31
0.0
  0
SPLINE
  5
AE
330
A
100
AcDbEntity
  8
1
  6
solid
 62
     7
100
AcDbSpline
210
0.0
220
0.0
230
1.0
 70
     8
 71
     2
 72
     7
 73
     4
 74
     0
 42
0.0000000001
 43
0.0000000001
 40
0.0
 40
0.0
 40
0.0
 40
1.0
 40
2.0
 40
2.0
 40
2.0
 10
1.163391599515069
 20
-0.4631850121016163
 30
0.0
 10
1.172573925096464
 20
-0.4601440818690583
 30
0.0
 10
1.194599506491812
 20
-0.4427915237295233
 30
0.0
 10
1.198796250677859
 20
-0.4312082679155698
 30
0.0
  0
LINE
  5
AF
330
A
100
AcDbEntity
  8
1
  6
solid
 62
     7
100
AcDbLine
 10
1.198795999999999
 20
-0.431208
 30
0.0
 11
1.218623999999999
 21
-0.431208
 31
0.0
  0
LINE
  5
B0
330
A
100
AcDbEntity
  8
1
  6
solid
 62
     7
100
AcDbLine
 10
1.218623999999999
 20
-0.556208
 30
0.0
 11
1.218623999999999
 21
-0.431208
 31
0.0
  0
LINE
  5
B1
330
A
100
AcDbEntity
  8
1
  6
solid
 62
     7
100
AcDbLine
 10
1.239716
 20
-0.556208
 30
0.0
 11
1.268799999999999
 21
-0.431208
 31
0.0
  0
LINE
  5
B2
330
A
100
AcDbEntity
  8
1
  6
solid
 62
     7
100
AcDbLine
 10
1.268799999999999
 20
-0.431208
 30
0.0
 11
1.288508999999999
 21
-0.431208
 31
0.0
  0
LINE
  5
B3
330
A
100
AcDbEntity
  8
1
  6
solid
 62
     7
100
AcDbLine
 10
1.288508999999999
 20
-0.431208
 30
0.0
 11
1.259439999999999
 21
-0.556208
 31
0.0
  0
LINE
  5
B4
330
A
100
AcDbEntity
  8
1
  6
solid
 62
     7
100
AcDbLine
 10
1.239716
 20
-0.556208
 30
0.0
 11
1.259439999999999
 21
-0.556208
 31
0.0
  0
LINE
  5
B5
330
A
100
AcDbEntity
  8
1
  6
solid
 62
     7
100
AcDbLine
 10
1.359847999999999
 20
-0.556208
 30
0.0
 11
1.359847999999999
 21
-0.531499
 31
0.0
  0
LINE
  5
B6
330
A
100
AcDbEntity
  8
1
  6
solid
 62
     7
100
AcDbLine
 10
1.359847999999999
 20
-0.531499
 30
0.0
 11
1.310429
 21
-0.531499
 31
0.0
  0
LINE
  5
B7
330
A
100
AcDbEntity
  8
1
  6
solid
 62
     7
100
AcDbLine
 10
1.310429
 20
-0.531499
 30
0.0
 11
1.310429
 21
-0.511711
 31
0.0
  0
LINE
  5
B8
330
A
100
AcDbEntity
  8
1
  6
solid
 62
     7
100
AcDbLine
 10
1.310429
 20
-0.511711
 30
0.0
 11
1.362993
 21
-0.4326620000000001
 31
0.0
  0
LINE
  5
B9
330
A
100
AcDbEntity
  8
1
  6
solid
 62
     7
100
AcDbLine
 10
1.362993
 20
-0.4326620000000001
 30
0.0
 11
1.384557
 21
-0.4326620000000001
 31
0.0
  0
LINE
  5
BA
330
A
100
AcDbEntity
  8
1
  6
solid
 62
     7
100
AcDbLine
 10
1.384557
 20
-0.4326620000000001
 30
0.0
 11
1.384557
 21
-0.51115
 31
0.0
  0
LINE
  5
BB
330
A
100
AcDbEntity
  8
1
  6
solid
 62
     7
100
AcDbLine
 10
1.384557
 20
-0.51115
 30
0.0
 11
1.400545999999999
 21
-0.51115
 31
0.0
  0
LINE
  5
BC
330
A
100
AcDbEntity
  8
1
  6
solid
 62
     7
100
AcDbLine
 10
1.400545999999999
 20
-0.51115
 30
0.0
 11
1.400545999999999
 21
-0.531499
 31
0.0
  0
LINE
  5
BD
330
A
100
AcDbEntity
  8
1
  6
solid
 62
     7
100
AcDbLine
 10
1.400545999999999
 20
-0.531499
 30
0.0
 11
1.384557
 21
-0.531499
 31
0.0
  0
LINE
  5
BE
330
A
100
AcDbEntity
  8
1
  6
solid
 62
     7
100
AcDbLine
 10
1.384557
 20
-0.531499
 30
0.0
 11
1.384557
 21
-0.556208
 31
0.0
  0
LINE
  5
BF
330
A
100
AcDbEntity
  8
1
  6
solid
 62
     7
100
AcDbLine
 10
1.359847999999999
 20
-0.556208
 30
0.0
 11
1.384557
 21
-0.556208
 31
0.0
  0
LINE
  5
C0
330
A
100
AcDbEntity
  8
1
  6
solid
 62
     7
100
AcDbLine
 10
1.359847999999999
 20
-0.51115
 30
0.0
 11
1.359847999999999
 21
-0.4713250000000001
 31
0.0
  0
LINE
  5
C1
330
A
100
AcDbEntity
  8
1
  6
solid
 62
     7
100
AcDbLine
 10
1.359847999999999
 20
-0.4713250000000001
 30
0.0
 11
1.332693
 21
-0.51115
 31
0.0
  0
LINE
  5
C2
330
A
100
AcDbEntity
  8
1
  6
solid
 62
     7
100
AcDbLine
 10
1.359847999999999
 20
-0.51115
 30
0.0
 11
1.332693
 21
-0.51115
 31
0.0
  0
LINE
  5
C4
330
A
100
AcDbEntity
  8
0
  6
solid
 62
     7
100
AcDbLine
 10
1.434498999999999
 20
2.244516999999999
 30
0.0
 11
1.434498999999999
 21
2.247989
 31
0.0
  0
SPLINE
  5
C5
330
A
100
AcDbEntity
  8
0
  6
solid
 62
     7
100
AcDbSpline
210
0.0
220
0.0
230
1.0
 70
     8
 71
     2
 72
     6
 73
     3
 74
     0
 42
0.0000000001
 43
0.0000000001
 40
0.0
 40
0.0
 40
0.0
 40
1.0
 40
1.0
 40
1.0
 10
1.434499066559304
 20
2.247989129508764
 30
0.0
 10
1.442126844337082
 20
2.247989129508764
 30
0.0
 10
1.445504251744489
 20
2.251473203582838
 30
0.0
  0
SPLINE
  5
C6
330
A
100
AcDbEntity
  8
0
  6
solid
 62
     7
100
AcDbSpline
210
0.0
220
0.0
230
1.0
 70
     8
 71
     2
 72
     7
 73
     4
 74
     0
 42
0.0000000001
 43
0.0000000001
 40
0.0
 40
0.0
 40
0.0
 40
1.0
 40
2.0
 40
2.0
 40
2.0
 10
1.445504251744489
 20
2.251473203582838
 30
0.0
 10
1.447112029522267
 20
2.253140240619876
 30
0.0
 10
1.448857955448193
 20
2.259658018397654
 30
0.0
 10
1.448857955448193
 20
2.266061351730987
 30
0.0
  0
LINE
  5
C7
330
A
100
AcDbEntity
  8
0
  6
solid
 62
     7
100
AcDbLine
 10
1.448857999999999
 20
2.266061
 30
0.0
 11
1.448857999999999
 21
2.316275999999999
 31
0.0
  0
SPLINE
  5
C8
330
A
100
AcDbEntity
  8
0
  6
solid
 62
     7
100
AcDbSpline
210
0.0
220
0.0
230
1.0
 70
     8
 71
     2
 72
     7
 73
     4
 74
     0
 42
0.0000000001
 43
0.0000000001
 40
0.0
 40
0.0
 40
0.0
 40
1.0
 40
2.0
 40
2.0
 40
2.0
 10
1.448857955448193
 20
2.316276166545801
 30
0.0
 10
1.448857955448193
 20
2.323220610990246
 30
0.0
 10
1.447040918411156
 20
2.32943431469395
 30
0.0
 10
1.444915733225971
 20
2.331500240619876
 30
0.0
  0
SPLINE
  5
C9
330
A
100
AcDbEntity
  8
0
  6
solid
 62
     7
100
AcDbSpline
210
0.0
220
0.0
230
1.0
 70
     8
 71
     2
 72
     7
 73
     4
 74
     0
 42
0.0000000001
 43
0.0000000001
 40
0.0
 40
0.0
 40
0.0
 40
1.0
 40
2.0
 40
2.0
 40
2.0
 10
1.444915733225971
 20
2.331500240619876
 30
0.0
 10
1.44341462211486
 20
2.332930240619876
 30
0.0
 10
1.439033881374119
 20
2.334312833212468
 30
0.0
 10
1.434499066559304
 20
2.334818388768024
 30
0.0
  0
LINE
  5
CA
330
A
100
AcDbEntity
  8
0
  6
solid
 62
     7
100
AcDbLine
 10
1.434498999999999
 20
2.334817999999999
 30
0.0
 11
1.434498999999999
 21
2.338266999999999
 31
0.0
  0
LINE
  5
CB
330
A
100
AcDbEntity
  8
0
  6
solid
 62
     7
100
AcDbLine
 10
1.434498999999999
 20
2.338266999999999
 30
0.0
 11
1.480297999999999
 21
2.338266999999999
 31
0.0
  0
LINE
  5
CC
330
A
100
AcDbEntity
  8
0
  6
solid
 62
     7
100
AcDbLine
 10
1.480297999999999
 20
2.338266999999999
 30
0.0
 11
1.480297999999999
 21
2.334877999999999
 31
0.0
  0
SPLINE
  5
CD
330
A
100
AcDbEntity
  8
0
  6
solid
 62
     7
100
AcDbSpline
210
0.0
220
0.0
230
1.0
 70
     8
 71
     2
 72
     7
 73
     4
 74
     0
 42
0.0000000001
 43
0.0000000001
 40
0.0
 40
0.0
 40
0.0
 40
1.0
 40
2.0
 40
2.0
 40
2.0
 10
1.480297585077823
 20
2.334877648027283
 30
0.0
 10
1.47479499248523
 20
2.334289129508764
 30
0.0
 10
1.471121288781526
 20
2.333036907286542
 30
0.0
 10
1.46911462211486
 20
2.331452833212468
 30
0.0
  0
SPLINE
  5
CE
330
A
100
AcDbEntity
  8
0
  6
solid
 62
     7
100
AcDbSpline
210
0.0
220
0.0
230
1.0
 70
     8
 71
     2
 72
     7
 73
     4
 74
     0
 42
0.0000000001
 43
0.0000000001
 40
0.0
 40
0.0
 40
0.0
 40
1.0
 40
2.0
 40
2.0
 40
2.0
 10
1.46911462211486
 20
2.331452833212468
 30
0.0
 10
1.467649066559304
 20
2.329612092471728
 30
0.0
 10
1.466219066559304
 20
2.323279870249505
 30
0.0
 10
1.466219066559304
 20
2.315806166545801
 30
0.0
  0
LINE
  5
CF
330
A
100
AcDbEntity
  8
0
  6
solid
 62
     7
100
AcDbLine
 10
1.466219
 20
2.315806
 30
0.0
 11
1.466219
 21
2.276936
 31
0.0
  0
SPLINE
  5
D0
330
A
100
AcDbEntity
  8
0
  6
solid
 62
     7
100
AcDbSpline
210
0.0
220
0.0
230
1.0
 70
     8
 71
     2
 72
     7
 73
     4
 74
     0
 42
0.0000000001
 43
0.0000000001
 40
0.0
 40
0.0
 40
0.0
 40
1.0
 40
2.0
 40
2.0
 40
2.0
 10
1.466219066559304
 20
2.276936166545802
 30
0.0
 10
1.466219066559304
 20
2.267665055434691
 30
0.0
 10
1.466823511003749
 20
2.25884431469395
 30
0.0
 10
1.467957214707452
 20
2.256529499879135
 30
0.0
  0
SPLINE
  5
D1
330
A
100
AcDbEntity
  8
0
  6
solid
 62
     7
100
AcDbSpline
210
0.0
220
0.0
230
1.0
 70
     8
 71
     2
 72
     7
 73
     4
 74
     0
 42
0.0000000001
 43
0.0000000001
 40
0.0
 40
0.0
 40
0.0
 40
1.0
 40
2.0
 40
2.0
 40
2.0
 10
1.467957214707452
 20
2.256529499879135
 30
0.0
 10
1.470283881374119
 20
2.251757648027283
 30
0.0
 10
1.478338325818564
 20
2.247989129508764
 30
0.0
 10
1.48529462211486
 20
2.247989129508764
 30
0.0
  0
SPLINE
  5
D2
330
A
100
AcDbEntity
  8
0
  6
solid
 62
     7
100
AcDbSpline
210
0.0
220
0.0
230
1.0
 70
     8
 71
     2
 72
     7
 73
     4
 74
     0
 42
0.0000000001
 43
0.0000000001
 40
0.0
 40
0.0
 40
0.0
 40
1.0
 40
2.0
 40
2.0
 40
2.0
 10
1.48529462211486
 20
2.247989129508764
 30
0.0
 10
1.493218696188934
 20
2.247989129508764
 30
0.0
 10
1.503670918411156
 20
2.251852462842098
 30
0.0
 10
1.507048325818564
 20
2.256233203582838
 30
0.0
  0
SPLINE
  5
D3
330
A
100
AcDbEntity
  8
0
  6
solid
 62
     7
100
AcDbSpline
210
0.0
220
0.0
230
1.0
 70
     8
 71
     2
 72
     7
 73
     4
 74
     0
 42
0.0000000001
 43
0.0000000001
 40
0.0
 40
0.0
 40
0.0
 40
1.0
 40
2.0
 40
2.0
 40
2.0
 10
1.507048325818564
 20
2.256233203582838
 30
0.0
 10
1.509327585077823
 20
2.258939129508764
 30
0.0
 10
1.512057214707452
 20
2.266638018397654
 30
0.0
 10
1.51381499248523
 20
2.273736536916172
 30
0.0
  0
LINE
  5
D4
330
A
100
AcDbEntity
  8
0
  6
solid
 62
     7
100
AcDbLine
 10
1.513814999999999
 20
2.273737
 30
0.0
 11
1.518302
 21
2.273487999999999
 31
0.0
  0
LINE
  5
D5
330
A
100
AcDbEntity
  8
0
  6
solid
 62
     7
100
AcDbLine
 10
1.518302
 20
2.273487999999999
 30
0.0
 11
1.518302
 21
2.244516999999999
 31
0.0
  0
LINE
  5
D6
330
A
100
AcDbEntity
  8
0
  6
solid
 62
     7
100
AcDbLine
 10
1.434498999999999
 20
2.244516999999999
 30
0.0
 11
1.518302
 21
2.244516999999999
 31
0.0
  0
SPLINE
  5
D7
330
A
100
AcDbEntity
  8
0
  6
solid
 62
     7
100
AcDbSpline
210
0.0
220
0.0
230
1.0
 70
     8
 71
     2
 72
     7
 73
     4
 74
     0
 42
0.0000000001
 43
0.0000000001
 40
0.0
 40
0.0
 40
0.0
 40
1.0
 40
2.0
 40
2.0
 40
2.0
 10
1.529982399892638
 20
2.247542833212468
 30
0.0
 10
1.535105733225971
 20
2.248095796175431
 30
0.0
 10
1.539087585077823
 20
2.249549499879135
 30
0.0
 10
1.540987585077823
 20
2.251508759138394
 30
0.0
  0
SPLINE
  5
D8
330
A
100
AcDbEntity
  8
0
  6
solid
 62
     7
100
AcDbSpline
210
0.0
220
0.0
230
1.0
 70
     8
 71
     2
 72
     7
 73
     4
 74
     0
 42
0.0000000001
 43
0.0000000001
 40
0.0
 40
0.0
 40
0.0
 40
1.0
 40
2.0
 40
2.0
 40
2.0
 10
1.540987585077823
 20
2.251508759138394
 30
0.0
 10
1.542595362855601
 20
2.253187648027283
 30
0.0
 10
1.544341288781527
 20
2.259693573953209
 30
0.0
 10
1.544341288781527
 20
2.266096907286542
 30
0.0
  0
LINE
  5
D9
330
A
100
AcDbEntity
  8
0
  6
solid
 62
     7
100
AcDbLine
 10
1.544341
 20
2.266097
 30
0.0
 11
1.544341
 21
2.316288
 31
0.0
  0
SPLINE
  5
DA
330
A
100
AcDbEntity
  8
0
  6
solid
 62
     7
100
AcDbSpline
210
0.0
220
0.0
230
1.0
 70
     8
 71
     2
 72
     7
 73
     4
 74
     0
 42
0.0000000001
 43
0.0000000001
 40
0.0
 40
0.0
 40
0.0
 40
1.0
 40
2.0
 40
2.0
 40
2.0
 10
1.544341288781527
 20
2.316288018397653
 30
0.0
 10
1.544341288781527
 20
2.323445796175431
 30
0.0
 10
1.542453140633378
 20
2.329635796175431
 30
0.0
 10
1.540126473966712
 20
2.331737277656912
 30
0.0
  0
SPLINE
  5
DB
330
A
100
AcDbEntity
  8
0
  6
solid
 62
     7
100
AcDbSpline
210
0.0
220
0.0
230
1.0
 70
     8
 71
     2
 72
     6
 73
     3
 74
     0
 42
0.0000000001
 43
0.0000000001
 40
0.0
 40
0.0
 40
0.0
 40
1.0
 40
1.0
 40
1.0
 10
1.540126473966712
 20
2.331737277656912
 30
0.0
 10
1.536986103596341
 20
2.334182462842098
 30
0.0
 10
1.529982399892638
 20
2.334830240619876
 30
0.0
  0
LINE
  5
DC
330
A
100
AcDbEntity
  8
0
  6
solid
 62
     7
100
AcDbLine
 10
1.529981999999999
 20
2.334829999999999
 30
0.0
 11
1.529981999999999
 21
2.338266999999999
 31
0.0
  0
LINE
  5
DD
330
A
100
AcDbEntity
  8
0
  6
solid
 62
     7
100
AcDbLine
 10
1.529981999999999
 20
2.338266999999999
 30
0.0
 11
1.567786
 21
2.338266999999999
 31
0.0
  0
SPLINE
  5
DE
330
A
100
AcDbEntity
  8
0
  6
solid
 62
     7
100
AcDbSpline
210
0.0
220
0.0
230
1.0
 70
     8
 71
     2
 72
     6
 73
     3
 74
     0
 42
0.0000000001
 43
0.0000000001
 40
0.0
 40
0.0
 40
0.0
 40
1.0
 40
1.0
 40
1.0
 10
1.567785733225971
 20
2.338266907286542
 30
0.0
 10
1.579762770263008
 20
2.337856166545801
 30
0.0
 10
1.583163881374119
 20
2.337678388768024
 30
0.0
  0
SPLINE
  5
DF
330
A
100
AcDbEntity
  8
0
  6
solid
 62
     7
100
AcDbSpline
210
0.0
220
0.0
230
1.0
 70
     8
 71
     2
 72
     6
 73
     3
 74
     0
 42
0.0000000001
 43
0.0000000001
 40
0.0
 40
0.0
 40
0.0
 40
1.0
 40
1.0
 40
1.0
 10
1.583163881374119
 20
2.337678388768024
 30
0.0
 10
1.598127214707453
 20
2.336532833212468
 30
0.0
 10
1.608200177670416
 20
2.329481722101357
 30
0.0
  0
SPLINE
  5
E0
330
A
100
AcDbEntity
  8
0
  6
solid
 62
     7
100
AcDbSpline
210
0.0
220
0.0
230
1.0
 70
     8
 71
     2
 72
     7
 73
     4
 74
     0
 42
0.0000000001
 43
0.0000000001
 40
0.0
 40
0.0
 40
0.0
 40
1.0
 40
2.0
 40
2.0
 40
2.0
 10
1.608200177670416
 20
2.329481722101357
 30
0.0
 10
1.617969066559304
 20
2.322359499879135
 30
0.0
 10
1.628832029522267
 20
2.300439870249505
 30
0.0
 10
1.628832029522267
 20
2.287779499879135
 30
0.0
  0
SPLINE
  5
E1
330
A
100
AcDbEntity
  8
0
  6
solid
 62
     7
100
AcDbSpline
210
0.0
220
0.0
230
1.0
 70
     8
 71
     2
 72
     7
 73
     4
 74
     0
 42
0.0000000001
 43
0.0000000001
 40
0.0
 40
0.0
 40
0.0
 40
1.0
 40
2.0
 40
2.0
 40
2.0
 10
1.628832029522267
 20
2.287779499879135
 30
0.0
 10
1.628832029522267
 20
2.278532092471727
 30
0.0
 10
1.622539436929675
 20
2.26204394432358
 30
0.0
 10
1.616752399892638
 20
2.256102833212468
 30
0.0
  0
SPLINE
  5
E2
330
A
100
AcDbEntity
  8
0
  6
solid
 62
     7
100
AcDbSpline
210
0.0
220
0.0
230
1.0
 70
     8
 71
     2
 72
     6
 73
     3
 74
     0
 42
0.0000000001
 43
0.0000000001
 40
0.0
 40
0.0
 40
0.0
 40
1.0
 40
1.0
 40
1.0
 10
1.616752399892638
 20
2.256102833212468
 30
0.0
 10
1.609487955448193
 20
2.248238018397653
 30
0.0
 10
1.597147585077823
 20
2.24593505543469
 30
0.0
  0
SPLINE
  5
E3
330
A
100
AcDbEntity
  8
0
  6
solid
 62
     7
100
AcDbSpline
210
0.0
220
0.0
230
1.0
 70
     8
 71
     2
 72
     6
 73
     3
 74
     0
 42
0.0000000001
 43
0.0000000001
 40
0.0
 40
0.0
 40
0.0
 40
1.0
 40
1.0
 40
1.0
 10
1.597147585077823
 20
2.24593505543469
 30
0.0
 10
1.588915362855601
 20
2.244516907286542
 30
0.0
 10
1.580351288781526
 20
2.244516907286542
 30
0.0
  0
LINE
  5
E4
330
A
100
AcDbEntity
  8
0
  6
solid
 62
     7
100
AcDbLine
 10
1.580351
 20
2.244516999999999
 30
0.0
 11
1.529981999999999
 21
2.244516999999999
 31
0.0
  0
LINE
  5
E5
330
A
100
AcDbEntity
  8
0
  6
solid
 62
     7
100
AcDbLine
 10
1.529981999999999
 20
2.247542999999999
 30
0.0
 11
1.529981999999999
 21
2.244516999999999
 31
0.0
  0
LINE
  5
E6
330
A
100
AcDbEntity
  8
0
  6
solid
 62
     7
100
AcDbLine
 10
1.561702
 20
2.333636999999999
 30
0.0
 11
1.561702
 21
2.267854999999999
 31
0.0
  0
SPLINE
  5
E7
330
A
100
AcDbEntity
  8
0
  6
solid
 62
     7
100
AcDbSpline
210
0.0
220
0.0
230
1.0
 70
     8
 71
     2
 72
     7
 73
     4
 74
     0
 42
0.0000000001
 43
0.0000000001
 40
0.0
 40
0.0
 40
0.0
 40
1.0
 40
2.0
 40
2.0
 40
2.0
 10
1.561702399892638
 20
2.26785468506432
 30
0.0
 10
1.561702399892638
 20
2.261076166545802
 30
0.0
 10
1.563061288781526
 20
2.254321351730987
 30
0.0
 10
1.564455733225971
 20
2.252737277656912
 30
0.0
  0
SPLINE
  5
E8
330
A
100
AcDbEntity
  8
0
  6
solid
 62
     7
100
AcDbSpline
210
0.0
220
0.0
230
1.0
 70
     8
 71
     2
 72
     6
 73
     3
 74
     0
 42
0.0000000001
 43
0.0000000001
 40
0.0
 40
0.0
 40
0.0
 40
1.0
 40
1.0
 40
1.0
 10
1.564455733225971
 20
2.252737277656912
 30
0.0
 10
1.568670548040786
 20
2.247989129508764
 30
0.0
 10
1.576962029522267
 20
2.247989129508764
 30
0.0
  0
SPLINE
  5
E9
330
A
100
AcDbEntity
  8
0
  6
solid
 62
     7
100
AcDbSpline
210
0.0
220
0.0
230
1.0
 70
     8
 71
     2
 72
     7
 73
     4
 74
     0
 42
0.0000000001
 43
0.0000000001
 40
0.0
 40
0.0
 40
0.0
 40
1.0
 40
2.0
 40
2.0
 40
2.0
 10
1.576962029522267
 20
2.247989129508764
 30
0.0
 10
1.585063881374119
 20
2.247989129508764
 30
0.0
 10
1.596543140633379
 20
2.253009870249505
 30
0.0
 10
1.601077955448193
 20
2.258856166545801
 30
0.0
  0
SPLINE
  5
EA
330
A
100
AcDbEntity
  8
0
  6
solid
 62
     7
100
AcDbSpline
210
0.0
220
0.0
230
1.0
 70
     8
 71
     2
 72
     7
 73
     4
 74
     0
 42
0.0000000001
 43
0.0000000001
 40
0.0
 40
0.0
 40
0.0
 40
1.0
 40
2.0
 40
2.0
 40
2.0
 10
1.601077955448193
 20
2.258856166545801
 30
0.0
 10
1.605213881374119
 20
2.264631351730987
 30
0.0
 10
1.610313511003749
 20
2.279618388768024
 30
0.0
 10
1.610313511003749
 20
2.287898018397653
 30
0.0
  0
SPLINE
  5
EB
330
A
100
AcDbEntity
  8
0
  6
solid
 62
     7
100
AcDbSpline
210
0.0
220
0.0
230
1.0
 70
     8
 71
     2
 72
     7
 73
     4
 74
     0
 42
0.0000000001
 43
0.0000000001
 40
0.0
 40
0.0
 40
0.0
 40
1.0
 40
2.0
 40
2.0
 40
2.0
 10
1.610313511003749
 20
2.287898018397653
 30
0.0
 10
1.610313511003749
 20
2.29720468506432
 30
0.0
 10
1.604573881374119
 20
2.314233944323579
 30
0.0
 10
1.599106844337082
 20
2.320340981360616
 30
0.0
  0
SPLINE
  5
EC
330
A
100
AcDbEntity
  8
0
  6
solid
 62
     7
100
AcDbSpline
210
0.0
220
0.0
230
1.0
 70
     8
 71
     2
 72
     6
 73
     3
 74
     0
 42
0.0000000001
 43
0.0000000001
 40
0.0
 40
0.0
 40
0.0
 40
1.0
 40
1.0
 40
1.0
 10
1.599106844337082
 20
2.320340981360616
 30
0.0
 10
1.591913511003749
 20
2.329220981360616
 30
0.0
 10
1.581698325818564
 20
2.331843944323579
 30
0.0
  0
SPLINE
  5
ED
330
A
100
AcDbEntity
  8
0
  6
solid
 62
     7
100
AcDbSpline
210
0.0
220
0.0
230
1.0
 70
     8
 71
     2
 72
     6
 73
     3
 74
     0
 42
0.0000000001
 43
0.0000000001
 40
0.0
 40
0.0
 40
0.0
 40
1.0
 40
1.0
 40
1.0
 10
1.581698325818564
 20
2.331843944323579
 30
0.0
 10
1.576029807300045
 20
2.333637277656912
 30
0.0
 10
1.567572399892638
 20
2.333637277656912
 30
0.0
  0
LINE
  5
EE
330
A
100
AcDbEntity
  8
0
  6
solid
 62
     7
100
AcDbLine
 10
1.561702
 20
2.333636999999999
 30
0.0
 11
1.567572
 21
2.333636999999999
 31
0.0
  0
LINE
  5
EF
330
A
100
AcDbEntity
  8
0
  6
solid
 62
     7
100
AcDbLine
 10
1.665512999999999
 20
2.338266999999999
 30
0.0
 11
1.669916999999999
 21
2.338266999999999
 31
0.0
  0
LINE
  5
F0
330
A
100
AcDbEntity
  8
0
  6
solid
 62
     7
100
AcDbLine
 10
1.669916999999999
 20
2.338266999999999
 30
0.0
 11
1.669916999999999
 21
2.263308
 31
0.0
  0
SPLINE
  5
F1
330
A
100
AcDbEntity
  8
0
  6
solid
 62
     7
100
AcDbSpline
210
0.0
220
0.0
230
1.0
 70
     8
 71
     2
 72
     7
 73
     4
 74
     0
 42
0.0000000001
 43
0.0000000001
 40
0.0
 40
0.0
 40
0.0
 40
1.0
 40
2.0
 40
2.0
 40
2.0
 10
1.669917214707453
 20
2.263308018397653
 30
0.0
 10
1.669917214707453
 20
2.25786468506432
 30
0.0
 10
1.671418325818564
 20
2.251828759138394
 30
0.0
 10
1.672563881374119
 20
2.250789870249505
 30
0.0
  0
SPLINE
  5
F2
330
A
100
AcDbEntity
  8
0
  6
solid
 62
     7
100
AcDbSpline
210
0.0
220
0.0
230
1.0
 70
     8
 71
     2
 72
     6
 73
     3
 74
     0
 42
0.0000000001
 43
0.0000000001
 40
0.0
 40
0.0
 40
0.0
 40
1.0
 40
1.0
 40
1.0
 10
1.672563881374119
 20
2.250789870249505
 30
0.0
 10
1.675727955448194
 20
2.248309129508764
 30
0.0
 10
1.683395362855601
 20
2.247459870249505
 30
0.0
  0
LINE
  5
F3
330
A
100
AcDbEntity
  8
0
  6
solid
 62
     7
100
AcDbLine
 10
1.683394999999999
 20
2.247459999999999
 30
0.0
 11
1.683394999999999
 21
2.244516999999999
 31
0.0
  0
LINE
  5
F4
330
A
100
AcDbEntity
  8
0
  6
solid
 62
     7
100
AcDbLine
 10
1.683394999999999
 20
2.244516999999999
 30
0.0
 11
1.641124
 21
2.244516999999999
 31
0.0
  0
LINE
  5
F5
330
A
100
AcDbEntity
  8
0
  6
solid
 62
     7
100
AcDbLine
 10
1.641124
 20
2.244516999999999
 30
0.0
 11
1.641124
 21
2.247519
 31
0.0
  0
SPLINE
  5
F6
330
A
100
AcDbEntity
  8
0
  6
solid
 62
     7
100
AcDbSpline
210
0.0
220
0.0
230
1.0
 70
     8
 71
     2
 72
     7
 73
     4
 74
     0
 42
0.0000000001
 43
0.0000000001
 40
0.0
 40
0.0
 40
0.0
 40
1.0
 40
2.0
 40
2.0
 40
2.0
 10
1.64112425174449
 20
2.247519129508764
 30
0.0
 10
1.646239807300045
 20
2.248202462842098
 30
0.0
 10
1.650490177670416
 20
2.24951394432358
 30
0.0
 10
1.651896473966712
 20
2.251003203582838
 30
0.0
  0
SPLINE
  5
F7
330
A
100
AcDbEntity
  8
0
  6
solid
 62
     7
100
AcDbSpline
210
0.0
220
0.0
230
1.0
 70
     8
 71
     2
 72
     7
 73
     4
 74
     0
 42
0.0000000001
 43
0.0000000001
 40
0.0
 40
0.0
 40
0.0
 40
1.0
 40
2.0
 40
2.0
 40
2.0
 10
1.651896473966712
 20
2.251003203582838
 30
0.0
 10
1.653302770263008
 20
2.252867648027284
 30
0.0
 10
1.654870918411156
 20
2.257698759138394
 30
0.0
 10
1.654870918411156
 20
2.263047277656913
 30
0.0
  0
LINE
  5
F8
330
A
100
AcDbEntity
  8
0
  6
solid
 62
     7
100
AcDbLine
 10
1.654870999999999
 20
2.263047
 30
0.0
 11
1.654870999999999
 21
2.325795999999999
 31
0.0
  0
SPLINE
  5
F9
330
A
100
AcDbEntity
  8
0
  6
solid
 62
     7
100
AcDbSpline
210
0.0
220
0.0
230
1.0
 70
     8
 71
     2
 72
     6
 73
     3
 74
     0
 42
0.0000000001
 43
0.0000000001
 40
0.0
 40
0.0
 40
0.0
 40
1.0
 40
1.0
 40
1.0
 10
1.654870918411156
 20
2.325796166545801
 30
0.0
 10
1.652591659151897
 20
2.325535425805061
 30
0.0
 10
1.650490177670416
 20
2.325535425805061
 30
0.0
  0
SPLINE
  5
FA
330
A
100
AcDbEntity
  8
0
  6
solid
 62
     7
100
AcDbSpline
210
0.0
220
0.0
230
1.0
 70
     8
 71
     2
 72
     6
 73
     3
 74
     0
 42
0.0000000001
 43
0.0000000001
 40
0.0
 40
0.0
 40
0.0
 40
1.0
 40
1.0
 40
1.0
 10
1.650490177670416
 20
2.325535425805061
 30
0.0
 10
1.645165362855601
 20
2.325535425805061
 30
0.0
 10
1.641337585077823
 20
2.326918018397653
 30
0.0
  0
LINE
  5
FB
330
A
100
AcDbEntity
  8
0
  6
solid
 62
     7
100
AcDbLine
 10
1.641338
 20
2.326918
 30
0.0
 11
1.641338
 21
2.330165
 31
0.0
  0
LINE
  5
FC
330
A
100
AcDbEntity
  8
0
  6
solid
 62
     7
100
AcDbLine
 10
1.641338
 20
2.330165
 30
0.0
 11
1.643900999999999
 21
2.330165
 31
0.0
  0
SPLINE
  5
FD
330
A
100
AcDbEntity
  8
0
  6
solid
 62
     7
100
AcDbSpline
210
0.0
220
0.0
230
1.0
 70
     8
 71
     2
 72
     7
 73
     4
 74
     0
 42
0.0000000001
 43
0.0000000001
 40
0.0
 40
0.0
 40
0.0
 40
1.0
 40
2.0
 40
2.0
 40
2.0
 10
1.643901288781527
 20
2.33016505543469
 30
0.0
 10
1.649131288781527
 20
2.33016505543469
 30
0.0
 10
1.657849436929675
 20
2.333060610990246
 30
0.0
 10
1.66349425174449
 20
2.336651351730987
 30
0.0
  0
LINE
  5
FE
330
A
100
AcDbEntity
  8
0
  6
solid
 62
     7
100
AcDbLine
 10
1.665512999999999
 20
2.338266999999999
 30
0.0
 11
1.663493999999999
 21
2.336650999999999
 31
0.0
  0
SPLINE
  5
FF
330
A
100
AcDbEntity
  8
0
  6
solid
 62
     7
100
AcDbSpline
210
0.0
220
0.0
230
1.0
 70
     8
 71
     2
 72
     7
 73
     4
 74
     0
 42
0.0000000001
 43
0.0000000001
 40
0.0
 40
0.0
 40
0.0
 40
1.0
 40
2.0
 40
2.0
 40
2.0
 10
1.712183511003749
 20
2.299092833212468
 30
0.0
 10
1.71368462211486
 20
2.302482092471727
 30
0.0
 10
1.722612029522268
 20
2.305859499879135
 30
0.0
 10
1.727419436929675
 20
2.305859499879135
 30
0.0
  0
SPLINE
  5
100
330
A
100
AcDbEntity
  8
0
  6
solid
 62
     7
100
AcDbSpline
210
0.0
220
0.0
230
1.0
 70
     8
 71
     2
 72
     6
 73
     3
 74
     0
 42
0.0000000001
 43
0.0000000001
 40
0.0
 40
0.0
 40
0.0
 40
1.0
 40
1.0
 40
1.0
 10
1.727419436929675
 20
2.305859499879135
 30
0.0
 10
1.733313140633379
 20
2.305859499879135
 30
0.0
 10
1.738898696188934
 20
2.303050981360616
 30
0.0
  0
SPLINE
  5
101
330
A
100
AcDbEntity
  8
0
  6
solid
 62
     7
100
AcDbSpline
210
0.0
220
0.0
230
1.0
 70
     8
 71
     2
 72
     7
 73
     4
 74
     0
 42
0.0000000001
 43
0.0000000001
 40
0.0
 40
0.0
 40
0.0
 40
1.0
 40
2.0
 40
2.0
 40
2.0
 10
1.738898696188934
 20
2.303050981360616
 30
0.0
 10
1.747545733225971
 20
2.29923505543469
 30
0.0
 10
1.757298696188934
 20
2.28435468506432
 30
0.0
 10
1.757298696188934
 20
2.275202092471728
 30
0.0
  0
SPLINE
  5
102
330
A
100
AcDbEntity
  8
0
  6
solid
 62
     7
100
AcDbSpline
210
0.0
220
0.0
230
1.0
 70
     8
 71
     2
 72
     7
 73
     4
 74
     0
 42
0.0000000001
 43
0.0000000001
 40
0.0
 40
0.0
 40
0.0
 40
1.0
 40
2.0
 40
2.0
 40
2.0
 10
1.757298696188934
 20
2.275202092471728
 30
0.0
 10
1.757298696188934
 20
2.268917277656912
 30
0.0
 10
1.752127955448194
 20
2.256588759138394
 30
0.0
 10
1.74728499248523
 20
2.251722092471728
 30
0.0
  0
SPLINE
  5
103
330
A
100
AcDbEntity
  8
0
  6
solid
 62
     7
100
AcDbSpline
210
0.0
220
0.0
230
1.0
 70
     8
 71
     2
 72
     6
 73
     3
 74
     0
 42
0.0000000001
 43
0.0000000001
 40
0.0
 40
0.0
 40
0.0
 40
1.0
 40
1.0
 40
1.0
 10
1.74728499248523
 20
2.251722092471728
 30
0.0
 10
1.738934251744489
 20
2.243359499879135
 30
0.0
 10
1.726143511003749
 20
2.243359499879135
 30
0.0
  0
SPLINE
  5
104
330
A
100
AcDbEntity
  8
0
  6
solid
 62
     7
100
AcDbSpline
210
0.0
220
0.0
230
1.0
 70
     8
 71
     2
 72
     6
 73
     3
 74
     0
 42
0.0000000001
 43
0.0000000001
 40
0.0
 40
0.0
 40
0.0
 40
1.0
 40
1.0
 40
1.0
 10
1.726143511003749
 20
2.243359499879135
 30
0.0
 10
1.711547585077823
 20
2.243359499879135
 30
0.0
 10
1.703244251744489
 20
2.255111351730987
 30
0.0
  0
SPLINE
  5
105
330
A
100
AcDbEntity
  8
0
  6
solid
 62
     7
100
AcDbSpline
210
0.0
220
0.0
230
1.0
 70
     8
 71
     2
 72
     6
 73
     3
 74
     0
 42
0.0000000001
 43
0.0000000001
 40
0.0
 40
0.0
 40
0.0
 40
1.0
 40
1.0
 40
1.0
 10
1.703244251744489
 20
2.255111351730987
 30
0.0
 10
1.695956103596341
 20
2.265658388768024
 30
0.0
 10
1.695956103596341
 20
2.282723203582838
 30
0.0
  0
SPLINE
  5
106
330
A
100
AcDbEntity
  8
0
  6
solid
 62
     7
100
AcDbSpline
210
0.0
220
0.0
230
1.0
 70
     8
 71
     2
 72
     7
 73
     4
 74
     0
 42
0.0000000001
 43
0.0000000001
 40
0.0
 40
0.0
 40
0.0
 40
1.0
 40
2.0
 40
2.0
 40
2.0
 10
1.695956103596341
 20
2.282723203582838
 30
0.0
 10
1.695956103596341
 20
2.296023573953209
 30
0.0
 10
1.704650548040786
 20
2.320186907286542
 30
0.0
 10
1.712882770263008
 20
2.329078759138394
 30
0.0
  0
SPLINE
  5
107
330
A
100
AcDbEntity
  8
0
  6
solid
 62
     7
100
AcDbSpline
210
0.0
220
0.0
230
1.0
 70
     8
 71
     2
 72
     7
 73
     4
 74
     0
 42
0.0000000001
 43
0.0000000001
 40
0.0
 40
0.0
 40
0.0
 40
1.0
 40
2.0
 40
2.0
 40
2.0
 10
1.712882770263008
 20
2.329078759138394
 30
0.0
 10
1.718563140633379
 20
2.334889499879135
 30
0.0
 10
1.730796844337082
 20
2.340581722101357
 30
0.0
 10
1.737658325818564
 20
2.340581722101357
 30
0.0
  0
SPLINE
  5
108
330
A
100
AcDbEntity
  8
0
  6
solid
 62
     7
100
AcDbSpline
210
0.0
220
0.0
230
1.0
 70
     8
 71
     2
 72
     7
 73
     4
 74
     0
 42
0.0000000001
 43
0.0000000001
 40
0.0
 40
0.0
 40
0.0
 40
1.0
 40
2.0
 40
2.0
 40
2.0
 10
1.737658325818564
 20
2.340581722101357
 30
0.0
 10
1.745302029522268
 20
2.340581722101357
 30
0.0
 10
1.756425733225971
 20
2.334040240619875
 30
0.0
 10
1.756425733225971
 20
2.32950542580506
 30
0.0
  0
SPLINE
  5
109
330
A
100
AcDbEntity
  8
0
  6
solid
 62
     7
100
AcDbSpline
210
0.0
220
0.0
230
1.0
 70
     8
 71
     2
 72
     7
 73
     4
 74
     0
 42
0.0000000001
 43
0.0000000001
 40
0.0
 40
0.0
 40
0.0
 40
1.0
 40
2.0
 40
2.0
 40
2.0
 10
1.756425733225971
 20
2.32950542580506
 30
0.0
 10
1.756425733225971
 20
2.327190610990246
 30
0.0
 10
1.752846844337082
 20
2.323410240619875
 30
0.0
 10
1.749433881374119
 20
2.323410240619875
 30
0.0
  0
SPLINE
  5
10A
330
A
100
AcDbEntity
  8
0
  6
solid
 62
     7
100
AcDbSpline
210
0.0
220
0.0
230
1.0
 70
     8
 71
     2
 72
     6
 73
     3
 74
     0
 42
0.0000000001
 43
0.0000000001
 40
0.0
 40
0.0
 40
0.0
 40
1.0
 40
1.0
 40
1.0
 10
1.749433881374119
 20
2.323410240619875
 30
0.0
 10
1.747486473966712
 20
2.323410240619875
 30
0.0
 10
1.746163140633379
 20
2.323908018397653
 30
0.0
  0
SPLINE
  5
10B
330
A
100
AcDbEntity
  8
0
  6
solid
 62
     7
100
AcDbSpline
210
0.0
220
0.0
230
1.0
 70
     8
 71
     2
 72
     7
 73
     4
 74
     0
 42
0.0000000001
 43
0.0000000001
 40
0.0
 40
0.0
 40
0.0
 40
1.0
 40
2.0
 40
2.0
 40
2.0
 10
1.746163140633379
 20
2.323908018397653
 30
0.0
 10
1.744792399892638
 20
2.324875796175431
 30
0.0
 10
1.742833140633379
 20
2.327933203582838
 30
0.0
 10
1.741640177670416
 20
2.33133431469395
 30
0.0
  0
SPLINE
  5
10C
330
A
100
AcDbEntity
  8
0
  6
solid
 62
     7
100
AcDbSpline
210
0.0
220
0.0
230
1.0
 70
     8
 71
     2
 72
     7
 73
     4
 74
     0
 42
0.0000000001
 43
0.0000000001
 40
0.0
 40
0.0
 40
0.0
 40
1.0
 40
2.0
 40
2.0
 40
2.0
 10
1.741640177670416
 20
2.33133431469395
 30
0.0
 10
1.740459066559304
 20
2.33426542580506
 30
0.0
 10
1.737176473966712
 20
2.337109499879135
 30
0.0
 10
1.734577214707453
 20
2.337109499879135
 30
0.0
  0
SPLINE
  5
10D
330
A
100
AcDbEntity
  8
0
  6
solid
 62
     7
100
AcDbSpline
210
0.0
220
0.0
230
1.0
 70
     8
 71
     2
 72
     6
 73
     3
 74
     0
 42
0.0000000001
 43
0.0000000001
 40
0.0
 40
0.0
 40
0.0
 40
1.0
 40
1.0
 40
1.0
 10
1.734577214707453
 20
2.337109499879135
 30
0.0
 10
1.727443140633379
 20
2.337109499879135
 30
0.0
 10
1.720629066559304
 20
2.325867277656912
 30
0.0
  0
SPLINE
  5
10E
330
A
100
AcDbEntity
  8
0
  6
solid
 62
     7
100
AcDbSpline
210
0.0
220
0.0
230
1.0
 70
     8
 71
     2
 72
     6
 73
     3
 74
     0
 42
0.0000000001
 43
0.0000000001
 40
0.0
 40
0.0
 40
0.0
 40
1.0
 40
1.0
 40
1.0
 10
1.720629066559304
 20
2.325867277656912
 30
0.0
 10
1.713720177670416
 20
2.314459129508764
 30
0.0
 10
1.712183511003749
 20
2.299092833212468
 30
0.0
  0
SPLINE
  5
10F
330
A
100
AcDbEntity
  8
0
  6
solid
 62
     7
100
AcDbSpline
210
0.0
220
0.0
230
1.0
 70
     8
 71
     2
 72
     6
 73
     3
 74
     0
 42
0.0000000001
 43
0.0000000001
 40
0.0
 40
0.0
 40
0.0
 40
1.0
 40
1.0
 40
1.0
 10
1.711002399892638
 20
2.274032833212468
 30
0.0
 10
1.711002399892638
 20
2.261230240619875
 30
0.0
 10
1.715019807300045
 20
2.254108018397654
 30
0.0
  0
SPLINE
  5
110
330
A
100
AcDbEntity
  8
0
  6
solid
 62
     7
100
AcDbSpline
210
0.0
220
0.0
230
1.0
 70
     8
 71
     2
 72
     6
 73
     3
 74
     0
 42
0.0000000001
 43
0.0000000001
 40
0.0
 40
0.0
 40
0.0
 40
1.0
 40
1.0
 40
1.0
 10
1.715019807300045
 20
2.254108018397654
 30
0.0
 10
1.719542770263008
 20
2.246831722101357
 30
0.0
 10
1.725258696188934
 20
2.246831722101357
 30
0.0
  0
SPLINE
  5
111
330
A
100
AcDbEntity
  8
0
  6
solid
 62
     7
100
AcDbSpline
210
0.0
220
0.0
230
1.0
 70
     8
 71
     2
 72
     7
 73
     4
 74
     0
 42
0.0000000001
 43
0.0000000001
 40
0.0
 40
0.0
 40
0.0
 40
1.0
 40
2.0
 40
2.0
 40
2.0
 10
1.725258696188934
 20
2.246831722101357
 30
0.0
 10
1.728636103596342
 20
2.246831722101357
 30
0.0
 10
1.734577214707453
 20
2.250659499879135
 30
0.0
 10
1.736856473966712
 20
2.254380610990246
 30
0.0
  0
SPLINE
  5
112
330
A
100
AcDbEntity
  8
0
  6
solid
 62
     7
100
AcDbSpline
210
0.0
220
0.0
230
1.0
 70
     8
 71
     2
 72
     7
 73
     4
 74
     0
 42
0.0000000001
 43
0.0000000001
 40
0.0
 40
0.0
 40
0.0
 40
1.0
 40
2.0
 40
2.0
 40
2.0
 10
1.736856473966712
 20
2.254380610990246
 30
0.0
 10
1.739171288781527
 20
2.258559870249505
 30
0.0
 10
1.742252399892638
 20
2.270299870249505
 30
0.0
 10
1.742252399892638
 20
2.276039499879135
 30
0.0
  0
SPLINE
  5
113
330
A
100
AcDbEntity
  8
0
  6
solid
 62
     7
100
AcDbSpline
210
0.0
220
0.0
230
1.0
 70
     8
 71
     2
 72
     7
 73
     4
 74
     0
 42
0.0000000001
 43
0.0000000001
 40
0.0
 40
0.0
 40
0.0
 40
1.0
 40
2.0
 40
2.0
 40
2.0
 10
1.742252399892638
 20
2.276039499879135
 30
0.0
 10
1.742252399892638
 20
2.281897648027284
 30
0.0
 10
1.739147585077823
 20
2.29270542580506
 30
0.0
 10
1.73671425174449
 20
2.296600240619876
 30
0.0
  0
SPLINE
  5
114
330
A
100
AcDbEntity
  8
0
  6
solid
 62
     7
100
AcDbSpline
210
0.0
220
0.0
230
1.0
 70
     8
 71
     2
 72
     6
 73
     3
 74
     0
 42
0.0000000001
 43
0.0000000001
 40
0.0
 40
0.0
 40
0.0
 40
1.0
 40
1.0
 40
1.0
 10
1.73671425174449
 20
2.296600240619876
 30
0.0
 10
1.73240462211486
 20
2.302387277656912
 30
0.0
 10
1.726048696188934
 20
2.302387277656912
 30
0.0
  0
SPLINE
  5
115
330
A
100
AcDbEntity
  8
0
  6
solid
 62
     7
100
AcDbSpline
210
0.0
220
0.0
230
1.0
 70
     8
 71
     2
 72
     6
 73
     3
 74
     0
 42
0.0000000001
 43
0.0000000001
 40
0.0
 40
0.0
 40
0.0
 40
1.0
 40
1.0
 40
1.0
 10
1.726048696188934
 20
2.302387277656912
 30
0.0
 10
1.720877955448194
 20
2.302387277656912
 30
0.0
 10
1.71701462211486
 20
2.29714542580506
 30
0.0
  0
SPLINE
  5
116
330
A
100
AcDbEntity
  8
0
  6
solid
 62
     7
100
AcDbSpline
210
0.0
220
0.0
230
1.0
 70
     8
 71
     2
 72
     7
 73
     4
 74
     0
 42
0.0000000001
 43
0.0000000001
 40
0.0
 40
0.0
 40
0.0
 40
1.0
 40
2.0
 40
2.0
 40
2.0
 10
1.71701462211486
 20
2.29714542580506
 30
0.0
 10
1.714040177670416
 20
2.293732462842098
 30
0.0
 10
1.711002399892638
 20
2.281779129508764
 30
0.0
 10
1.711002399892638
 20
2.274032833212468
 30
0.0
  0
LINE
  5
117
330
A
100
AcDbEntity
  8
0
  6
solid
 62
     7
100
AcDbLine
 10
1.803013999999999
 20
2.266507999999999
 30
0.0
 11
1.769449
 21
2.266507999999999
 31
0.0
  0
LINE
  5
118
330
A
100
AcDbEntity
  8
0
  6
solid
 62
     7
100
AcDbLine
 10
1.769449
 20
2.266507999999999
 30
0.0
 11
1.769449
 21
2.269261
 31
0.0
  0
LINE
  5
119
330
A
100
AcDbEntity
  8
0
  6
solid
 62
     7
100
AcDbLine
 10
1.769449
 20
2.269261
 30
0.0
 11
1.811766999999999
 21
2.340581999999999
 31
0.0
  0
LINE
  5
11A
330
A
100
AcDbEntity
  8
0
  6
solid
 62
     7
100
AcDbLine
 10
1.811766999999999
 20
2.340581999999999
 30
0.0
 11
1.818059999999999
 21
2.340581999999999
 31
0.0
  0
LINE
  5
11B
330
A
100
AcDbEntity
  8
0
  6
solid
 62
     7
100
AcDbLine
 10
1.818059999999999
 20
2.340581999999999
 30
0.0
 11
1.818059999999999
 21
2.271136999999999
 31
0.0
  0
SPLINE
  5
11C
330
A
100
AcDbEntity
  8
0
  6
solid
 62
     7
100
AcDbSpline
210
0.0
220
0.0
230
1.0
 70
     8
 71
     2
 72
     7
 73
     4
 74
     0
 42
0.0000000001
 43
0.0000000001
 40
0.0
 40
0.0
 40
0.0
 40
1.0
 40
2.0
 40
2.0
 40
2.0
 10
1.818059807300045
 20
2.271137277656912
 30
0.0
 10
1.819655733225971
 20
2.271137277656912
 30
0.0
 10
1.822879066559304
 20
2.271741722101357
 30
0.0
 10
1.824048325818564
 20
2.273499499879135
 30
0.0
  0
SPLINE
  5
11D
330
A
100
AcDbEntity
  8
0
  6
solid
 62
     7
100
AcDbSpline
210
0.0
220
0.0
230
1.0
 70
     8
 71
     2
 72
     7
 73
     4
 74
     0
 42
0.0000000001
 43
0.0000000001
 40
0.0
 40
0.0
 40
0.0
 40
1.0
 40
2.0
 40
2.0
 40
2.0
 10
1.824048325818564
 20
2.273499499879135
 30
0.0
 10
1.825016103596341
 20
2.274621351730987
 30
0.0
 10
1.825608696188934
 20
2.277327277656912
 30
0.0
 10
1.825715362855601
 20
2.279796166545802
 30
0.0
  0
LINE
  5
11E
330
A
100
AcDbEntity
  8
0
  6
solid
 62
     7
100
AcDbLine
 10
1.825715
 20
2.279795999999999
 30
0.0
 11
1.826197
 21
2.282710999999999
 31
0.0
  0
LINE
  5
11F
330
A
100
AcDbEntity
  8
0
  6
solid
 62
     7
100
AcDbLine
 10
1.826197
 20
2.282710999999999
 30
0.0
 11
1.831949
 21
2.282710999999999
 31
0.0
  0
LINE
  5
120
330
A
100
AcDbEntity
  8
0
  6
solid
 62
     7
100
AcDbLine
 10
1.831949
 20
2.282710999999999
 30
0.0
 11
1.831949
 21
2.254933999999999
 31
0.0
  0
LINE
  5
121
330
A
100
AcDbEntity
  8
0
  6
solid
 62
     7
100
AcDbLine
 10
1.831949
 20
2.254933999999999
 30
0.0
 11
1.826209
 21
2.254933999999999
 31
0.0
  0
SPLINE
  5
122
330
A
100
AcDbEntity
  8
0
  6
solid
 62
     7
100
AcDbSpline
210
0.0
220
0.0
230
1.0
 70
     8
 71
     2
 72
     7
 73
     4
 74
     0
 42
0.0000000001
 43
0.0000000001
 40
0.0
 40
0.0
 40
0.0
 40
1.0
 40
2.0
 40
2.0
 40
2.0
 10
1.826209066559304
 20
2.254933573953209
 30
0.0
 10
1.825608696188934
 20
2.259871351730986
 30
0.0
 10
1.824593511003749
 20
2.263367277656912
 30
0.0
 10
1.823965362855601
 20
2.264429870249505
 30
0.0
  0
SPLINE
  5
123
330
A
100
AcDbEntity
  8
0
  6
solid
 62
     7
100
AcDbSpline
210
0.0
220
0.0
230
1.0
 70
     8
 71
     2
 72
     7
 73
     4
 74
     0
 42
0.0000000001
 43
0.0000000001
 40
0.0
 40
0.0
 40
0.0
 40
1.0
 40
2.0
 40
2.0
 40
2.0
 10
1.823965362855601
 20
2.264429870249505
 30
0.0
 10
1.822879066559304
 20
2.265563573953209
 30
0.0
 10
1.819821659151897
 20
2.266507648027284
 30
0.0
 10
1.817068325818564
 20
2.266507648027284
 30
0.0
  0
LINE
  5
124
330
A
100
AcDbEntity
  8
0
  6
solid
 62
     7
100
AcDbLine
 10
1.817068
 20
2.266507999999999
 30
0.0
 11
1.818059999999999
 21
2.266507999999999
 31
0.0
  0
LINE
  5
125
330
A
100
AcDbEntity
  8
0
  6
solid
 62
     7
100
AcDbLine
 10
1.818059999999999
 20
2.266507999999999
 30
0.0
 11
1.818059999999999
 21
2.26031
 31
0.0
  0
SPLINE
  5
126
330
A
100
AcDbEntity
  8
0
  6
solid
 62
     7
100
AcDbSpline
210
0.0
220
0.0
230
1.0
 70
     8
 71
     2
 72
     7
 73
     4
 74
     0
 42
0.0000000001
 43
0.0000000001
 40
0.0
 40
0.0
 40
0.0
 40
1.0
 40
2.0
 40
2.0
 40
2.0
 10
1.818059807300045
 20
2.260309870249505
 30
0.0
 10
1.818059807300045
 20
2.256636166545801
 30
0.0
 10
1.819229066559304
 20
2.25186431469395
 30
0.0
 10
1.819750548040786
 20
2.250801722101356
 30
0.0
  0
SPLINE
  5
127
330
A
100
AcDbEntity
  8
0
  6
solid
 62
     7
100
AcDbSpline
210
0.0
220
0.0
230
1.0
 70
     8
 71
     2
 72
     7
 73
     4
 74
     0
 42
0.0000000001
 43
0.0000000001
 40
0.0
 40
0.0
 40
0.0
 40
1.0
 40
2.0
 40
2.0
 40
2.0
 10
1.819750548040786
 20
2.250801722101356
 30
0.0
 10
1.821026473966712
 20
2.249241351730987
 30
0.0
 10
1.823210918411156
 20
2.248238018397653
 30
0.0
 10
1.828030177670416
 20
2.247400610990246
 30
0.0
  0
LINE
  5
128
330
A
100
AcDbEntity
  8
0
  6
solid
 62
     7
100
AcDbLine
 10
1.828029999999999
 20
2.247400999999999
 30
0.0
 11
1.828029999999999
 21
2.244516999999999
 31
0.0
  0
LINE
  5
129
330
A
100
AcDbEntity
  8
0
  6
solid
 62
     7
100
AcDbLine
 10
1.828029999999999
 20
2.244516999999999
 30
0.0
 11
1.791724
 21
2.244516999999999
 31
0.0
  0
LINE
  5
12A
330
A
100
AcDbEntity
  8
0
  6
solid
 62
     7
100
AcDbLine
 10
1.791724
 20
2.244516999999999
 30
0.0
 11
1.791724
 21
2.247519
 31
0.0
  0
SPLINE
  5
12B
330
A
100
AcDbEntity
  8
0
  6
solid
 62
     7
100
AcDbSpline
210
0.0
220
0.0
230
1.0
 70
     8
 71
     2
 72
     6
 73
     3
 74
     0
 42
0.0000000001
 43
0.0000000001
 40
0.0
 40
0.0
 40
0.0
 40
1.0
 40
1.0
 40
1.0
 10
1.79172388137412
 20
2.247519129508764
 30
0.0
 10
1.798857955448194
 20
2.248356536916172
 30
0.0
 10
1.800793511003749
 20
2.250363203582839
 30
0.0
  0
SPLINE
  5
12C
330
A
100
AcDbEntity
  8
0
  6
solid
 62
     7
100
AcDbSpline
210
0.0
220
0.0
230
1.0
 70
     8
 71
     2
 72
     7
 73
     4
 74
     0
 42
0.0000000001
 43
0.0000000001
 40
0.0
 40
0.0
 40
0.0
 40
1.0
 40
2.0
 40
2.0
 40
2.0
 10
1.800793511003749
 20
2.250363203582839
 30
0.0
 10
1.801939066559304
 20
2.251591722101357
 30
0.0
 10
1.803013511003749
 20
2.256351722101357
 30
0.0
 10
1.803013511003749
 20
2.260969499879135
 30
0.0
  0
LINE
  5
12D
330
A
100
AcDbEntity
  8
0
  6
solid
 62
     7
100
AcDbLine
 10
1.803013999999999
 20
2.266507999999999
 30
0.0
 11
1.803013999999999
 21
2.260968999999999
 31
0.0
  0
LINE
  5
12E
330
A
100
AcDbEntity
  8
0
  6
solid
 62
     7
100
AcDbLine
 10
1.803013999999999
 20
2.271136999999999
 30
0.0
 11
1.803013999999999
 21
2.319159999999999
 31
0.0
  0
LINE
  5
12F
330
A
100
AcDbEntity
  8
0
  6
solid
 62
     7
100
AcDbLine
 10
1.803013999999999
 20
2.319159999999999
 30
0.0
 11
1.776393
 21
2.271136999999999
 31
0.0
  0
LINE
  5
130
330
A
100
AcDbEntity
  8
0
  6
solid
 62
     7
100
AcDbLine
 10
1.803013999999999
 20
2.271136999999999
 30
0.0
 11
1.776393
 21
2.271136999999999
 31
0.0
  0
ARC
  5
131
330
A
100
AcDbEntity
  8
1
  6
solid
 62
     7
100
AcDbCircle
 10
-1.780823894398857
 20
1.32556688418345
 30
0.0
 40
0.211414
100
AcDbArc
 50
56.28594843054051
 51
139.429446
  0
LINE
  5
132
330
A
100
AcDbEntity
  8
1
  6
solid
 62
     7
100
AcDbLine
 10
-1.941414256364054
 20
1.463067277262477
 30
0.0
 11
-2.012460113871965
 21
1.493935291888714
 31
0.0
  0
ARC
  5
133
330
A
100
AcDbEntity
  8
1
  6
solid
 62
     7
100
AcDbCircle
 10
-2.207158470978118
 20
1.609788306062559
 30
0.0
 40
0.226559
100
AcDbArc
 50
224.279823
 51
329.2457719999999
  0
ARC
  5
134
330
A
100
AcDbEntity
  8
1
  6
solid
 62
     7
100
AcDbCircle
 10
-3.270894850558875
 20
2.450038680191855
 30
0.0
 40
1.34522
100
AcDbArc
 50
269.2510129999999
 51
312.0806099999999
  0
ARC
  5
135
330
A
100
AcDbEntity
  8
1
  6
solid
 62
     7
100
AcDbCircle
 10
-4.796135098771781
 20
1.325565831641284
 30
0.0
 40
0.211414
100
AcDbArc
 50
40.57059400000002
 51
123.7136040060192
  0
LINE
  5
136
330
A
100
AcDbEntity
  8
1
  6
solid
 62
     7
100
AcDbLine
 10
-4.635544125692979
 20
1.463065629726966
 30
0.0
 11
-4.564498996842051
 21
1.493934401059094
 31
0.0
  0
ARC
  5
137
330
A
100
AcDbEntity
  8
1
  6
solid
 62
     7
100
AcDbCircle
 10
-4.369800720616607
 20
1.609787551158006
 30
0.0
 40
0.226559
100
AcDbArc
 50
210.7542679999999
 51
315.7202169999999
  0
ARC
  5
138
330
A
100
AcDbEntity
  8
1
  6
solid
 62
     7
100
AcDbCircle
 10
-3.30606492764153
 20
2.450038667915182
 30
0.0
 40
1.34522
100
AcDbArc
 50
227.9194299999999
 51
270.749027
  0
LINE
  5
139
330
A
100
AcDbEntity
  8
0
  6
solid
 62
     7
100
AcDbLine
 10
-2.446594966653796
 20
0.7183066606521607
 30
0.0
 11
-4.13036012687507
 21
0.7183066606521588
 31
0.0
  0
LINE
  5
13A
330
A
100
AcDbEntity
  8
1
  6
solid
 62
     7
100
AcDbLine
 10
-1.663478882594049
 20
1.501424859835762
 30
0.0
 11
-2.446594966653796
 21
0.7183066606521607
 31
0.0
  0
LINE
  5
13B
330
A
100
AcDbEntity
  8
1
  6
solid
 62
     7
100
AcDbLine
 10
-4.913478736866233
 20
1.501424723923587
 30
0.0
 11
-4.13036012687507
 21
0.7183066606521606
 31
0.0
  0
LINE
  5
1A3
330
A
100
AcDbEntity
  8
1
  6
solid
 62
     7
370
     0
100
AcDbLine
 10
0.18487
 20
2.676558532150252
 30
0.0
 11
0.1848700000000001
 21
2.965849403846153
 31
0.0
  0
LINE
  5
1A6
330
A
100
AcDbEntity
  8
1
  6
solid
 62
     7
370
     0
100
AcDbLine
 10
2.532515
 20
2.677784999999999
 30
0.0
 11
2.532515
 21
2.965849403846153
 31
0.0
  0
LINE
  5
1A7
330
A
100
AcDbEntity
  8
1
  6
solid
 62
     7
370
     0
100
AcDbLine
 10
0.1848700000000001
 20
2.903349403846153
 30
0.0
 11
0.9330136514240798
 21
2.903349403846153
 31
0.0
  0
LINE
  5
1A8
330
A
100
AcDbEntity
  8
1
  6
solid
 62
     7
370
     0
100
AcDbLine
 10
2.532515
 20
2.903349403846153
 30
0.0
 11
1.817138865632117
 21
2.903349403846153
 31
0.0
  0
MTEXT
  5
1A9
330
A
100
AcDbEntity
  8
1
  6
solid
 62
     7
370
     0
100
AcDbMText
 10
1.3586925
 20
2.903349403846153
 30
0.0
 40
0.125
 41
0.0
 71
     5
 72
     1
  1
{\H0.125000;2 3/8}
 73
     1
 44
1.0
  0
SOLID
  5
1AA
330
A
100
AcDbEntity
  8
1
  6
solid
 62
     7
370
     0
100
AcDbTrace
 10
0.3098700000010001
 20
2.924161903846154
 30
0.0
 11
0.3098700000010001
 21
2.882536903846153
 31
0.0
 12
0.1848700000000001
 22
2.903349403846153
 32
0.0
 13
0.1848700000000001
 23
2.903349403846153
 33
0.0
  0
SOLID
  5
1AB
330
A
100
AcDbEntity
  8
1
  6
solid
 62
     7
370
     0
100
AcDbTrace
 10
2.407514999998999
 20
2.882536903846153
 30
0.0
 11
2.407514999998999
 21
2.924161903846154
 31
0.0
 12
2.532515
 22
2.903349403846153
 32
0.0
 13
2.532515
 23
2.903349403846153
 33
0.0
  0
LINE
  5
1AE
330
A
100
AcDbEntity
  8
1
  6
solid
 62
     7
370
     0
100
AcDbLine
 10
0.059871
 20
0.2051410000000001
 30
0.0
 11
-0.3406120000000008
 21
0.2051410000000005
 31
0.0
  0
LINE
  5
1AF
330
A
100
AcDbEntity
  8
1
  6
solid
 62
     7
370
     0
100
AcDbLine
 10
1.408898999999999
 20
2.552784999999999
 30
0.0
 11
-0.3406119999999992
 21
2.552785
 31
0.0
  0
LINE
  5
1B0
330
A
100
AcDbEntity
  8
1
  6
solid
 62
     7
370
     0
100
AcDbLine
 10
-0.2781120000000008
 20
0.2051410000000005
 30
0.0
 11
-0.2781120000000001
 21
1.219090403846154
 31
0.0
  0
LINE
  5
1B1
330
A
100
AcDbEntity
  8
1
  6
solid
 62
     7
370
     0
100
AcDbLine
 10
-0.2781119999999992
 20
2.552785
 30
0.0
 11
-0.2781119999999999
 21
1.538835596153846
 31
0.0
  0
MTEXT
  5
1B2
330
A
100
AcDbEntity
  8
1
  6
solid
 62
     7
370
     0
100
AcDbMText
 10
-0.278112
 20
1.378963
 30
0.0
 40
0.125
 41
0.0
 71
     5
 72
     1
  1
{\H0.125000;2 3/8}
 73
     1
 44
1.0
  0
SOLID
  5
1B3
330
A
100
AcDbEntity
  8
1
  6
solid
 62
     7
370
     0
100
AcDbTrace
 10
-0.2989245000000006
 20
0.3301410000010004
 30
0.0
 11
-0.2572995000000005
 21
0.3301410000010004
 31
0.0
 12
-0.2781120000000008
 22
0.2051410000000005
 32
0.0
 13
-0.2781120000000008
 23
0.2051410000000005
 33
0.0
  0
SOLID
  5
1B4
330
A
100
AcDbEntity
  8
1
  6
solid
 62
     7
370
     0
100
AcDbTrace
 10
-0.2572994999999993
 20
2.427784999999
 30
0.0
 11
-0.2989244999999992
 21
2.427784999999
 31
0.0
 12
-0.2781119999999992
 22
2.552785
 32
0.0
 13
-0.2781119999999992
 23
2.552785
 33
0.0
  0
LINE
  5
1B5
330
A
100
AcDbEntity
  8
0
  6
solid
 62
     7
370
     0
100
AcDbLine
 10
-4.913478851318359
 20
0.6062344346554696
 30
0.0
 11
-4.913478851318359
 21
0.3441496958842185
 31
0.0
  0
LINE
  5
1B6
330
A
100
AcDbEntity
  8
0
  6
solid
 62
     7
370
     0
100
AcDbLine
 10
-1.663478851318359
 20
1.376424908638
 30
0.0
 11
-1.663478851318359
 21
0.3441496958842185
 31
0.0
  0
LINE
  5
1B7
330
A
100
AcDbEntity
  8
0
  6
solid
 62
     7
370
     0
100
AcDbLine
 10
-4.913478851318359
 20
0.4066496958842185
 30
0.0
 11
-3.288478851318359
 21
0.4066496958842185
 31
0.0
  0
LINE
  5
1B8
330
A
100
AcDbEntity
  8
0
  6
solid
 62
     7
370
     0
100
AcDbLine
 10
-1.663478851318359
 20
0.4066496958842185
 30
0.0
 11
-3.288478851318359
 21
0.4066496958842185
 31
0.0
  0
MTEXT
  5
1B9
330
A
100
AcDbEntity
  8
0
  6
solid
 62
     7
370
     0
100
AcDbMText
 10
-3.288478851318359
 20
0.5102347920380647
 30
0.0
 40
0.125
 41
0.0
 71
     5
 72
     1
  1
{\H0.125000;3 1/4}
 73
     1
 44
1.0
  0
SOLID
  5
1BA
330
A
100
AcDbEntity
  8
0
  6
solid
 62
     7
370
     0
100
AcDbTrace
 10
-4.788478851318359
 20
0.4274646958842185
 30
0.0
 11
-4.788478851318359
 21
0.3858346958842184
 31
0.0
 12
-4.913478851318359
 22
0.4066496958842185
 32
0.0
 13
-4.913478851318359
 23
0.4066496958842185
 33
0.0
  0
SOLID
  5
1BB
330
A
100
AcDbEntity
  8
0
  6
solid
 62
     7
370
     0
100
AcDbTrace
 10
-1.788478851318359
 20
0.3858346958842187
 30
0.0
 11
-1.788478851318359
 21
0.4274646958842188
 31
0.0
 12
-1.663478851318359
 22
0.4066496958842185
 32
0.0
 13
-1.663478851318359
 23
0.4066496958842185
 33
0.0
  0
LINE
  5
1BC
330
A
100
AcDbEntity
  8
0
  6
solid
 62
     7
370
     0
100
AcDbLine
 10
-4.255360126495361
 20
0.7183066606521608
 30
0.0
 11
-5.115596208197942
 21
0.7183066606521611
 31
0.0
  0
LINE
  5
1BD
330
A
100
AcDbEntity
  8
0
  6
solid
 62
     7
370
     0
100
AcDbLine
 10
-4.892231464385986
 20
1.534994721412658
 30
0.0
 11
-5.115596208197941
 21
1.534994721412659
 31
0.0
  0
LINE
  5
1BE
330
A
100
AcDbEntity
  8
0
  6
solid
 62
     7
370
     0
100
AcDbLine
 10
-5.053096208197942
 20
0.7183066606521611
 30
0.0
 11
-5.053096208197942
 21
1.12665069103241
 31
0.0
  0
LINE
  5
1BF
330
A
100
AcDbEntity
  8
0
  6
solid
 62
     7
370
     0
100
AcDbLine
 10
-5.053096208197941
 20
1.534994721412659
 30
0.0
 11
-5.053096208197942
 21
1.12665069103241
 31
0.0
  0
MTEXT
  5
1C0
330
A
100
AcDbEntity
  8
0
  6
solid
 62
     7
370
     0
100
AcDbMText
 10
-5.442558708197942
 20
1.12665069103241
 30
0.0
 40
0.125
 41
0.0
 71
     5
 72
     1
  1
{\H0.125000;13/16}
 73
     1
 44
1.0
  0
SOLID
  5
1C1
330
A
100
AcDbEntity
  8
0
  6
solid
 62
     7
370
     0
100
AcDbTrace
 10
-5.073911208197942
 20
0.8433066606521609
 30
0.0
 11
-5.032281208197942
 21
0.8433066606521609
 31
0.0
 12
-5.053096208197942
 22
0.7183066606521611
 32
0.0
 13
-5.053096208197942
 23
0.7183066606521611
 33
0.0
  0
SOLID
  5
1C2
330
A
100
AcDbEntity
  8
0
  6
solid
 62
     7
370
     0
100
AcDbTrace
 10
-5.032281208197941
 20
1.409994721412659
 30
0.0
 11
-5.073911208197941
 21
1.409994721412659
 31
0.0
 12
-5.053096208197941
 22
1.534994721412659
 32
0.0
 13
-5.053096208197941
 23
1.534994721412659
 33
0.0
  0
VIEWPORT
  5
16F
330
B
100
AcDbEntity
 67
     1
  8
0
  6
Continuous
370
     0
100
AcDbViewport
 10
5.187012108692978
 20
3.933730990957315
 30
0.0
 40
15.20820451650604
 41
8.046752701560889
 68
     1
 69
     1
 12
5.187012108692978
 22
3.933730990957315
 13
0.0
 23
0.0
 14
0.5
 24
0.5
 15
0.5
 25
0.5
 16
0.0
 26
0.0
 36
1.0
 17
0.0
 27
0.0
 37
0.0
 42
50.0
 43
0.0
 44
0.0
 45
8.046752701560889
 50
0.0
 51
0.0
 72
   100
 90
   819232
  1

281
     0
 71
     1
 74
     0
110
0.0
120
0.0
130
0.0
111
1.0
121
0.0
131
0.0
112
0.0
122
1.0
132
0.0
 79
     0
146
0.0
170
     0
  0
VIEWPORT
  5
172
330
B
100
AcDbEntity
 67
     1
  8
0
  6
Continuous
370
     0
100
AcDbViewport
 10
5.187037609839677
 20
3.93348329874472
 30
0.0
 40
10.30738343938075
 41
7.952633142808135
 68
     2
 69
     2
 12
-1.249114579015699
 22
1.165894385132128
 13
0.0
 23
0.0
 14
0.5
 24
0.5
 15
0.5
 25
0.5
 16
0.0
 26
0.0
 36
1.0
 17
0.0
 27
0.0
 37
0.0
 42
50.0
 43
0.0
 44
0.0
 45
8.613934038320511
 50
0.0
 51
0.0
 72
   100
 90
   819232
  1

281
     0
 71
     1
 74
     0
110
0.0
120
0.0
130
0.0
111
1.0
121
0.0
131
0.0
112
0.0
122
1.0
132
0.0
 79
     0
146
0.0
170
     0
  0
ENDSEC
  0
SECTION
  2
OBJECTS
  0
DICTIONARY
  5
19
330
0
100
AcDbDictionary
281
     1
  3
ACAD_COLOR
350
168
  3
ACAD_GROUP
350
1A
  3
ACAD_LAYOUT
350
1E
  3
ACAD_MATERIAL
350
153
  3
ACAD_MLEADERSTYLE
350
18A
  3
ACAD_MLINESTYLE
350
1B
  3
ACAD_PLOTSETTINGS
350
22
  3
ACAD_PLOTSTYLENAME
350
1F
  3
ACAD_SCALELIST
350
17A
  3
ACAD_TABLESTYLE
350
169
  3
ACAD_VISUALSTYLE
350
157
  3
ACAD_WIPEOUT_VARS
350
23
  3
ACDB_RECOMPOSE_DATA
350
1E0
  3
AcDbVariableDictionary
350
177
  3
ASE_INDEX_DICTIONARY
350
1C8
  0
DICTIONARY
  5
195
330
14
100
AcDbDictionary
280
     1
281
     1
  3
ADSK_XREC_LAYER_RECONCILED
360
196
  0
DICTIONARY
  5
197
330
27
100
AcDbDictionary
280
     1
281
     1
  3
ADSK_XREC_LAYER_RECONCILED
360
198
  0
DICTIONARY
  5
199
330
C3
100
AcDbDictionary
280
     1
281
     1
  3
ADSK_XREC_LAYER_RECONCILED
360
19A
  0
DICTIONARY
  5
1AC
330
A
100
AcDbDictionary
280
     1
281
     1
  3
ACAD_SORTENTS
360
1AD
  0
DICTIONARY
  5
168
102
{ACAD_REACTORS
330
19
102
}
330
19
100
AcDbDictionary
281
     1
  0
DICTIONARY
  5
1A
102
{ACAD_REACTORS
330
19
102
}
330
19
100
AcDbDictionary
281
     1
  0
DICTIONARY
  5
1E
102
{ACAD_REACTORS
330
19
102
}
330
19
100
AcDbDictionary
281
     1
  3
Layout1
350
21
  3
Model
350
20
  0
DICTIONARY
  5
153
102
{ACAD_REACTORS
330
19
102
}
330
19
100
AcDbDictionary
281
     1
  3
ByBlock
350
155
  3
ByLayer
350
154
  3
Global
350
156
  0
DICTIONARY
  5
18A
102
{ACAD_REACTORS
330
19
102
}
330
19
100
AcDbDictionary
281
     1
  3
Standard
350
18B
  0
DICTIONARY
  5
1B
102
{ACAD_REACTORS
330
19
102
}
330
19
100
AcDbDictionary
281
     1
  3
Standard
350
1C
  0
DICTIONARY
  5
22
102
{ACAD_REACTORS
330
19
102
}
330
19
100
AcDbDictionary
281
     1
  0
ACDBDICTIONARYWDFLT
  5
1F
102
{ACAD_REACTORS
330
19
102
}
330
19
100
AcDbDictionary
281
     1
  3
Normal
350
1D
100
AcDbDictionaryWithDefault
340
1D
  0
DICTIONARY
  5
17A
102
{ACAD_REACTORS
330
19
102
}
330
19
100
AcDbDictionary
281
     1
  3
A0
350
17B
  3
A1
350
17C
  3
A2
350
17D
  3
A3
350
17E
  3
A4
350
17F
  3
A5
350
180
  3
A6
350
181
  3
A7
350
182
  3
A8
350
183
  3
A9
350
184
  3
B0
350
185
  3
B1
350
186
  3
B2
350
187
  3
B3
350
188
  3
B4
350
189
  0
DICTIONARY
  5
169
102
{ACAD_REACTORS
330
19
102
}
330
19
100
AcDbDictionary
281
     1
  3
Standard
350
16A
  0
DICTIONARY
  5
157
102
{ACAD_REACTORS
330
19
102
}
330
19
100
AcDbDictionary
281
     1
  3
2dWireframe
350
15D
  3
3D Hidden
350
15F
  3
3dWireframe
350
15E
  3
Basic
350
15C
  3
Brighten
350
163
  3
ColorChange
350
167
  3
Conceptual
350
160
  3
Dim
350
162
  3
Facepattern
350
166
  3
Flat
350
158
  3
FlatWithEdges
350
159
  3
Gouraud
350
15A
  3
GouraudWithEdges
350
15B
  3
Linepattern
350
165
  3
Realistic
350
161
  3
Thicken
350
164
  0
WIPEOUTVARIABLES
  5
23
330
19
100
AcDbWipeoutVariables
 70
     1
  0
XRECORD
  5
1E0
102
{ACAD_REACTORS
330
19
102
}
330
19
100
AcDbXrecord
280
     1
 90
        1
330
16A
  0
DICTIONARY
  5
177
102
{ACAD_REACTORS
330
19
102
}
330
19
100
AcDbDictionary
281
     1
  3
CANNOSCALE
350
1DD
  3
CMLEADERSTYLE
350
1DC
  3
CTABLESTYLE
350
178
  0
DICTIONARY
  5
1C8
102
{ACAD_REACTORS
330
19
102
}
330
19
100
AcDbDictionary
281
     1
  3
ASEBlockHierarchyIndexRecord
350
1C9
1001
DCO15
1040
1667581531.14
  0
XRECORD
  5
196
102
{ACAD_REACTORS
330
195
102
}
330
195
100
AcDbXrecord
280
     1
290
     1
  0
XRECORD
  5
198
102
{ACAD_REACTORS
330
197
102
}
330
197
100
AcDbXrecord
280
     1
290
     1
  0
XRECORD
  5
19A
102
{ACAD_REACTORS
330
199
102
}
330
199
100
AcDbXrecord
280
     1
290
     1
  0
SORTENTSTABLE
  5
1AD
102
{ACAD_REACTORS
330
1AC
102
}
330
1AC
100
AcDbSortentsTable
330
A
331
E0
  5
EE
331
BE
  5
CD
331
9C
  5
AA
331
7A
  5
88
331
11C
  5
12A
331
FA
  5
108
331
69
  5
77
331
1BE
  5
1B7
331
AD
  5
BB
331
8B
  5
99
331
12D
  5
13B
331
10B
  5
119
331
CF
  5
DD
331
36
  5
36
331
9A
  5
A8
331
78
  5
86
331
DE
  5
EC
331
BC
  5
CB
331
1AB
  5
66
331
11A
  5
128
331
F8
  5
106
331
1BC
  5
1B5
331
AB
  5
B9
331
89
  5
97
331
67
  5
75
331
12B
  5
139
331
109
  5
117
331
EF
  5
FD
331
CD
  5
DB
331
34
  5
34
331
98
  5
A6
331
DC
  5
EA
331
BA
  5
C9
331
1A9
  5
64
331
13A
  5
1B1
331
118
  5
126
331
F6
  5
104
331
65
  5
73
331
1BA
  5
1C1
331
A9
  5
B7
331
87
  5
95
331
ED
  5
FB
331
CB
  5
D9
331
129
  5
137
331
107
  5
115
331
76
  5
84
331
32
  5
32
331
B8
  5
C7
331
DA
  5
E8
331
138
  5
1AF
331
116
  5
124
331
F4
  5
102
331
63
  5
71
331
1B8
  5
1BF
331
A7
  5
B5
331
85
  5
93
331
41
  5
41
331
EB
  5
F9
331
C9
  5
D7
331
127
  5
135
331
105
  5
113
331
74
  5
82
331
96
  5
A4
331
1A7
  5
62
331
30
  5
30
331
D8
  5
E6
331
136
  5
1AB
331
114
  5
122
331
F2
  5
100
331
61
  5
6F
331
1B6
  5
1BD
331
A5
  5
B3
331
83
  5
91
331
E9
  5
F7
331
C7
  5
D5
331
125
  5
133
331
103
  5
111
331
72
  5
80
331
B6
  5
C5
331
94
  5
A2
331
3F
  5
3F
331
2E
  5
2E
331
134
  5
1A9
331
112
  5
120
331
F0
  5
FE
331
A3
  5
B1
331
81
  5
8F
331
1B4
  5
5F
331
E7
  5
F5
331
C5
  5
D3
331
123
  5
131
331
101
  5
10F
331
70
  5
7E
331
92
  5
A0
331
B4
  5
C2
331
1A3
  5
60
331
D6
  5
E4
331
5F
  5
6D
331
3D
  5
3D
331
2C
  5
2C
331
132
  5
1A7
331
110
  5
11E
331
A1
  5
AF
331
7F
  5
8D
331
1B2
  5
5D
331
E5
  5
F3
331
121
  5
12F
331
FF
  5
10D
331
6E
  5
7C
331
B2
  5
C0
331
90
  5
9E
331
D4
  5
E2
331
5D
  5
6B
331
3B
  5
3B
331
2A
  5
2A
331
130
  5
1A3
331
9F
  5
AD
331
7D
  5
8B
331
1B0
  5
5B
331
E3
  5
F1
331
C1
  5
D0
331
11F
  5
12D
331
FD
  5
10B
331
6C
  5
7A
331
1C1
  5
1BA
331
B0
  5
BE
331
8E
  5
9C
331
D2
  5
E0
331
10E
  5
11C
331
5B
  5
69
331
39
  5
39
331
28
  5
28
331
9D
  5
AB
331
7B
  5
89
331
E1
  5
EF
331
BF
  5
CE
331
11D
  5
12B
331
FB
  5
109
331
6A
  5
78
331
1AE
  5
59
331
1BF
  5
1B8
331
AE
  5
BC
331
8C
  5
9A
331
D0
  5
DE
331
12E
  5
146
331
10C
  5
11A
331
59
  5
67
331
37
  5
37
331
DF
  5
ED
331
BD
  5
CC
331
9B
  5
A9
331
79
  5
87
331
11B
  5
129
331
F9
  5
107
331
68
  5
76
331
1BD
  5
1B6
331
AC
  5
BA
331
8A
  5
98
331
12C
  5
13A
331
10A
  5
118
331
CE
  5
DC
331
35
  5
35
331
99
  5
A7
331
DD
  5
EB
331
BB
  5
CA
331
1AA
  5
65
331
13B
  5
1B2
331
119
  5
127
331
F7
  5
105
331
66
  5
74
331
1BB
  5
1C2
331
AA
  5
B8
331
88
  5
96
331
EE
  5
FC
331
CC
  5
DA
331
12A
  5
138
331
108
  5
116
331
77
  5
85
331
33
  5
33
331
B9
  5
C8
331
1A8
  5
63
331
DB
  5
E9
331
139
  5
1B0
331
117
  5
125
331
F5
  5
103
331
64
  5
72
331
1B9
  5
1C0
331
A8
  5
B6
331
86
  5
94
331
42
  5
42
331
EC
  5
FA
331
CA
  5
D8
331
128
  5
136
331
106
  5
114
331
75
  5
83
331
97
  5
A5
331
31
  5
31
331
D9
  5
E7
331
137
  5
1AE
331
115
  5
123
331
F3
  5
101
331
62
  5
70
331
1B7
  5
1BE
331
A6
  5
B4
331
84
  5
92
331
40
  5
40
331
EA
  5
F8
331
C8
  5
D6
331
126
  5
134
331
104
  5
112
331
73
  5
81
331
95
  5
A3
331
B7
  5
C6
331
1A6
  5
61
331
2F
  5
2F
331
135
  5
1AA
331
113
  5
121
331
F1
  5
FF
331
60
  5
6E
331
1B5
  5
1BC
331
A4
  5
B2
331
82
  5
90
331
E8
  5
F6
331
C6
  5
D4
331
124
  5
132
331
102
  5
110
331
71
  5
7F
331
B5
  5
C4
331
93
  5
A1
331
D7
  5
E5
331
3E
  5
3E
331
2D
  5
2D
331
133
  5
1A8
331
111
  5
11F
331
A2
  5
B0
331
80
  5
8E
331
1B3
  5
5E
331
C4
  5
D2
331
122
  5
130
331
100
  5
10E
331
6F
  5
7D
331
B3
  5
C1
331
91
  5
9F
331
E6
  5
F4
331
D5
  5
E3
331
5E
  5
6C
331
3C
  5
3C
331
2B
  5
2B
331
131
  5
1A6
331
A0
  5
AE
331
7E
  5
8C
331
1B1
  5
5C
331
E4
  5
F2
331
C2
  5
D1
331
120
  5
12E
331
FE
  5
10C
331
6D
  5
7B
331
1C2
  5
1BB
331
B1
  5
BF
331
8F
  5
9D
331
D3
  5
E1
331
10F
  5
11D
331
5C
  5
6A
331
3A
  5
3A
331
29
  5
29
331
9E
  5
AC
331
7C
  5
8A
331
E2
  5
F0
331
C0
  5
CF
331
11E
  5
12C
331
FC
  5
10A
331
6B
  5
79
331
1AF
  5
5A
331
1C0
  5
1B9
331
AF
  5
BD
331
8D
  5
9B
331
D1
  5
DF
331
12F
  5
151
331
10D
  5
11B
331
5A
  5
68
331
38
  5
38
  0
LAYOUT
  5
21
102
{ACAD_REACTORS
330
1E
102
}
330
1E
100
AcDbPlotSettings
  1

  2
Foxit PDF Printer
  4
Letter
  6

 40
3.174999952316284
 41
3.174999952316284
 42
3.17498779296875
 43
3.175003051757812
 44
279.3999938964844
 45
215.8999938964844
 46
31.47715384821894
 47
24.12875752349356
 48
0.0
 49
0.0
140
0.0
141
0.0
142
1.0
143
1.0
 70
     4
 72
     0
 73
     0
 74
     1
  7

 75
     0
147
1.0
 76
     0
 77
     2
 78
   300
148
-26.25461124795212
149
-20.16000981431432
100
AcDbLayout
  1
Layout1
 70
     0
 71
     1
 10
-0.3306119115190196
 20
-0.2812499079328949
 11
10.66938784818509
 21
8.218749851771214
 12
0.0
 22
0.0
 32
0.0
 14
0.0332799218750992
 24
-0.0428619138838222
 34
-0.0015258207003583
 15
10.34074429551085
 25
7.910323895798452
 35
0.0000000349246037
146
0.0
 13
0.0
 23
0.0
 33
0.0
 16
1.0
 26
0.0
 36
0.0
 17
0.0
 27
1.0
 37
0.0
 76
     0
330
B
331
16F
1001
ACAD_PSEXT
1000
Foxit PDF Printer
1000
Foxit PDF Printer Driver
1000
FOXIT_PDF
1000

1070
     0
  0
LAYOUT
  5
20
102
{ACAD_REACTORS
330
1E
102
}
330
1E
100
AcDbPlotSettings
  1

  2

  4

  6

 40
0.0
 41
0.0
 42
0.0
 43
0.0
 44
0.0
 45
0.0
 46
0.0
 47
0.0
 48
0.0
 49
0.0
140
0.0
141
0.0
142
1.0
143
1.0
 70
  1024
 72
     0
 73
     0
 74
     0
  7

 75
     0
147
1.0
 76
     0
 77
     2
 78
   300
148
0.0
149
0.0
100
AcDbLayout
  1
Model
 70
     0
 71
     0
 10
0.0
 20
0.0
 11
0.0
 21
0.0
 12
0.0
 22
0.0
 32
0.0
 14
0.0
 24
0.0
 34
0.0
 15
0.0
 25
0.0
 35
0.0
146
0.0
 13
0.0
 23
0.0
 33
0.0
 16
0.0
 26
0.0
 36
0.0
 17
0.0
 27
0.0
 37
0.0
 76
     0
330
A
  0
MATERIAL
  5
155
102
{ACAD_XDICTIONARY
360
1E3
102
}
102
{ACAD_REACTORS
330
153
102
}
330
153
100
AcDbMaterial
  1
ByBlock
 73
     1
 78
     1
172
     1
176
     1
270
     1
274
     1
  0
MATERIAL
  5
154
102
{ACAD_XDICTIONARY
360
1E1
102
}
102
{ACAD_REACTORS
330
153
102
}
330
153
100
AcDbMaterial
  1
ByLayer
 73
     1
 78
     1
172
     1
176
     1
270
     1
274
     1
  0
MATERIAL
  5
156
102
{ACAD_XDICTIONARY
360
1E5
102
}
102
{ACAD_REACTORS
330
153
102
}
330
153
100
AcDbMaterial
  1
Global
 73
     1
 78
     1
172
     1
176
     1
270
     1
274
     1
  0
MLEADERSTYLE
  5
18B
102
{ACAD_REACTORS
330
18A
102
}
330
18A
100
AcDbMLeaderStyle
170
     2
171
     1
172
     0
 90
        2
 40
0.0
 41
0.0
173
     1
 91
-1056964608
340
11
 92
       -2
290
     1
 42
0.09
291
     1
 43
0.36
  3
Standard
 44
0.18
300

342
17
174
     1
178
     6
175
     1
176
     0
 93
-1056964608
 45
0.18
292
     0
297
     0
 46
0.18
 94
-1056964608
 47
1.0
 49
1.0
140
1.0
293
     1
141
0.0
294
     1
177
     0
142
1.0
295
     0
296
     0
143
0.125
1001
ACAD_MLEADERVER
1070
     2
  0
MLINESTYLE
  5
1C
102
{ACAD_REACTORS
330
1B
102
}
330
1B
100
AcDbMlineStyle
  2
STANDARD
 70
     0
  3

 62
     0
 51
90.0
 52
90.0
 71
     2
 49
0.5
 62
   256
  6
BYLAYER
 49
-0.5
 62
   256
  6
BYLAYER
  0
ACDBPLACEHOLDER
  5
1D
102
{ACAD_REACTORS
330
1F
102
}
330
1F
  0
SCALE
  5
17B
102
{ACAD_REACTORS
330
17A
102
}
330
17A
100
AcDbScale
 70
     0
300
1/64" = 1'-0"
140
0.015625
141
12.0
290
     0
  0
SCALE
  5
17C
102
{ACAD_REACTORS
330
17A
102
}
330
17A
100
AcDbScale
 70
     0
300
1/32" = 1'-0"
140
0.03125
141
12.0
290
     0
  0
SCALE
  5
17D
102
{ACAD_REACTORS
330
17A
102
}
330
17A
100
AcDbScale
 70
     0
300
1/16" = 1'-0"
140
0.0625
141
12.0
290
     0
  0
SCALE
  5
17E
102
{ACAD_REACTORS
330
17A
102
}
330
17A
100
AcDbScale
 70
     0
300
3/32" = 1'-0"
140
0.09375
141
12.0
290
     0
  0
SCALE
  5
17F
102
{ACAD_REACTORS
330
17A
102
}
330
17A
100
AcDbScale
 70
     0
300
1/8" = 1'-0"
140
0.125
141
12.0
290
     0
  0
SCALE
  5
180
102
{ACAD_REACTORS
330
17A
102
}
330
17A
100
AcDbScale
 70
     0
300
3/16" = 1'-0"
140
0.1875
141
12.0
290
     0
  0
SCALE
  5
181
102
{ACAD_REACTORS
330
17A
102
}
330
17A
100
AcDbScale
 70
     0
300
1/4" = 1'-0"
140
0.25
141
12.0
290
     0
  0
SCALE
  5
182
102
{ACAD_REACTORS
330
17A
102
}
330
17A
100
AcDbScale
 70
     0
300
3/8" = 1'-0"
140
0.375
141
12.0
290
     0
  0
SCALE
  5
183
102
{ACAD_REACTORS
330
17A
102
}
330
17A
100
AcDbScale
 70
     0
300
1/2" = 1'-0"
140
0.5
141
12.0
290
     0
  0
SCALE
  5
184
102
{ACAD_REACTORS
330
17A
102
}
330
17A
100
AcDbScale
 70
     0
300
3/4" = 1'-0"
140
0.75
141
12.0
290
     0
  0
SCALE
  5
185
102
{ACAD_REACTORS
330
17A
102
}
330
17A
100
AcDbScale
 70
     0
300
1" = 1'-0"
140
1.0
141
12.0
290
     0
  0
SCALE
  5
186
102
{ACAD_REACTORS
330
17A
102
}
330
17A
100
AcDbScale
 70
     0
300
1 1/2" = 1'-0"
140
1.5
141
12.0
290
     0
  0
SCALE
  5
187
102
{ACAD_REACTORS
330
17A
102
}
330
17A
100
AcDbScale
 70
     0
300
3" = 1'-0"
140
3.0
141
12.0
290
     0
  0
SCALE
  5
188
102
{ACAD_REACTORS
330
17A
102
}
330
17A
100
AcDbScale
 70
     0
300
6" = 1'-0"
140
6.0
141
12.0
290
     0
  0
SCALE
  5
189
102
{ACAD_REACTORS
330
17A
102
}
330
17A
100
AcDbScale
 70
     0
300
1'-0" = 1'-0"
140
12.0
141
12.0
290
     1
  0
TABLESTYLE
  5
16A
102
{ACAD_XDICTIONARY
360
1DE
102
}
102
{ACAD_REACTORS
330
169
102
}
330
169
100
AcDbTableStyle
  3
Standard
 70
     0
 71
     0
 40
0.06
 41
0.06
280
     0
281
     0
  7
Standard
140
0.18
170
     2
 62
     0
 63
     7
283
     0
274
    -2
284
     1
 64
     0
275
    -2
285
     1
 65
     0
276
    -2
286
     1
 66
     0
277
    -2
287
     1
 67
     0
278
    -2
288
     1
 68
     0
279
    -2
289
     1
 69
     0
  7
Standard
140
0.25
170
     5
 62
     0
 63
     7
283
     0
274
    -2
284
     1
 64
     0
275
    -2
285
     1
 65
     0
276
    -2
286
     1
 66
     0
277
    -2
287
     1
 67
     0
278
    -2
288
     1
 68
     0
279
    -2
289
     1
 69
     0
  7
Standard
140
0.18
170
     5
 62
     0
 63
     7
283
     0
274
    -2
284
     1
 64
     0
275
    -2
285
     1
 65
     0
276
    -2
286
     1
 66
     0
277
    -2
287
     1
 67
     0
278
    -2
288
     1
 68
     0
279
    -2
289
     1
 69
     0
  0
VISUALSTYLE
  5
15D
102
{ACAD_REACTORS
330
157
102
}
330
157
100
AcDbVisualStyle
  2
2dWireframe
 70
     4
 71
     0
 72
     2
 73
     0
 90
        0
 40
-0.6
 41
-30.0
 62
     5
 63
     7
421
 16777215
 74
     1
 91
        4
 64
     7
 65
   257
 75
     1
175
     1
 42
1.0
 92
        0
 66
   257
 43
1.0
 76
     1
 77
     6
 78
     2
 67
     7
 79
     5
170
     0
171
     0
290
     0
174
     0
 93
        1
 44
0.0
173
     0
291
     0
 45
0.0
1001
ACAD
1000
AcDbSavedByObjectVersion
1070
     0
  0
VISUALSTYLE
  5
15F
102
{ACAD_REACTORS
330
157
102
}
330
157
100
AcDbVisualStyle
  2
3D Hidden
 70
     6
 71
     1
 72
     2
 73
     2
 90
        0
 40
-0.6
 41
-30.0
 62
     5
 63
     7
421
 16777215
 74
     2
 91
        2
 64
     7
 65
   257
 75
     2
175
     1
 42
40.0
 92
        0
 66
   257
 43
1.0
 76
     1
 77
     6
 78
     2
 67
     7
 79
     3
170
     0
171
     0
290
     0
174
     0
 93
        1
 44
0.0
173
     0
291
     0
 45
0.0
1001
ACAD
1000
AcDbSavedByObjectVersion
1070
     0
  0
VISUALSTYLE
  5
15E
102
{ACAD_REACTORS
330
157
102
}
330
157
100
AcDbVisualStyle
  2
3dWireframe
 70
     5
 71
     0
 72
     2
 73
     0
 90
        0
 40
-0.6
 41
-30.0
 62
     5
 63
     7
421
 16777215
 74
     1
 91
        4
 64
     7
 65
   257
 75
     1
175
     1
 42
1.0
 92
        0
 66
   257
 43
1.0
 76
     1
 77
     6
 78
     2
 67
     7
 79
     5
170
     0
171
     0
290
     0
174
     0
 93
        1
 44
0.0
173
     0
291
     0
 45
0.0
1001
ACAD
1000
AcDbSavedByObjectVersion
1070
     0
  0
VISUALSTYLE
  5
15C
102
{ACAD_REACTORS
330
157
102
}
330
157
100
AcDbVisualStyle
  2
Basic
 70
     7
 71
     1
 72
     0
 73
     1
 90
        0
 40
-0.6
 41
-30.0
 62
     5
 63
     7
421
 16777215
 74
     0
 91
        4
 64
     7
 65
   257
 75
     1
175
     1
 42
1.0
 92
        8
 66
     7
 43
1.0
 76
     1
 77
     6
 78
     2
 67
     7
 79
     5
170
     0
171
     0
290
     0
174
     0
 93
        1
 44
0.0
173
     0
291
     1
 45
0.0
1001
ACAD
1000
AcDbSavedByObjectVersion
1070
     0
  0
VISUALSTYLE
  5
163
102
{ACAD_REACTORS
330
157
102
}
330
157
100
AcDbVisualStyle
  2
Brighten
 70
    12
 71
     2
 72
     2
 73
     0
 90
        0
 40
-0.6
 41
-30.0
 62
     5
 63
     7
421
 16777215
 74
     1
 91
        4
 64
     7
 65
   257
 75
     1
175
     1
 42
1.0
 92
        8
 66
     7
 43
1.0
 76
     1
 77
     6
 78
     2
 67
     7
 79
     5
170
     0
171
     0
290
     0
174
     0
 93
        1
 44
50.0
173
     0
291
     1
 45
0.0
1001
ACAD
1000
AcDbSavedByObjectVersion
1070
     0
  0
VISUALSTYLE
  5
167
102
{ACAD_REACTORS
330
157
102
}
330
157
100
AcDbVisualStyle
  2
ColorChange
 70
    16
 71
     2
 72
     2
 73
     3
 90
        0
 40
-0.6
 41
-30.0
 62
     5
 63
     8
421
  8421504
 74
     1
 91
        4
 64
     7
 65
   257
 75
     1
175
     1
 42
1.0
 92
        8
 66
     8
424
  8421504
 43
1.0
 76
     1
 77
     6
 78
     2
 67
     7
 79
     5
170
     0
171
     0
290
     0
174
     0
 93
        1
 44
0.0
173
     0
291
     1
 45
0.0
1001
ACAD
1000
AcDbSavedByObjectVersion
1070
     0
  0
VISUALSTYLE
  5
160
102
{ACAD_REACTORS
330
157
102
}
330
157
100
AcDbVisualStyle
  2
Conceptual
 70
     9
 71
     3
 72
     2
 73
     0
 90
        0
 40
-0.6
 41
-30.0
 62
     5
 63
     7
421
 16777215
 74
     2
 91
        2
 64
     7
 65
   257
 75
     1
175
     1
 42
40.0
 92
        8
 66
     7
 43
1.0
 76
     1
 77
     6
 78
     2
 67
     7
 79
     3
170
     0
171
     0
290
     0
174
     0
 93
        1
 44
0.0
173
     0
291
     0
 45
0.0
1001
ACAD
1000
AcDbSavedByObjectVersion
1070
     0
  0
VISUALSTYLE
  5
162
102
{ACAD_REACTORS
330
157
102
}
330
157
100
AcDbVisualStyle
  2
Dim
 70
    11
 71
     2
 72
     2
 73
     0
 90
        0
 40
-0.6
 41
-30.0
 62
     5
 63
     7
421
 16777215
 74
     1
 91
        4
 64
     7
 65
   257
 75
     1
175
     1
 42
1.0
 92
        8
 66
     7
 43
1.0
 76
     1
 77
     6
 78
     2
 67
     7
 79
     5
170
     0
171
     0
290
     0
174
     0
 93
        1
 44
-50.0
173
     0
291
     1
 45
0.0
1001
ACAD
1000
AcDbSavedByObjectVersion
1070
     0
  0
VISUALSTYLE
  5
166
102
{ACAD_REACTORS
330
157
102
}
330
157
100
AcDbVisualStyle
  2
Facepattern
 70
    15
 71
     2
 72
     2
 73
     0
 90
        0
 40
-0.6
 41
-30.0
 62
     5
 63
     7
421
 16777215
 74
     1
 91
        4
 64
     7
 65
   257
 75
     1
175
     1
 42
1.0
 92
        8
 66
     7
 43
1.0
 76
     1
 77
     6
 78
     2
 67
     7
 79
     5
170
     0
171
     0
290
     0
174
     0
 93
        1
 44
0.0
173
     0
291
     1
 45
0.0
1001
ACAD
1000
AcDbSavedByObjectVersion
1070
     0
  0
VISUALSTYLE
  5
158
102
{ACAD_REACTORS
330
157
102
}
330
157
100
AcDbVisualStyle
  2
Flat
 70
     0
 71
     2
 72
     1
 73
     1
 90
        2
 40
-0.6
 41
30.0
 62
     5
 63
     7
421
 16777215
 74
     0
 91
        4
 64
     7
 65
   257
 75
     1
175
     1
 42
1.0
 92
        8
 66
     7
 43
1.0
 76
     1
 77
     6
 78
     2
 67
     7
 79
     5
170
     0
171
     0
290
     0
174
     0
 93
       13
 44
0.0
173
     0
291
     1
 45
0.0
1001
ACAD
1000
AcDbSavedByObjectVersion
1070
     0
  0
VISUALSTYLE
  5
159
102
{ACAD_REACTORS
330
157
102
}
330
157
100
AcDbVisualStyle
  2
FlatWithEdges
 70
     1
 71
     2
 72
     1
 73
     1
 90
        2
 40
-0.6
 41
30.0
 62
     5
 63
     7
421
 16777215
 74
     1
 91
        4
 64
     7
 65
   257
 75
     1
175
     1
 42
1.0
 92
        0
 66
   257
 43
1.0
 76
     1
 77
     6
 78
     2
 67
     7
 79
     5
170
     0
171
     0
290
     0
174
     0
 93
       13
 44
0.0
173
     0
291
     1
 45
0.0
1001
ACAD
1000
AcDbSavedByObjectVersion
1070
     0
  0
VISUALSTYLE
  5
15A
102
{ACAD_REACTORS
330
157
102
}
330
157
100
AcDbVisualStyle
  2
Gouraud
 70
     2
 71
     2
 72
     2
 73
     1
 90
        2
 40
-0.6
 41
30.0
 62
     5
 63
     7
421
 16777215
 74
     0
 91
        4
 64
     7
 65
   257
 75
     1
175
     1
 42
1.0
 92
        0
 66
     7
 43
1.0
 76
     1
 77
     6
 78
     2
 67
     7
 79
     5
170
     0
171
     0
290
     0
174
     0
 93
       13
 44
0.0
173
     0
291
     1
 45
0.0
1001
ACAD
1000
AcDbSavedByObjectVersion
1070
     0
  0
VISUALSTYLE
  5
15B
102
{ACAD_REACTORS
330
157
102
}
330
157
100
AcDbVisualStyle
  2
GouraudWithEdges
 70
     3
 71
     2
 72
     2
 73
     1
 90
        2
 40
-0.6
 41
30.0
 62
     5
 63
     7
421
 16777215
 74
     1
 91
        4
 64
     7
 65
   257
 75
     1
175
     1
 42
1.0
 92
        0
 66
   257
 43
1.0
 76
     1
 77
     6
 78
     2
 67
     7
 79
     5
170
     0
171
     0
290
     0
174
     0
 93
       13
 44
0.0
173
     0
291
     1
 45
0.0
1001
ACAD
1000
AcDbSavedByObjectVersion
1070
     0
  0
VISUALSTYLE
  5
165
102
{ACAD_REACTORS
330
157
102
}
330
157
100
AcDbVisualStyle
  2
Linepattern
 70
    14
 71
     2
 72
     2
 73
     0
 90
        0
 40
-0.6
 41
-30.0
 62
     5
 63
     7
421
 16777215
 74
     1
 91
        4
 64
     7
 65
   257
 75
     7
175
     7
 42
1.0
 92
        8
 66
     7
 43
1.0
 76
     1
 77
     6
 78
     2
 67
     7
 79
     5
170
     0
171
     0
290
     0
174
     0
 93
        1
 44
0.0
173
     0
291
     1
 45
0.0
1001
ACAD
1000
AcDbSavedByObjectVersion
1070
     0
  0
VISUALSTYLE
  5
161
102
{ACAD_REACTORS
330
157
102
}
330
157
100
AcDbVisualStyle
  2
Realistic
 70
     8
 71
     2
 72
     2
 73
     0
 90
        0
 40
-0.6
 41
-30.0
 62
     5
 63
     7
421
 16777215
 74
     1
 91
        0
 64
     7
 65
   257
 75
     1
175
     1
 42
1.0
 92
        8
 66
     8
424
  7895160
 43
1.0
 76
     1
 77
     6
 78
     2
 67
     7
 79
     5
170
     0
171
     0
290
     0
174
     0
 93
       13
 44
0.0
173
     0
291
     0
 45
0.0
1001
ACAD
1000
AcDbSavedByObjectVersion
1070
     0
  0
VISUALSTYLE
  5
164
102
{ACAD_REACTORS
330
157
102
}
330
157
100
AcDbVisualStyle
  2
Thicken
 70
    13
 71
     2
 72
     2
 73
     0
 90
        0
 40
-0.6
 41
-30.0
 62
     5
 63
     7
421
 16777215
 74
     1
 91
        4
 64
     7
 65
   257
 75
     1
175
     1
 42
1.0
 92
       12
 66
     7
 43
1.0
 76
     1
 77
     6
 78
     2
 67
     7
 79
     5
170
     0
171
     0
290
     0
174
     0
 93
        1
 44
0.0
173
     0
291
     1
 45
0.0
1001
ACAD
1000
AcDbSavedByObjectVersion
1070
     0
  0
DICTIONARYVAR
  5
1DD
102
{ACAD_REACTORS
330
177
102
}
330
177
100
DictionaryVariables
280
     0
  1
1'-0" = 1'-0"
  0
DICTIONARYVAR
  5
1DC
102
{ACAD_REACTORS
330
177
102
}
330
177
100
DictionaryVariables
280
     0
  1
STANDARD
  0
DICTIONARYVAR
  5
178
102
{ACAD_REACTORS
330
177
102
}
330
177
100
DictionaryVariables
280
     0
  1
STANDARD
  0
XRECORD
  5
1C9
102
{ACAD_REACTORS
330
1C8
102
}
330
1C8
100
AcDbXrecord
280
     1
  0
DICTIONARY
  5
1E3
330
155
100
AcDbDictionary
280
     1
281
     1
  3
ACAD_XREC_ROUNDTRIP
360
1E4
  0
DICTIONARY
  5
1E1
330
154
100
AcDbDictionary
280
     1
281
     1
  3
ACAD_XREC_ROUNDTRIP
360
1E2
  0
DICTIONARY
  5
1E5
330
156
100
AcDbDictionary
280
     1
281
     1
  3
ACAD_XREC_ROUNDTRIP
360
1E6
  0
DICTIONARY
  5
1DE
330
16A
100
AcDbDictionary
280
     1
281
     1
  3
ACAD_ROUNDTRIP_2008_TABLESTYLE_CELLSTYLEMAP
360
1DF
  3
ACAD_XREC_ROUNDTRIP
360
1E7
  0
XRECORD
  5
1E4
102
{ACAD_REACTORS
330
1E3
102
}
330
1E3
100
AcDbXrecord
280
     1
102
MATERIAL
148
0.0
149
0.0
149
0.0
 93
        0
 94
       63
282
     0
 72
     1
 77
     1
171
     1
175
     1
179
     1
273
     0
  0
XRECORD
  5
1E2
102
{ACAD_REACTORS
330
1E1
102
}
330
1E1
100
AcDbXrecord
280
     1
102
MATERIAL
148
0.0
149
0.0
149
0.0
 93
        0
 94
       63
282
     0
 72
     1
 77
     1
171
     1
175
     1
179
     1
273
     0
  0
XRECORD
  5
1E6
102
{ACAD_REACTORS
330
1E5
102
}
330
1E5
100
AcDbXrecord
280
     1
102
MATERIAL
148
0.0
149
0.0
149
0.0
 93
        0
 94
       63
282
     0
 72
     1
 77
     1
171
     1
175
     1
179
     1
273
     0
  0
CELLSTYLEMAP
  5
1DF
102
{ACAD_REACTORS
330
1DE
102
}
330
1DE
100
AcDbCellStyleMap
 90
        3
300
CELLSTYLE
  1
TABLEFORMAT_BEGIN
 90
        5
170
     1
 91
        0
 92
    32768
 62
   257
 93
        1
300
CONTENTFORMAT
  1
CONTENTFORMAT_BEGIN
 90
        0
 91
        0
 92
      512
 93
        0
300

 40
0.0
140
1.0
 94
        5
 62
     0
340
17
144
0.25
309
CONTENTFORMAT_END
171
     0
 94
        6
 95
        1
302
GRIDFORMAT
  1
GRIDFORMAT_BEGIN
 90
        0
 91
        1
 62
     0
 92
       -2
340
0
 93
        0
 40
0.045
309
GRIDFORMAT_END
 95
        2
302
GRIDFORMAT
  1
GRIDFORMAT_BEGIN
 90
        0
 91
        1
 62
     0
 92
       -2
340
0
 93
        0
 40
0.045
309
GRIDFORMAT_END
 95
        4
302
GRIDFORMAT
  1
GRIDFORMAT_BEGIN
 90
        0
 91
        1
 62
     0
 92
       -2
340
0
 93
        0
 40
0.045
309
GRIDFORMAT_END
 95
        8
302
GRIDFORMAT
  1
GRIDFORMAT_BEGIN
 90
        0
 91
        1
 62
     0
 92
       -2
340
0
 93
        0
 40
0.045
309
GRIDFORMAT_END
 95
       16
302
GRIDFORMAT
  1
GRIDFORMAT_BEGIN
 90
        0
 91
        1
 62
     0
 92
       -2
340
0
 93
        0
 40
0.045
309
GRIDFORMAT_END
 95
       32
302
GRIDFORMAT
  1
GRIDFORMAT_BEGIN
 90
        0
 91
        1
 62
     0
 92
       -2
340
0
 93
        0
 40
0.045
309
GRIDFORMAT_END
309
TABLEFORMAT_END
  1
CELLSTYLE_BEGIN
 90
        1
 91
        1
300
_TITLE
309
CELLSTYLE_END
300
CELLSTYLE
  1
TABLEFORMAT_BEGIN
 90
        5
170
     1
 91
        0
 92
        0
 62
   257
 93
        1
300
CONTENTFORMAT
  1
CONTENTFORMAT_BEGIN
 90
        0
 91
        0
 92
      512
 93
        0
300

 40
0.0
140
1.0
 94
        5
 62
     0
340
17
144
0.18
309
CONTENTFORMAT_END
171
     0
 94
        6
 95
        1
302
GRIDFORMAT
  1
GRIDFORMAT_BEGIN
 90
        0
 91
        1
 62
     0
 92
       -2
340
0
 93
        0
 40
0.045
309
GRIDFORMAT_END
 95
        2
302
GRIDFORMAT
  1
GRIDFORMAT_BEGIN
 90
        0
 91
        1
 62
     0
 92
       -2
340
0
 93
        0
 40
0.045
309
GRIDFORMAT_END
 95
        4
302
GRIDFORMAT
  1
GRIDFORMAT_BEGIN
 90
        0
 91
        1
 62
     0
 92
       -2
340
0
 93
        0
 40
0.045
309
GRIDFORMAT_END
 95
        8
302
GRIDFORMAT
  1
GRIDFORMAT_BEGIN
 90
        0
 91
        1
 62
     0
 92
       -2
340
0
 93
        0
 40
0.045
309
GRIDFORMAT_END
 95
       16
302
GRIDFORMAT
  1
GRIDFORMAT_BEGIN
 90
        0
 91
        1
 62
     0
 92
       -2
340
0
 93
        0
 40
0.045
309
GRIDFORMAT_END
 95
       32
302
GRIDFORMAT
  1
GRIDFORMAT_BEGIN
 90
        0
 91
        1
 62
     0
 92
       -2
340
0
 93
        0
 40
0.045
309
GRIDFORMAT_END
309
TABLEFORMAT_END
  1
CELLSTYLE_BEGIN
 90
        2
 91
        1
300
_HEADER
309
CELLSTYLE_END
300
CELLSTYLE
  1
TABLEFORMAT_BEGIN
 90
        5
170
     1
 91
        0
 92
        0
 62
   257
 93
        1
300
CONTENTFORMAT
  1
CONTENTFORMAT_BEGIN
 90
        0
 91
        0
 92
      512
 93
        0
300

 40
0.0
140
1.0
 94
        2
 62
     0
340
17
144
0.18
309
CONTENTFORMAT_END
171
     0
 94
        6
 95
        1
302
GRIDFORMAT
  1
GRIDFORMAT_BEGIN
 90
        0
 91
        1
 62
     0
 92
       -2
340
0
 93
        0
 40
0.045
309
GRIDFORMAT_END
 95
        2
302
GRIDFORMAT
  1
GRIDFORMAT_BEGIN
 90
        0
 91
        1
 62
     0
 92
       -2
340
0
 93
        0
 40
0.045
309
GRIDFORMAT_END
 95
        4
302
GRIDFORMAT
  1
GRIDFORMAT_BEGIN
 90
        0
 91
        1
 62
     0
 92
       -2
340
0
 93
        0
 40
0.045
309
GRIDFORMAT_END
 95
        8
302
GRIDFORMAT
  1
GRIDFORMAT_BEGIN
 90
        0
 91
        1
 62
     0
 92
       -2
340
0
 93
        0
 40
0.045
309
GRIDFORMAT_END
 95
       16
302
GRIDFORMAT
  1
GRIDFORMAT_BEGIN
 90
        0
 91
        1
 62
     0
 92
       -2
340
0
 93
        0
 40
0.045
309
GRIDFORMAT_END
 95
       32
302
GRIDFORMAT
  1
GRIDFORMAT_BEGIN
 90
        0
 91
        1
 62
     0
 92
       -2
340
0
 93
        0
 40
0.045
309
GRIDFORMAT_END
309
TABLEFORMAT_END
  1
CELLSTYLE_BEGIN
 90
        3
 91
        2
300
_DATA
309
CELLSTYLE_END
  0
XRECORD
  5
1E7
102
{ACAD_REACTORS
330
1DE
102
}
330
1DE
100
AcDbXrecord
280
     1
102
ACAD_ROUNDTRIP_PRE2007_TABLESTYLE
 90
      512
 91
        0
  1

 92
      512
 93
        0
  2

 94
      512
 95
        0
  3

  0
ENDSEC
  0
EOF
