  0
SECTION
  2
HEADER
  9
$ACADVER
  1
AC1018
  9
$ACADMAINTVER
 70
   104
  9
$DWGCODEPAGE
  3
ANSI_1252
  9
$LASTSAVEDBY
  1
EARL
  9
$INSBASE
 10
0.0
 20
0.0
 30
0.0
  9
$EXTMIN
 10
-1.466051328314153
 20
-0.261441988482221
 30
0.0
  9
$EXTMAX
 10
3.083316021704087
 20
0.6558111579767902
 30
0.0
  9
$LIMMIN
 10
0.0
 20
0.0
  9
$LIMMAX
 10
0.0
 20
0.0
  9
$ORTHOMODE
 70
     0
  9
$REGENMODE
 70
     1
  9
$FILLMODE
 70
     1
  9
$QTEXTMODE
 70
     0
  9
$MIRRTEXT
 70
     1
  9
$LTSCALE
 40
1.0
  9
$ATTMODE
 70
     1
  9
$TEXTSIZE
 40
0.0
  9
$TRACEWID
 40
0.05
  9
$TEXTSTYLE
  7
Standard
  9
$CLAYER
  8
0
  9
$CELTYPE
  6
Continuous
  9
$CECOLOR
 62
   256
  9
$CELTSCALE
 40
1.0
  9
$DISPSILH
 70
     0
  9
$DIMSCALE
 40
1.0
  9
$DIMASZ
 40
0.18
  9
$DIMEXO
 40
0.0625
  9
$DIMDLI
 40
0.38
  9
$DIMRND
 40
0.0
  9
$DIMDLE
 40
0.0
  9
$DIMEXE
 40
0.18
  9
$DIMTP
 40
0.0
  9
$DIMTM
 40
0.0
  9
$DIMTXT
 40
0.18
  9
$DIMCEN
 40
0.09
  9
$DIMTSZ
 40
0.0
  9
$DIMTOL
 70
     0
  9
$DIMLIM
 70
     0
  9
$DIMTIH
 70
     1
  9
$DIMTOH
 70
     1
  9
$DIMSE1
 70
     0
  9
$DIMSE2
 70
     0
  9
$DIMTAD
 70
     0
  9
$DIMZIN
 70
     0
  9
$DIMBLK
  1

  9
$DIMASO
 70
     1
  9
$DIMSHO
 70
     1
  9
$DIMPOST
  1

  9
$DIMAPOST
  1

  9
$DIMALT
 70
     0
  9
$DIMALTD
 70
     2
  9
$DIMALTF
 40
25.4
  9
$DIMLFAC
 40
1.0
  9
$DIMTOFL
 70
     0
  9
$DIMTVP
 40
0.0
  9
$DIMTIX
 70
     0
  9
$DIMSOXD
 70
     0
  9
$DIMSAH
 70
     0
  9
$DIMBLK1
  1

  9
$DIMBLK2
  1

  9
$DIMSTYLE
  2
Standard
  9
$DIMCLRD
 70
     0
  9
$DIMCLRE
 70
     0
  9
$DIMCLRT
 70
     0
  9
$DIMTFAC
 40
1.0
  9
$DIMGAP
 40
0.09
  9
$DIMJUST
 70
     0
  9
$DIMSD1
 70
     0
  9
$DIMSD2
 70
     0
  9
$DIMTOLJ
 70
     1
  9
$DIMTZIN
 70
     0
  9
$DIMALTZ
 70
     0
  9
$DIMALTTZ
 70
     0
  9
$DIMUPT
 70
     0
  9
$DIMDEC
 70
     4
  9
$DIMTDEC
 70
     4
  9
$DIMALTU
 70
     2
  9
$DIMALTTD
 70
     2
  9
$DIMTXSTY
  7
Standard
  9
$DIMAUNIT
 70
     0
  9
$DIMADEC
 70
     0
  9
$DIMALTRND
 40
0.0
  9
$DIMAZIN
 70
     0
  9
$DIMDSEP
 70
    46
  9
$DIMATFIT
 70
     0
  9
$DIMFRAC
 70
     0
  9
$DIMLDRBLK
  1

  9
$DIMLUNIT
 70
     2
  9
$DIMLWD
 70
    -2
  9
$DIMLWE
 70
    -2
  9
$DIMTMOVE
 70
     0
  9
$LUNITS
 70
     2
  9
$LUPREC
 70
     4
  9
$SKETCHINC
 40
0.1
  9
$FILLETRAD
 40
0.0
  9
$AUNITS
 70
     0
  9
$AUPREC
 70
     0
  9
$MENU
  1
acad
  9
$ELEVATION
 40
0.0
  9
$PELEVATION
 40
0.0
  9
$THICKNESS
 40
0.0
  9
$LIMCHECK
 70
     0
  9
$CHAMFERA
 40
0.0
  9
$CHAMFERB
 40
0.0
  9
$CHAMFERC
 40
0.0
  9
$CHAMFERD
 40
0.0
  9
$SKPOLY
 70
     0
  9
$TDCREATE
 40
2454831.479050926
  9
$TDUCREATE
 40
2454831.645717593
  9
$TDUPDATE
 40
2455105.048304930
  9
$TDUUPDATE
 40
2455105.214971597
  9
$TDINDWG
 40
0.0009175463
  9
$TDUSRTIMER
 40
0.0009175463
  9
$USRTIMER
 70
     1
  9
$ANGBASE
 50
0.0
  9
$ANGDIR
 70
     0
  9
$PDMODE
 70
     0
  9
$PDSIZE
 40
0.0
  9
$PLINEWID
 40
0.0
  9
$SPLFRAME
 70
     0
  9
$SPLINETYPE
 70
     6
  9
$SPLINESEGS
 70
     8
  9
$HANDSEED
  5
5E0
  9
$SURFTAB1
 70
     6
  9
$SURFTAB2
 70
     6
  9
$SURFTYPE
 70
     6
  9
$SURFU
 70
     6
  9
$SURFV
 70
     6
  9
$UCSBASE
  2

  9
$UCSNAME
  2

  9
$UCSORG
 10
0.0
 20
0.0
 30
0.0
  9
$UCSXDIR
 10
1.0
 20
0.0
 30
0.0
  9
$UCSYDIR
 10
0.0
 20
1.0
 30
0.0
  9
$UCSORTHOREF
  2

  9
$UCSORTHOVIEW
 70
     0
  9
$UCSORGTOP
 10
0.0
 20
0.0
 30
0.0
  9
$UCSORGBOTTOM
 10
0.0
 20
0.0
 30
0.0
  9
$UCSORGLEFT
 10
0.0
 20
0.0
 30
0.0
  9
$UCSORGRIGHT
 10
0.0
 20
0.0
 30
0.0
  9
$UCSORGFRONT
 10
0.0
 20
0.0
 30
0.0
  9
$UCSORGBACK
 10
0.0
 20
0.0
 30
0.0
  9
$PUCSBASE
  2

  9
$PUCSNAME
  2

  9
$PUCSORG
 10
0.0
 20
0.0
 30
0.0
  9
$PUCSXDIR
 10
1.0
 20
0.0
 30
0.0
  9
$PUCSYDIR
 10
0.0
 20
1.0
 30
0.0
  9
$PUCSORTHOREF
  2

  9
$PUCSORTHOVIEW
 70
     0
  9
$PUCSORGTOP
 10
0.0
 20
0.0
 30
0.0
  9
$PUCSORGBOTTOM
 10
0.0
 20
0.0
 30
0.0
  9
$PUCSORGLEFT
 10
0.0
 20
0.0
 30
0.0
  9
$PUCSORGRIGHT
 10
0.0
 20
0.0
 30
0.0
  9
$PUCSORGFRONT
 10
0.0
 20
0.0
 30
0.0
  9
$PUCSORGBACK
 10
0.0
 20
0.0
 30
0.0
  9
$USERI1
 70
     0
  9
$USERI2
 70
     0
  9
$USERI3
 70
     0
  9
$USERI4
 70
     0
  9
$USERI5
 70
     0
  9
$USERR1
 40
0.0
  9
$USERR2
 40
0.0
  9
$USERR3
 40
0.0
  9
$USERR4
 40
0.0
  9
$USERR5
 40
0.0
  9
$WORLDVIEW
 70
     1
  9
$SHADEDGE
 70
     3
  9
$SHADEDIF
 70
    70
  9
$TILEMODE
 70
     0
  9
$MAXACTVP
 70
    16
  9
$PINSBASE
 10
0.0
 20
0.0
 30
0.0
  9
$PLIMCHECK
 70
     0
  9
$PEXTMIN
 10
-0.143150438413393
 20
-0.0428332557722548
 30
-0.0015258207003583
  9
$PEXTMAX
 10
10.41132779721956
 20
7.980333184147099
 30
0.0000000349246037
  9
$PLIMMIN
 10
-0.3306119115190196
 20
-0.2812499079328949
  9
$PLIMMAX
 10
10.66938784818509
 20
8.218749851771214
  9
$UNITMODE
 70
     0
  9
$VISRETAIN
 70
     0
  9
$PLINEGEN
 70
     1
  9
$PSLTSCALE
 70
     0
  9
$TREEDEPTH
 70
  3020
  9
$CMLSTYLE
  2
Standard
  9
$CMLJUST
 70
     0
  9
$CMLSCALE
 40
1.0
  9
$PROXYGRAPHICS
 70
     0
  9
$MEASUREMENT
 70
     0
  9
$CELWEIGHT
370
     0
  9
$ENDCAPS
280
     0
  9
$JOINSTYLE
280
     0
  9
$LWDISPLAY
290
     0
  9
$INSUNITS
 70
     0
  9
$HYPERLINKBASE
  1

  9
$STYLESHEET
  1

  9
$XEDIT
290
     1
  9
$CEPSNTYPE
380
     0
  9
$PSTYLEMODE
290
     1
  9
$FINGERPRINTGUID
  2

  9
$VERSIONGUID
  2
{4923B887-68DE-4A66-9798-2F5B4B493E63}
  9
$EXTNAMES
290
     1
  9
$PSVPSCALE
 40
0.0
  9
$OLESTARTUP
290
     0
  9
$SORTENTS
280
   127
  9
$INDEXCTL
280
     0
  9
$HIDETEXT
280
     0
  9
$XCLIPFRAME
290
     0
  9
$HALOGAP
280
     0
  9
$OBSCOLOR
 70
   257
  9
$OBSLTYPE
280
     0
  9
$INTERSECTIONDISPLAY
280
     0
  9
$INTERSECTIONCOLOR
 70
   257
  9
$DIMASSOC
280
     1
  9
$PROJECTNAME
  1

  0
ENDSEC
  0
SECTION
  2
CLASSES
  0
CLASS
  1
IMAGE
  2
AcDbRasterImage
  3
ISM
 90
     2175
 91
        0
280
     0
281
     1
  0
CLASS
  1
DICTIONARYVAR
  2
AcDbDictionaryVar
  3
ObjectDBX Classes
 90
        0
 91
        5
280
     0
281
     0
  0
CLASS
  1
RASTERVARIABLES
  2
AcDbRasterVariables
  3
ISM
 90
        0
 91
        0
280
     0
281
     0
  0
CLASS
  1
IMAGEDEF
  2
AcDbRasterImageDef
  3
ISM
 90
        0
 91
        0
280
     0
281
     0
  0
CLASS
  1
IMAGEDEF_REACTOR
  2
AcDbRasterImageDefReactor
  3
ISM
 90
        1
 91
        0
280
     0
281
     0
  0
CLASS
  1
IDBUFFER
  2
AcDbIdBuffer
  3
ObjectDBX Classes
 90
        0
 91
        0
280
     0
281
     0
  0
CLASS
  1
SPATIAL_FILTER
  2
AcDbSpatialFilter
  3
ObjectDBX Classes
 90
        0
 91
        0
280
     0
281
     0
  0
CLASS
  1
SORTENTSTABLE
  2
AcDbSortentsTable
  3
ObjectDBX Classes
 90
        0
 91
        1
280
     0
281
     0
  0
CLASS
  1
LAYER_INDEX
  2
AcDbLayerIndex
  3
ObjectDBX Classes
 90
        0
 91
        0
280
     0
281
     0
  0
CLASS
  1
SPATIAL_INDEX
  2
AcDbSpatialIndex
  3
ObjectDBX Classes
 90
        0
 91
        0
280
     0
281
     0
  0
CLASS
  1
OBJECT_PTR
  2
CAseDLPNTableRecord
  3
"ASE-LPNTableRecord"
 90
        1
 91
        0
280
     0
281
     0
  0
CLASS
  1
PLOTSETTINGS
  2
AcDbPlotSettings
  3
ObjectDBX Classes
 90
        0
 91
        0
280
     0
281
     0
  0
CLASS
  1
ACDBDICTIONARYWDFLT
  2
AcDbDictionaryWithDefault
  3
ObjectDBX Classes
 90
        0
 91
        1
280
     0
281
     0
  0
CLASS
  1
WIPEOUT
  2
AcDbWipeout
  3
"WipeOut|Product Desc: Object Enabler for WipeOut entity                        |Company: Autodesk, Inc.                        |WEB Address: www.autodesk.com"
 90
     2175
 91
        0
280
     0
281
     1
  0
CLASS
  1
WIPEOUTVARIABLES
  2
AcDbWipeoutVariables
  3
"WipeOut|Product Desc:     WipeOut Dbx Application|Company:          Autodesk, Inc.|WEB Address:      www.autodesk.com"
 90
        0
 91
        1
280
     0
281
     0
  0
CLASS
  1
RTEXT
  2
RText
  3
RText|AutoCAD Express Tool|expresstools@autodesk.com
 90
        0
 91
        0
280
     0
281
     1
  0
CLASS
  1
ARCALIGNEDTEXT
  2
AcDbArcAlignedText
  3
ATEXT|AutoCAD Express Tool|expresstools@autodesk.com
 90
        0
 91
        0
280
     0
281
     1
  0
CLASS
  1
MATERIAL
  2
AcDbMaterial
  3
ObjectDBX Classes
 90
     1153
 91
        3
280
     0
281
     0
  0
CLASS
  1
VISUALSTYLE
  2
AcDbVisualStyle
  3
ObjectDBX Classes
 90
     4095
 91
       16
280
     0
281
     0
  0
CLASS
  1
TABLESTYLE
  2
AcDbTableStyle
  3
ObjectDBX Classes
 90
     4095
 91
        1
280
     0
281
     0
  0
CLASS
  1
SCALE
  2
AcDbScale
  3
ObjectDBX Classes
 90
     1153
 91
       33
280
     0
281
     0
  0
CLASS
  1
MLEADERSTYLE
  2
AcDbMLeaderStyle
  3
ACDB_MLEADERSTYLE_CLASS
 90
     4095
 91
        1
280
     0
281
     0
  0
CLASS
  1
CELLSTYLEMAP
  2
AcDbCellStyleMap
  3
ObjectDBX Classes
 90
     1152
 91
        2
280
     0
281
     0
  0
ENDSEC
  0
SECTION
  2
TABLES
  0
TABLE
  2
VPORT
  5
7
330
0
100
AcDbSymbolTable
 70
     1
  0
VPORT
  5
15
330
7
100
AcDbSymbolTableRecord
100
AcDbViewportTableRecord
  2
*ACTIVE
 70
     0
 10
0.0
 20
0.0
 11
1.0
 21
1.0
 12
13.28065635736906
 22
4.579183999999999
 13
0.0
 23
0.0
 14
1.0
 24
1.0
 15
0.0
 25
0.0
 16
0.0
 26
0.0
 36
1.0
 17
0.0
 27
0.0
 37
0.0
 40
9.158369
 41
2.149384885764499
 42
50.0
 43
0.0
 44
0.0
 50
0.0
 51
0.0
 71
     0
 72
   100
 73
     1
 74
     1
 75
     0
 76
     0
 77
     0
 78
     0
281
     0
 65
     0
110
0.0
120
0.0
130
0.0
111
1.0
121
0.0
131
0.0
112
0.0
122
1.0
132
0.0
 79
     0
146
0.0
  0
ENDTAB
  0
TABLE
  2
LTYPE
  5
4
330
0
100
AcDbSymbolTable
 70
     5
  0
LTYPE
  5
11
330
4
100
AcDbSymbolTableRecord
100
AcDbLinetypeTableRecord
  2
ByBlock
 70
     0
  3

 72
    65
 73
     0
 40
0.0
  0
LTYPE
  5
12
330
4
100
AcDbSymbolTableRecord
100
AcDbLinetypeTableRecord
  2
ByLayer
 70
     0
  3

 72
    65
 73
     0
 40
0.0
  0
LTYPE
  5
13
330
4
100
AcDbSymbolTableRecord
100
AcDbLinetypeTableRecord
  2
Continuous
 70
     0
  3
Solid line
 72
    65
 73
     0
 40
0.0
  0
LTYPE
  5
24
330
4
100
AcDbSymbolTableRecord
100
AcDbLinetypeTableRecord
  2
solid
 70
     0
  3

 72
    65
 73
     0
 40
0.0
  0
LTYPE
  5
25
330
4
100
AcDbSymbolTableRecord
100
AcDbLinetypeTableRecord
  2
dashed
 70
     0
  3

 72
    65
 73
     0
 40
0.0
  0
LTYPE
  5
26
330
4
100
AcDbSymbolTableRecord
100
AcDbLinetypeTableRecord
  2
center
 70
     0
  3

 72
    65
 73
     0
 40
0.0
  0
ENDTAB
  0
TABLE
  2
LAYER
  5
2
330
0
100
AcDbSymbolTable
 70
     3
  0
LAYER
  5
14
102
{ACAD_XDICTIONARY
360
5A2
102
}
330
2
100
AcDbSymbolTableRecord
100
AcDbLayerTableRecord
  2
0
 70
     0
 62
     7
  6
Continuous
370
    -3
390
1D
  0
LAYER
  5
27
102
{ACAD_XDICTIONARY
360
5A4
102
}
330
2
100
AcDbSymbolTableRecord
100
AcDbLayerTableRecord
  2
1
 70
     0
 62
     1
  6
solid
370
    -3
390
1D
  0
LAYER
  5
52E
102
{ACAD_XDICTIONARY
360
5A6
102
}
330
2
100
AcDbSymbolTableRecord
100
AcDbLayerTableRecord
  2
0
 70
     0
 62
     1
  6
solid
370
    -3
390
1D
  0
ENDTAB
  0
TABLE
  2
STYLE
  5
3
330
0
100
AcDbSymbolTable
 70
     2
  0
STYLE
  5
17
330
3
100
AcDbSymbolTableRecord
100
AcDbTextStyleTableRecord
  2
Standard
 70
     0
 40
0.0
 41
1.0
 50
0.0
 71
     0
 42
0.0
  3
txt
  4

  0
ENDTAB
  0
TABLE
  2
VIEW
  5
5
330
0
100
AcDbSymbolTable
 70
     0
  0
ENDTAB
  0
TABLE
  2
UCS
  5
6
330
0
100
AcDbSymbolTable
 70
     0
  0
ENDTAB
  0
TABLE
  2
APPID
  5
8
330
0
100
AcDbSymbolTable
 70
     4
  0
APPID
  5
16
330
8
100
AcDbSymbolTableRecord
100
AcDbRegAppTableRecord
  2
ACAD
 70
     0
  0
APPID
  5
571
330
8
100
AcDbSymbolTableRecord
100
AcDbRegAppTableRecord
  2
ACAD_PSEXT
 70
     0
  0
APPID
  5
59B
330
8
100
AcDbSymbolTableRecord
100
AcDbRegAppTableRecord
  2
ACAD_MLEADERVER
 70
     0
  0
APPID
  5
5C0
330
8
100
AcDbSymbolTableRecord
100
AcDbRegAppTableRecord
  2
ACAD_EXEMPT_FROM_CAD_STANDARDS
 70
     0
  0
ENDTAB
  0
TABLE
  2
DIMSTYLE
  5
9
330
0
100
AcDbSymbolTable
 70
     2
100
AcDbDimStyleTable
 71
     1
340
18
  0
DIMSTYLE
105
18
330
9
100
AcDbSymbolTableRecord
100
AcDbDimStyleTableRecord
  2
Standard
 70
     0
289
     0
340
17
  0
ENDTAB
  0
TABLE
  2
BLOCK_RECORD
  5
1
330
0
100
AcDbSymbolTable
 70
     3
  0
BLOCK_RECORD
  5
A
102
{ACAD_XDICTIONARY
360
5B7
102
}
330
1
100
AcDbSymbolTableRecord
100
AcDbBlockTableRecord
  2
*MODEL_SPACE
340
20
  0
BLOCK_RECORD
  5
B
330
1
100
AcDbSymbolTableRecord
100
AcDbBlockTableRecord
  2
*PAPER_SPACE
340
21
  0
BLOCK_RECORD
  5
53D
330
1
100
AcDbSymbolTableRecord
100
AcDbBlockTableRecord
  2
*D0
340
0
  0
BLOCK_RECORD
  5
548
330
1
100
AcDbSymbolTableRecord
100
AcDbBlockTableRecord
  2
*D1
340
0
  0
ENDTAB
  0
ENDSEC
  0
SECTION
  2
BLOCKS
  0
BLOCK
  5
D
330
A
100
AcDbEntity
  8
0
100
AcDbBlockBegin
  2
*MODEL_SPACE
 70
     0
 10
0.0
 20
0.0
 30
0.0
  3
*MODEL_SPACE
  1

  0
ENDBLK
  5
E
330
A
100
AcDbEntity
  8
0
100
AcDbBlockEnd
  0
BLOCK
  5
F
330
B
100
AcDbEntity
 67
     1
  8
0
100
AcDbBlockBegin
  2
*PAPER_SPACE
 70
     0
 10
0.0
 20
0.0
 30
0.0
  3
*PAPER_SPACE
  1

  0
ENDBLK
  5
10
330
B
100
AcDbEntity
 67
     1
  8
0
100
AcDbBlockEnd
  0
BLOCK
  5
53E
330
53D
100
AcDbEntity
  8
0
  6
solid
 62
     7
100
AcDbBlockBegin
  2
*D0
 70
     0
 10
0.0
 20
0.0
 30
0.0
  3
*D0
  1

  0
LINE
  5
53F
330
53D
100
AcDbEntity
  8
0
  6
solid
 62
     7
100
AcDbLine
 10
-1.084247171878814
 20
0.1237250939011575
 30
0.0
 11
-1.32021799498082
 21
0.1237250939011576
 31
0.0
  0
LINE
  5
540
330
53D
100
AcDbEntity
  8
0
  6
solid
 62
     7
100
AcDbLine
 10
-1.031507551670074
 20
0.6558044552803041
 30
0.0
 11
-1.32021799498082
 21
0.6558044552803042
 31
0.0
  0
LINE
  5
541
330
53D
100
AcDbEntity
  8
0
  6
solid
 62
     7
100
AcDbLine
 10
-1.25771799498082
 20
0.1237250939011576
 30
0.0
 11
-1.25771799498082
 21
0.2598585245907308
 31
0.0
  0
LINE
  5
542
330
53D
100
AcDbEntity
  8
0
  6
solid
 62
     7
100
AcDbLine
 10
-1.25771799498082
 20
0.6558044552803042
 30
0.0
 11
-1.25771799498082
 21
0.519671024590731
 31
0.0
  0
MTEXT
  5
543
330
53D
100
AcDbEntity
  8
0
  6
solid
 62
     7
100
AcDbMText
 10
-1.25771799498082
 20
0.3897647745907309
 30
0.0
 40
0.125
 41
0.0
 71
     5
 72
     1
  1
{\H0.125000;9/16}
 73
     1
 44
1.0
  0
SOLID
  5
544
330
53D
100
AcDbEntity
  8
0
  6
solid
 62
     7
100
AcDbTrace
 10
-1.27853299498082
 20
0.2487250939011576
 30
0.0
 11
-1.23690299498082
 21
0.2487250939011576
 31
0.0
 12
-1.25771799498082
 22
0.1237250939011576
 32
0.0
 13
-1.25771799498082
 23
0.1237250939011576
 33
0.0
  0
SOLID
  5
545
330
53D
100
AcDbEntity
  8
0
  6
solid
 62
     7
100
AcDbTrace
 10
-1.23690299498082
 20
0.5308044552803042
 30
0.0
 11
-1.27853299498082
 21
0.5308044552803042
 31
0.0
 12
-1.25771799498082
 22
0.6558044552803042
 32
0.0
 13
-1.25771799498082
 23
0.6558044552803042
 33
0.0
  0
ENDBLK
  5
546
330
53D
100
AcDbEntity
  8
0
  6
solid
 62
     7
100
AcDbBlockEnd
  0
BLOCK
  5
549
330
548
100
AcDbEntity
  8
0
  6
solid
 62
     7
100
AcDbBlockBegin
  2
*D1
 70
     0
 10
0.0
 20
0.0
 30
0.0
  3
*D1
  1

  0
LINE
  5
54A
330
548
100
AcDbEntity
  8
0
  6
solid
 62
     7
100
AcDbLine
 10
-0.9542471766471862
 20
-0.006983570754528
 30
0.0
 11
-0.9542471766471862
 21
-0.2614419884822209
 31
0.0
  0
LINE
  5
54B
330
548
100
AcDbEntity
  8
0
  6
solid
 62
     7
100
AcDbLine
 10
-0.4528298079967499
 20
0.3419140875339508
 30
0.0
 11
-0.4528298079967499
 21
-0.2614419884822209
 31
0.0
  0
LINE
  5
54C
330
548
100
AcDbEntity
  8
0
  6
solid
 62
     7
100
AcDbLine
 10
-0.9542471766471862
 20
-0.1989419884822209
 30
0.0
 11
-0.9238096461681218
 21
-0.1989419884822209
 31
0.0
  0
LINE
  5
54D
330
548
100
AcDbEntity
  8
0
  6
solid
 62
     7
100
AcDbLine
 10
-0.4528298079967499
 20
-0.1989419884822209
 30
0.0
 11
-0.4832673384758143
 21
-0.1989419884822209
 31
0.0
  0
MTEXT
  5
54E
330
548
100
AcDbEntity
  8
0
  6
solid
 62
     7
100
AcDbMText
 10
-0.7035384923219681
 20
-0.1989419884822209
 30
0.0
 40
0.125
 41
0.0
 71
     5
 72
     1
  1
{\H0.125000;1/2}
 73
     1
 44
1.0
  0
SOLID
  5
54F
330
548
100
AcDbEntity
  8
0
  6
solid
 62
     7
100
AcDbTrace
 10
-0.8292471766471862
 20
-0.178126988482221
 30
0.0
 11
-0.8292471766471862
 21
-0.219756988482221
 31
0.0
 12
-0.9542471766471862
 22
-0.1989419884822209
 32
0.0
 13
-0.9542471766471862
 23
-0.1989419884822209
 33
0.0
  0
SOLID
  5
550
330
548
100
AcDbEntity
  8
0
  6
solid
 62
     7
100
AcDbTrace
 10
-0.5778298079967499
 20
-0.2197569884822207
 30
0.0
 11
-0.5778298079967499
 21
-0.1781269884822207
 31
0.0
 12
-0.4528298079967499
 22
-0.1989419884822209
 32
0.0
 13
-0.4528298079967499
 23
-0.1989419884822209
 33
0.0
  0
ENDBLK
  5
551
330
548
100
AcDbEntity
  8
0
  6
solid
 62
     7
100
AcDbBlockEnd
  0
ENDSEC
  0
SECTION
  2
ENTITIES
  0
LINE
  5
28
330
A
100
AcDbEntity
  8
1
  6
solid
 62
     7
100
AcDbLine
 10
0.1723228543996811
 20
0.6465748548507691
 30
0.0
 11
0.6701180934906006
 21
0.6462992429733277
 31
0.0
  0
ARC
  5
29
330
A
100
AcDbEntity
  8
1
  6
solid
 62
     7
100
AcDbCircle
 10
0.6754636247009668
 20
0.60340650365155
 30
0.0
 40
0.0432245507836342
100
AcDbArc
 50
69.51505282503224
 51
97.10389101491166
  0
ARC
  5
2A
330
A
100
AcDbEntity
  8
1
  6
solid
 62
     7
100
AcDbCircle
 10
0.705060806239244
 20
0.6133846751751311
 30
0.0
 40
0.0337703041732311
100
AcDbArc
 50
77.37671667293281
 51
115.3717851954335
  0
ARC
  5
2B
330
A
100
AcDbEntity
  8
1
  6
solid
 62
     7
100
AcDbCircle
 10
0.7187052606170721
 20
0.6641577831980459
 30
0.0
 40
0.0188881754875183
100
AcDbArc
 50
250.6309502349232
 51
287.0774509480419
  0
ARC
  5
2C
330
A
100
AcDbEntity
  8
1
  6
solid
 62
     7
100
AcDbCircle
 10
0.7300640563464766
 20
0.6675715892784931
 30
0.0
 40
0.0222419500350952
100
AcDbArc
 50
254.8522803495579
 51
289.2626197088258
  0
ARC
  5
2D
330
A
100
AcDbEntity
  8
1
  6
solid
 62
     7
100
AcDbCircle
 10
0.7453314329917746
 20
0.6717056732346655
 30
0.0
 40
0.0263522155582905
100
AcDbArc
 50
252.487450292846
 51
282.5623680575834
  0
ARC
  5
2E
330
A
100
AcDbEntity
  8
1
  6
solid
 62
     7
100
AcDbCircle
 10
0.760242579610223
 20
0.6600883081667252
 30
0.0
 40
0.0168281625956297
100
AcDbArc
 50
236.9421036664371
 51
298.3299929452466
  0
LINE
  5
2F
330
A
100
AcDbEntity
  8
1
  6
solid
 62
     7
100
AcDbLine
 10
0.7682283520698548
 20
0.6452756524085999
 30
0.0
 11
0.7712598443031311
 21
0.6442520022392273
 31
0.0
  0
ARC
  5
30
330
A
100
AcDbEntity
  8
1
  6
solid
 62
     7
100
AcDbCircle
 10
0.8982868575811979
 20
5.336961513052424
 30
0.0
 40
4.694428443908691
100
AcDbArc
 50
268.4494384586257
 51
270.3827471954165
  0
ARC
  5
31
330
A
100
AcDbEntity
  8
1
  6
solid
 62
     7
100
AcDbCircle
 10
0.9315398497496223
 20
0.5639652159085566
 30
0.0
 40
0.0786953717470169
100
AcDbArc
 50
80.47148221605477
 51
91.37919528282216
  0
LINE
  5
32
330
A
100
AcDbEntity
  8
1
  6
solid
 62
     7
100
AcDbLine
 10
0.9445669651031494
 20
0.6415748596191407
 30
0.0
 11
0.9482284188270568
 21
0.6399213075637818
 31
0.0
  0
ARC
  5
33
330
A
100
AcDbEntity
  8
1
  6
solid
 62
     7
100
AcDbCircle
 10
0.9537621323898832
 20
0.6336118130036056
 30
0.0
 40
0.0083923600614071
100
AcDbArc
 50
60.35289705349916
 51
131.2522345629016
  0
ARC
  5
34
330
A
100
AcDbEntity
  8
1
  6
solid
 62
     7
100
AcDbCircle
 10
1.073218121165106
 20
4.561657882010148
 30
0.0
 40
3.922447443008422
100
AcDbArc
 50
268.3154847886235
 51
270.4487268227989
  0
ARC
  5
35
330
A
100
AcDbEntity
  8
1
  6
solid
 62
     7
100
AcDbCircle
 10
1.108513014967019
 20
0.6088061435471298
 30
0.0
 40
0.0308656916022301
100
AcDbArc
 50
67.12374895509743
 51
98.52579979632492
  0
ARC
  5
36
330
A
100
AcDbEntity
  8
1
  6
solid
 62
     7
100
AcDbCircle
 10
1.13074879420031
 20
0.6190123135661963
 30
0.0
 40
0.0209091994911432
100
AcDbArc
 50
70.64862517063341
 51
119.3135420069612
  0
ARC
  5
37
330
A
100
AcDbEntity
  8
1
  6
solid
 62
     7
100
AcDbCircle
 10
1.139769193591387
 20
0.6301728067663777
 30
0.0
 40
0.0088190920650959
100
AcDbArc
 50
57.34665417711516
 51
103.7220916036547
  0
LINE
  5
38
330
A
100
AcDbEntity
  8
1
  6
solid
 62
     7
100
AcDbLine
 10
1.144527673721313
 20
0.6375985145568848
 30
0.0
 11
1.174055218696594
 21
0.6366536021232605
 31
0.0
  0
LINE
  5
39
330
A
100
AcDbEntity
  8
1
  6
solid
 62
     7
100
AcDbLine
 10
1.174055218696594
 20
0.6366536021232605
 30
0.0
 11
1.327677369117736
 21
0.6361024379730225
 31
0.0
  0
LINE
  5
3A
330
A
100
AcDbEntity
  8
1
  6
solid
 62
     7
100
AcDbLine
 10
1.327677369117736
 20
0.6361024379730225
 30
0.0
 11
1.343976497650146
 21
0.6332677602767945
 31
0.0
  0
LINE
  5
3B
330
A
100
AcDbEntity
  8
1
  6
solid
 62
     7
100
AcDbLine
 10
1.343976497650146
 20
0.6332677602767945
 30
0.0
 11
1.349015951156616
 21
0.6337795853614808
 31
0.0
  0
ARC
  5
3C
330
A
100
AcDbEntity
  8
1
  6
solid
 62
     7
100
AcDbCircle
 10
1.357303457651365
 20
0.6193310069142333
 30
0.0
 40
0.016656655818224
100
AcDbArc
 50
88.84944006331659
 51
119.8379912521915
  0
LINE
  5
3D
330
A
100
AcDbEntity
  8
1
  6
solid
 62
     7
100
AcDbLine
 10
1.357637882232666
 20
0.6359843015670777
 30
0.0
 11
1.36133873462677
 21
0.6340945363044739
 31
0.0
  0
ARC
  5
3E
330
A
100
AcDbEntity
  8
1
  6
solid
 62
     7
100
AcDbCircle
 10
1.551266449488974
 20
12.57741823239076
 30
0.0
 40
11.94483375549316
100
AcDbArc
 50
269.0889354102357
 51
270.1712572179562
  0
ARC
  5
3F
330
A
100
AcDbEntity
  8
1
  6
solid
 62
     7
100
AcDbCircle
 10
1.590952309818693
 20
0.5086147095933978
 30
0.0
 40
0.1240870505571365
100
AcDbArc
 50
82.27217279826941
 51
91.83972078761028
  0
ARC
  5
40
330
A
100
AcDbEntity
  8
1
  6
solid
 62
     7
100
AcDbCircle
 10
1.610942670173406
 20
0.6373747267608123
 30
0.0
 40
0.0066753183491528
100
AcDbArc
 50
240.3264350794217
 51
305.334406580608
  0
ARC
  5
41
330
A
100
AcDbEntity
  8
1
  6
solid
 62
     7
100
AcDbCircle
 10
1.619582198017583
 20
0.6396463379790806
 30
0.0
 40
0.0090770358219743
100
AcDbArc
 50
238.232025872329
 51
303.6085817018859
  0
ARC
  5
42
330
A
100
AcDbEntity
  8
1
  6
solid
 62
     7
100
AcDbCircle
 10
1.628103396528261
 20
0.6195515238038673
 30
0.0
 40
0.0130137372761965
100
AcDbArc
 50
60.6178298461202
 51
105.587450416931
  0
ARC
  5
43
330
A
100
AcDbEntity
  8
1
  6
solid
 62
     7
100
AcDbCircle
 10
1.726358514468432
 20
3.116522101745628
 30
0.0
 40
2.487313747406005
100
AcDbArc
 50
267.883270417945
 51
270.7967386213893
  0
ARC
  5
44
330
A
100
AcDbEntity
  8
1
  6
solid
 62
     7
100
AcDbCircle
 10
1.758125839713615
 20
0.5999192660484887
 30
0.0
 40
0.0296638868749142
100
AcDbArc
 50
66.90023101450876
 51
84.54663603716742
  0
ARC
  5
45
330
A
100
AcDbEntity
  8
1
  6
solid
 62
     7
100
AcDbCircle
 10
1.769301978702844
 20
0.6349957321143009
 30
0.0
 40
0.0078046405687928
100
AcDbArc
 50
273.3934025874477
 51
310.8769172618712
  0
ARC
  5
46
330
A
100
AcDbEntity
  8
1
  6
solid
 62
     7
100
AcDbCircle
 10
1.777183117115266
 20
0.6185110093589057
 30
0.0
 40
0.0109408982098103
100
AcDbArc
 50
67.00732838069455
 51
104.6844379369528
  0
ARC
  5
47
330
A
100
AcDbEntity
  8
1
  6
solid
 62
     7
100
AcDbCircle
 10
1.787193922685456
 20
0.618667693878472
 30
0.0
 40
0.0114552732557058
100
AcDbArc
 50
49.67787145628117
 51
120.0553278715813
  0
ARC
  5
48
330
A
100
AcDbEntity
  8
1
  6
solid
 62
     7
100
AcDbCircle
 10
1.928793159600412
 20
6.760970404350874
 30
0.0
 40
6.135036468505859
100
AcDbArc
 50
268.7467156120614
 51
270.4245752738937
  0
ARC
  5
49
330
A
100
AcDbEntity
  8
1
  6
solid
 62
     7
100
AcDbCircle
 10
1.982212814892655
 20
0.6676297588351047
 30
0.0
 40
0.0422835126519203
100
AcDbArc
 50
259.1481688091724
 51
273.672767569785
  0
LINE
  5
4A
330
A
100
AcDbEntity
  8
1
  6
solid
 62
     7
100
AcDbLine
 10
1.9849214553833
 20
0.625433087348938
 30
0.0
 11
1.987756013870239
 21
0.6242520213127137
 31
0.0
  0
ARC
  5
4B
330
A
100
AcDbEntity
  8
1
  6
solid
 62
     7
100
AcDbCircle
 10
2.158731663674366
 20
9.101552910332767
 30
0.0
 40
8.47902488708496
100
AcDbArc
 50
268.8445785624893
 51
270.4201493113115
  0
ARC
  5
4C
330
A
100
AcDbEntity
  8
1
  6
solid
 62
     7
100
AcDbCircle
 10
2.216078687772206
 20
0.5841608201013547
 30
0.0
 40
0.0388958156108856
100
AcDbArc
 50
66.83718153828038
 51
82.87103353941239
  0
ARC
  5
4D
330
A
100
AcDbEntity
  8
1
  6
solid
 62
     7
100
AcDbCircle
 10
2.236957598373357
 20
0.6134603479248478
 30
0.0
 40
0.0085366573184729
100
AcDbArc
 50
61.25329357102526
 51
130.8132309841882
  0
ARC
  5
4E
330
A
100
AcDbEntity
  8
1
  6
solid
 62
     7
100
AcDbCircle
 10
2.324338822775565
 20
2.306397370577233
 30
0.0
 40
1.687508463859558
100
AcDbArc
 50
267.1714007818896
 51
271.3111882562313
  0
ARC
  5
4F
330
A
100
AcDbEntity
  8
1
  6
solid
 62
     7
100
AcDbCircle
 10
2.365620683456385
 20
0.5790110261190311
 30
0.0
 40
0.0404078960418701
100
AcDbArc
 50
68.37514889407048
 51
93.78542994628263
  0
LINE
  5
50
330
A
100
AcDbEntity
  8
1
  6
solid
 62
     7
100
AcDbLine
 10
2.380511999130249
 20
0.6165748834609986
 30
0.0
 11
2.388031721115112
 21
0.6185827255249024
 31
0.0
  0
LINE
  5
51
330
A
100
AcDbEntity
  8
1
  6
solid
 62
     7
100
AcDbLine
 10
2.388031721115112
 20
0.6185827255249024
 30
0.0
 11
2.391023635864257
 21
0.6175984740257264
 31
0.0
  0
ARC
  5
52
330
A
100
AcDbEntity
  8
1
  6
solid
 62
     7
100
AcDbCircle
 10
2.500178911878666
 20
3.476792729108277
 30
0.0
 40
2.861277103424072
100
AcDbArc
 50
267.8136844506809
 51
271.0371066386604
  0
ARC
  5
53
330
A
100
AcDbEntity
  8
1
  6
solid
 62
     7
100
AcDbCircle
 10
2.554276915010063
 20
0.5417206131807873
 30
0.0
 40
0.0742995738983154
100
AcDbArc
 50
80.13372253140847
 51
91.78035278334453
  0
LINE
  5
54
330
A
100
AcDbEntity
  8
1
  6
solid
 62
     7
100
AcDbLine
 10
2.567008018493652
 20
0.6149212718009949
 30
0.0
 11
2.610984325408935
 21
0.6133858561515808
 31
0.0
  0
LINE
  5
55
330
A
100
AcDbEntity
  8
1
  6
solid
 62
     7
100
AcDbLine
 10
2.610984325408935
 20
0.6133858561515808
 30
0.0
 11
2.814645767211914
 21
0.6126378178596497
 31
0.0
  0
LINE
  5
56
330
A
100
AcDbEntity
  8
1
  6
solid
 62
     7
100
AcDbLine
 10
2.814645767211914
 20
0.6126378178596497
 30
0.0
 11
2.831338644027709
 21
0.6122047901153565
 31
0.0
  0
LINE
  5
57
330
A
100
AcDbEntity
  8
1
  6
solid
 62
     7
100
AcDbLine
 10
2.831338644027709
 20
0.6122047901153565
 30
0.0
 11
2.837480545043945
 21
0.6115748286247254
 31
0.0
  0
LINE
  5
58
330
A
100
AcDbEntity
  8
1
  6
solid
 62
     7
100
AcDbLine
 10
2.837480545043945
 20
0.6115748286247254
 30
0.0
 11
2.840433120727539
 21
0.6107087135314942
 31
0.0
  0
ARC
  5
59
330
A
100
AcDbEntity
  8
1
  6
solid
 62
     7
100
AcDbCircle
 10
2.848080539134349
 20
0.5958781395119962
 30
0.0
 40
0.0166861899197102
100
AcDbArc
 50
81.0744035046593
 51
117.2779953701357
  0
ARC
  5
5A
330
A
100
AcDbEntity
  8
1
  6
solid
 62
     7
100
AcDbCircle
 10
2.861248947767024
 20
0.5674328621174399
 30
0.0
 40
0.0461581349372864
100
AcDbArc
 50
67.88984346297356
 51
103.2498250036834
  0
ARC
  5
5B
330
A
100
AcDbEntity
  8
1
  6
solid
 62
     7
100
AcDbCircle
 10
2.882168157540218
 20
0.6315014467126145
 30
0.0
 40
0.0215976238250733
100
AcDbArc
 50
260.5504886080461
 51
295.0108249520384
  0
ARC
  5
5C
330
A
100
AcDbEntity
  8
1
  6
solid
 62
     7
100
AcDbCircle
 10
2.887503712759671
 20
0.5873237404287907
 30
0.0
 40
0.0248964950442314
100
AcDbArc
 50
65.18383179684123
 51
81.2303606290728
  0
ARC
  5
5D
330
A
100
AcDbEntity
  8
1
  6
solid
 62
     7
100
AcDbCircle
 10
2.90353216471867
 20
0.6034608085469662
 30
0.0
 40
0.0085362177342176
100
AcDbArc
 50
61.25052051422223
 51
130.8144467578605
  0
LINE
  5
5E
330
A
100
AcDbEntity
  8
1
  6
solid
 62
     7
100
AcDbLine
 10
2.907638072967529
 20
0.6109449267387391
 30
0.0
 11
2.92755913734436
 21
0.6100000143051148
 31
0.0
  0
LINE
  5
5F
330
A
100
AcDbEntity
  8
1
  6
solid
 62
     7
100
AcDbLine
 10
2.92755913734436
 20
0.6100000143051148
 30
0.0
 11
3.027480363845825
 21
0.6094882488250733
 31
0.0
  0
LINE
  5
60
330
A
100
AcDbEntity
  8
1
  6
solid
 62
     7
100
AcDbLine
 10
3.027480363845825
 20
0.6094882488250733
 30
0.0
 11
3.035079002380371
 21
0.6092519760131836
 31
0.0
  0
LINE
  5
61
330
A
100
AcDbEntity
  8
1
  6
solid
 62
     7
100
AcDbLine
 10
3.035079002380371
 20
0.6092519760131836
 30
0.0
 11
3.040669441223144
 21
0.6099212765693665
 31
0.0
  0
LINE
  5
62
330
A
100
AcDbEntity
  8
1
  6
solid
 62
     7
100
AcDbLine
 10
3.040669441223144
 20
0.6099212765693665
 30
0.0
 11
3.045039415359497
 21
0.608858346939087
 31
0.0
  0
LINE
  5
63
330
A
100
AcDbEntity
  8
1
  6
solid
 62
     7
100
AcDbLine
 10
3.045039415359497
 20
0.608858346939087
 30
0.0
 11
3.04874038696289
 21
0.6041732430458069
 31
0.0
  0
LINE
  5
64
330
A
100
AcDbEntity
  8
1
  6
solid
 62
     7
100
AcDbLine
 10
3.04874038696289
 20
0.6041732430458069
 30
0.0
 11
3.05834674835205
 21
0.6020079255104065
 31
0.0
  0
LINE
  5
65
330
A
100
AcDbEntity
  8
1
  6
solid
 62
     7
100
AcDbLine
 10
3.05834674835205
 20
0.6020079255104065
 30
0.0
 11
3.059606552124023
 21
0.5985039472579956
 31
0.0
  0
LINE
  5
66
330
A
100
AcDbEntity
  8
1
  6
solid
 62
     7
100
AcDbLine
 10
3.059606552124023
 20
0.5985039472579956
 30
0.0
 11
3.05905532836914
 21
0.5952362418174744
 31
0.0
  0
ARC
  5
67
330
A
100
AcDbEntity
  8
1
  6
solid
 62
     7
100
AcDbCircle
 10
3.084224220414697
 20
0.5830349129818875
 30
0.0
 40
0.0279704406857491
100
AcDbArc
 50
154.1369063204344
 51
194.0176261482356
  0
ARC
  5
68
330
A
100
AcDbEntity
  8
1
  6
solid
 62
     7
100
AcDbCircle
 10
3.122375701982114
 20
0.5842550372625834
 30
0.0
 40
0.0657767057418823
100
AcDbArc
 50
186.9815375105982
 51
203.5701374761187
  0
ARC
  5
69
330
A
100
AcDbEntity
  8
1
  6
solid
 62
     7
100
AcDbCircle
 10
3.104578403524639
 20
0.5610530776101782
 30
0.0
 40
0.0426047705113888
100
AcDbArc
 50
184.1729773842673
 51
212.8334176134084
  0
ARC
  5
6A
330
A
100
AcDbEntity
  8
1
  6
solid
 62
     7
100
AcDbCircle
 10
3.100631830677088
 20
0.538958687915085
 30
0.0
 40
0.0318680033087731
100
AcDbArc
 50
181.8088303464724
 51
215.3698766635843
  0
ARC
  5
6B
330
A
100
AcDbEntity
  8
1
  6
solid
 62
     7
100
AcDbCircle
 10
3.132273217459975
 20
0.5325208358510303
 30
0.0
 40
0.0588654354214668
100
AcDbArc
 50
191.7713852509881
 51
204.6679674417932
  0
ARC
  5
6C
330
A
100
AcDbEntity
  8
1
  6
solid
 62
     7
100
AcDbCircle
 10
3.107621814466316
 20
0.5082157213536512
 30
0.0
 40
0.0288433153182268
100
AcDbArc
 50
180.5222685936522
 51
207.7112948302757
  0
ARC
  5
6D
330
A
100
AcDbEntity
  8
1
  6
solid
 62
     7
100
AcDbCircle
 10
3.022117954784045
 20
0.4825990591750604
 30
0.0
 40
0.0611980669200421
100
AcDbArc
 50
346.4567833099023
 51
371.5030562604878
  0
ARC
  5
6E
330
A
100
AcDbEntity
  8
1
  6
solid
 62
     7
100
AcDbCircle
 10
3.063259553658276
 20
0.4621762311618338
 30
0.0
 40
0.0193391293287277
100
AcDbArc
 50
328.1412485599196
 51
378.3599139041148
  0
LINE
  5
6F
330
A
100
AcDbEntity
  8
1
  6
solid
 62
     7
100
AcDbLine
 10
3.079685449600219
 20
0.4519685208797455
 30
0.0
 11
3.078779697418212
 21
0.4477559328079224
 31
0.0
  0
ARC
  5
70
330
A
100
AcDbEntity
  8
1
  6
solid
 62
     7
100
AcDbCircle
 10
3.018061434422134
 20
0.4695482720214672
 30
0.0
 40
0.0645105689764023
100
AcDbArc
 50
319.2992303576031
 51
340.2564739577771
  0
LINE
  5
71
330
A
100
AcDbEntity
  8
1
  6
solid
 62
     7
100
AcDbLine
 10
3.0669686794281
 20
0.4274803400039673
 30
0.0
 11
3.053189039230346
 21
0.3994882106781006
 31
0.0
  0
LINE
  5
72
330
A
100
AcDbEntity
  8
1
  6
solid
 62
     7
100
AcDbLine
 10
3.053189039230346
 20
0.3994882106781006
 30
0.0
 11
3.052126169204711
 21
0.3944488167762756
 31
0.0
  0
ARC
  5
73
330
A
100
AcDbEntity
  8
1
  6
solid
 62
     7
100
AcDbCircle
 10
3.071459176869995
 20
0.3828867927233309
 30
0.0
 40
0.022526552900672
100
AcDbArc
 50
149.118643393821
 51
174.0131085599138
  0
ARC
  5
74
330
A
100
AcDbEntity
  8
1
  6
solid
 62
     7
100
AcDbCircle
 10
3.091024217205291
 20
0.3675145583132878
 30
0.0
 40
0.0455570593476296
100
AcDbArc
 50
157.1076970999314
 51
188.6417345166803
  0
ARC
  5
75
330
A
100
AcDbEntity
  8
1
  6
solid
 62
     7
100
AcDbCircle
 10
3.100686667745025
 20
0.3402644786825054
 30
0.0
 40
0.05838393419981
100
AcDbArc
 50
159.5436294259031
 51
186.1439753183416
  0
ARC
  5
76
330
A
100
AcDbEntity
  8
1
  6
solid
 62
     7
100
AcDbCircle
 10
3.120805414740888
 20
0.306879986406828
 30
0.0
 40
0.082743488252163
100
AcDbArc
 50
160.8555721616792
 51
172.447151088905
  0
LINE
  5
77
330
A
100
AcDbEntity
  8
1
  6
solid
 62
     7
100
AcDbLine
 10
3.038779735565185
 20
0.3177559077739716
 30
0.0
 11
3.028661489486694
 21
0.2974803149700165
 31
0.0
  0
LINE
  5
78
330
A
100
AcDbEntity
  8
1
  6
solid
 62
     7
100
AcDbLine
 10
3.028661489486694
 20
0.2974803149700165
 30
0.0
 11
3.024055242538452
 21
0.291496068239212
 31
0.0
  0
LINE
  5
79
330
A
100
AcDbEntity
  8
1
  6
solid
 62
     7
100
AcDbLine
 10
3.024055242538452
 20
0.291496068239212
 30
0.0
 11
3.021771907806396
 21
0.2872441112995148
 31
0.0
  0
ARC
  5
7A
330
A
100
AcDbEntity
  8
1
  6
solid
 62
     7
100
AcDbCircle
 10
2.86530110475137
 20
0.4130960613987362
 30
0.0
 40
0.2008029520511627
100
AcDbArc
 50
315.2201325291316
 51
321.1897276821197
  0
ARC
  5
7B
330
A
100
AcDbEntity
  8
1
  6
solid
 62
     7
100
AcDbCircle
 10
2.952275562193812
 20
0.302217526332875
 30
0.0
 40
0.0634111240506172
100
AcDbArc
 50
319.2518015240065
 51
331.1840976077892
  0
ARC
  5
7C
330
A
100
AcDbEntity
  8
1
  6
solid
 62
     7
100
AcDbCircle
 10
3.028094359210705
 20
0.2442239476613625
 30
0.0
 40
0.0323627889156342
100
AcDbArc
 50
149.1346123761005
 51
181.832896518013
  0
LINE
  5
7D
330
A
100
AcDbEntity
  8
1
  6
solid
 62
     7
100
AcDbLine
 10
2.995748281478881
 20
0.2431890070438385
 30
0.0
 11
2.992953062057495
 21
0.2324803322553635
 31
0.0
  0
LINE
  5
7E
330
A
100
AcDbEntity
  8
1
  6
solid
 62
     7
100
AcDbLine
 10
2.992953062057495
 20
0.2324803322553635
 30
0.0
 11
2.993464708328247
 21
0.2295275777578354
 31
0.0
  0
ARC
  5
7F
330
A
100
AcDbEntity
  8
1
  6
solid
 62
     7
100
AcDbCircle
 10
2.960771549964523
 20
0.2135061883471267
 30
0.0
 40
0.036407794803381
100
AcDbArc
 50
3.095660297903219
 51
26.10731551739029
  0
ARC
  5
80
330
A
100
AcDbEntity
  8
1
  6
solid
 62
     7
100
AcDbCircle
 10
2.975749317821117
 20
0.2028560852965039
 30
0.0
 40
0.024822361767292
100
AcDbArc
 50
6.0502942649186
 51
30.54838989309721
  0
ARC
  5
81
330
A
100
AcDbEntity
  8
1
  6
solid
 62
     7
100
AcDbCircle
 10
2.983986091447863
 20
0.1949662867675496
 30
0.0
 40
0.0195165313780308
100
AcDbArc
 50
3.568698709250792
 51
32.56944628359857
  0
LINE
  5
82
330
A
100
AcDbEntity
  8
1
  6
solid
 62
     7
100
AcDbLine
 10
3.003464698791503
 20
0.1961811184883118
 30
0.0
 11
3.015433311462402
 21
0.1713385879993439
 31
0.0
  0
LINE
  5
83
330
A
100
AcDbEntity
  8
1
  6
solid
 62
     7
100
AcDbLine
 10
3.015433311462402
 20
0.1713385879993439
 30
0.0
 11
3.016811370849609
 21
0.1629133820533752
 31
0.0
  0
LINE
  5
84
330
A
100
AcDbEntity
  8
1
  6
solid
 62
     7
100
AcDbLine
 10
3.016811370849609
 20
0.1629133820533752
 30
0.0
 11
3.019016027450561
 21
0.1568503975868225
 31
0.0
  0
ARC
  5
85
330
A
100
AcDbEntity
  8
1
  6
solid
 62
     7
100
AcDbCircle
 10
3.046464727291171
 20
0.1575528985284325
 30
0.0
 40
0.0274576880037785
100
AcDbArc
 50
181.4660641331645
 51
207.5749096129289
  0
ARC
  5
86
330
A
100
AcDbEntity
  8
1
  6
solid
 62
     7
100
AcDbCircle
 10
2.943122378662717
 20
0.1324972958519338
 30
0.0
 40
0.0799623057246208
100
AcDbArc
 50
353.9396107154881
 51
368.8813069305985
  0
ARC
  5
87
330
A
100
AcDbEntity
  8
1
  6
solid
 62
     7
100
AcDbCircle
 10
3.059308198581989
 20
0.1067595738356205
 30
0.0
 40
0.0405444353818894
100
AcDbArc
 50
154.749109836121
 51
172.6746783505364
  0
ARC
  5
88
330
A
100
AcDbEntity
  8
1
  6
solid
 62
     7
100
AcDbCircle
 10
2.998406129833933
 20
0.1182329543988989
 30
0.0
 40
0.0216276496648789
100
AcDbArc
 50
320.2708930689291
 51
343.0540101587876
  0
ARC
  5
89
330
A
100
AcDbEntity
  8
1
  6
solid
 62
     7
100
AcDbCircle
 10
3.010937293984612
 20
0.1126237563879832
 30
0.0
 40
0.0091816317290068
100
AcDbArc
 50
227.751886062699
 51
296.5371434201991
  0
LINE
  5
8A
330
A
100
AcDbEntity
  8
1
  6
solid
 62
     7
100
AcDbLine
 10
3.004764080047607
 20
0.1058267802000046
 30
0.0
 11
2.899291515350341
 21
0.1066535487771034
 31
0.0
  0
LINE
  5
8B
330
A
100
AcDbEntity
  8
1
  6
solid
 62
     7
100
AcDbLine
 10
2.899291515350341
 20
0.1066535487771034
 30
0.0
 11
1.961889863014221
 21
0.1071259900927544
 31
0.0
  0
LINE
  5
8C
330
A
100
AcDbEntity
  8
1
  6
solid
 62
     7
100
AcDbLine
 10
1.961889863014221
 20
0.1071259900927544
 30
0.0
 11
1.953070998191833
 21
0.1076771691441536
 31
0.0
  0
LINE
  5
8D
330
A
100
AcDbEntity
  8
1
  6
solid
 62
     7
100
AcDbLine
 10
1.953070998191833
 20
0.1076771691441536
 30
0.0
 11
1.946614384651184
 21
0.1066929176449776
 31
0.0
  0
ARC
  5
8E
330
A
100
AcDbEntity
  8
1
  6
solid
 62
     7
100
AcDbCircle
 10
1.937832913946035
 20
0.1813712646938425
 30
0.0
 40
0.0751928836107254
100
AcDbArc
 50
257.3900678715274
 51
276.7066453915508
  0
ARC
  5
8F
330
A
100
AcDbEntity
  8
1
  6
solid
 62
     7
100
AcDbCircle
 10
1.914739530481947
 20
0.1239288044652196
 30
0.0
 40
0.0172792077064514
100
AcDbArc
 50
247.2986819388869
 51
292.734777109253
  0
ARC
  5
90
330
A
100
AcDbEntity
  8
1
  6
solid
 62
     7
100
AcDbCircle
 10
1.893977831340612
 20
0.1752547768589116
 30
0.0
 40
0.0687232315540314
100
AcDbArc
 50
259.1683759238319
 51
281.8337132316426
  0
LINE
  5
91
330
A
100
AcDbEntity
  8
1
  6
solid
 62
     7
100
AcDbLine
 10
1.881063103675842
 20
0.1077559143304825
 30
0.0
 11
1.873267769813537
 21
0.1066929176449776
 31
0.0
  0
LINE
  5
92
330
A
100
AcDbEntity
  8
1
  6
solid
 62
     7
100
AcDbLine
 10
1.873267769813537
 20
0.1066929176449776
 30
0.0
 11
1.846063137054443
 21
0.1072441041469574
 31
0.0
  0
LINE
  5
93
330
A
100
AcDbEntity
  8
1
  6
solid
 62
     7
100
AcDbLine
 10
1.846063137054443
 20
0.1072441041469574
 30
0.0
 11
1.843385934829711
 21
0.1077165380120277
 31
0.0
  0
ARC
  5
94
330
A
100
AcDbEntity
  8
1
  6
solid
 62
     7
100
AcDbCircle
 10
1.838752729446009
 20
0.1019104358214176
 30
0.0
 40
0.0074281501583755
100
AcDbArc
 50
51.41051969398415
 51
134.1066867302658
  0
ARC
  5
95
330
A
100
AcDbEntity
  8
1
  6
solid
 62
     7
100
AcDbCircle
 10
1.824820064559036
 20
0.140110931004313
 30
0.0
 40
0.0340148955583573
100
AcDbArc
 50
245.1248239713687
 51
284.9284992653321
  0
ARC
  5
96
330
A
100
AcDbEntity
  8
1
  6
solid
 62
     7
100
AcDbCircle
 10
1.80921945496698
 20
0.1024147224623868
 30
0.0
 40
0.0069583454169333
100
AcDbArc
 50
79.29531339569482
 51
133.2809202747059
  0
ARC
  5
97
330
A
100
AcDbEntity
  8
1
  6
solid
 62
     7
100
AcDbCircle
 10
1.798692523977721
 20
0.1270706101418118
 30
0.0
 40
0.0204185247421265
100
AcDbArc
 50
249.1268776928893
 51
286.3749694070007
  0
ARC
  5
98
330
A
100
AcDbEntity
  8
1
  6
solid
 62
     7
100
AcDbCircle
 10
1.781807899384277
 20
0.1417701014372231
 30
0.0
 40
0.0351183079183102
100
AcDbArc
 50
255.5944384594877
 51
285.8806549563885
  0
ARC
  5
99
330
A
100
AcDbEntity
  8
1
  6
solid
 62
     7
100
AcDbCircle
 10
1.762741479969968
 20
0.1865496441078846
 30
0.0
 40
0.0794679298996925
100
AcDbArc
 50
262.98167053745
 51
277.4686759368709
  0
ARC
  5
9A
330
A
100
AcDbEntity
  8
1
  6
solid
 62
     7
100
AcDbCircle
 10
1.746727928671808
 20
0.1223990655991264
 30
0.0
 40
0.0160146541893482
100
AcDbArc
 50
235.9282474615133
 51
293.1794497449775
  0
ARC
  5
9B
330
A
100
AcDbEntity
  8
1
  6
solid
 62
     7
100
AcDbCircle
 10
1.736135187117812
 20
0.1018113515964573
 30
0.0
 40
0.0074997749179602
100
AcDbArc
 50
77.51801621138746
 51
127.0707210360335
  0
ARC
  5
9C
330
A
100
AcDbEntity
  8
1
  6
solid
 62
     7
100
AcDbCircle
 10
1.726275609221643
 20
0.0616748673245428
 30
0.0
 40
0.0464283712208271
100
AcDbArc
 50
83.39716984136762
 51
104.3561346492124
  0
ARC
  5
9D
330
A
100
AcDbEntity
  8
1
  6
solid
 62
     7
100
AcDbCircle
 10
1.708114923991646
 20
0.0907595532488234
 30
0.0
 40
0.0172286424785853
100
AcDbArc
 50
67.29928140167216
 51
112.734283741771
  0
ARC
  5
9E
330
A
100
AcDbEntity
  8
1
  6
solid
 62
     7
100
AcDbCircle
 10
1.694166208458101
 20
0.0876021586652516
 30
0.0
 40
0.0203987248241902
100
AcDbArc
 50
69.05917526397434
 51
105.6557215727799
  0
ARC
  5
9F
330
A
100
AcDbEntity
  8
1
  6
solid
 62
     7
100
AcDbCircle
 10
1.683440395897254
 20
0.1020635027222391
 30
0.0
 40
0.007355225738138
100
AcDbArc
 50
44.776486726745
 51
132.5687945065566
  0
ARC
  5
A0
330
A
100
AcDbEntity
  8
1
  6
solid
 62
     7
100
AcDbCircle
 10
1.676309617649904
 20
0.115100166074936
 30
0.0
 40
0.0079187611117959
100
AcDbArc
 50
228.8859399366366
 51
285.7927094406355
  0
ARC
  5
A1
330
A
100
AcDbEntity
  8
1
  6
solid
 62
     7
100
AcDbCircle
 10
1.669394320734516
 20
0.1006115425335907
 30
0.0
 40
0.0086918286979198
100
AcDbArc
 50
78.6658978032998
 51
121.8837660972991
  0
ARC
  5
A2
330
A
100
AcDbEntity
  8
1
  6
solid
 62
     7
100
AcDbCircle
 10
1.660275341119852
 20
0.1017819520736965
 30
0.0
 40
0.0076855961233377
100
AcDbArc
 50
53.90368900520055
 51
132.1459443252303
  0
ARC
  5
A3
330
A
100
AcDbEntity
  8
1
  6
solid
 62
     7
100
AcDbCircle
 10
1.652359480098994
 20
0.1179379194112083
 30
0.0
 40
0.0108153652399779
100
AcDbArc
 50
246.8667954172887
 51
284.7781258205651
  0
ARC
  5
A4
330
A
100
AcDbEntity
  8
1
  6
solid
 62
     7
100
AcDbCircle
 10
1.639777677765436
 20
0.1329174561214547
 30
0.0
 40
0.0262812878936529
100
AcDbArc
 50
251.5421145456758
 51
288.4851426906978
  0
ARC
  5
A5
330
A
100
AcDbEntity
  8
1
  6
solid
 62
     7
100
AcDbCircle
 10
1.62668157484868
 20
0.1216122402983676
 30
0.0
 40
0.0144329741597176
100
AcDbArc
 50
233.5683897825172
 51
289.3209119582973
  0
ARC
  5
A6
330
A
100
AcDbEntity
  8
1
  6
solid
 62
     7
100
AcDbCircle
 10
1.603532892080119
 20
0.1394198143429153
 30
0.0
 40
0.0328333042562008
100
AcDbArc
 50
273.6619007388155
 51
296.3582471054581
  0
ARC
  5
A7
330
A
100
AcDbEntity
  8
1
  6
solid
 62
     7
100
AcDbCircle
 10
1.607891830177054
 20
0.1331579320445873
 30
0.0
 40
0.0266007147729397
100
AcDbArc
 50
240.5256204710922
 51
265.1223986723991
  0
ARC
  5
A8
330
A
100
AcDbEntity
  8
1
  6
solid
 62
     7
100
AcDbCircle
 10
1.597631014938967
 20
0.0943621141930257
 30
0.0
 40
0.0158914905041456
100
AcDbArc
 50
100.2496097692419
 51
124.3621275583949
  0
ARC
  5
A9
330
A
100
AcDbEntity
  8
1
  6
solid
 62
     7
100
AcDbCircle
 10
1.583342329487272
 20
0.1228868132087719
 30
0.0
 40
0.0162988640367985
100
AcDbArc
 50
248.1776999643109
 51
289.0472672593899
  0
ARC
  5
AA
330
A
100
AcDbEntity
  8
1
  6
solid
 62
     7
100
AcDbCircle
 10
1.572783023674682
 20
0.146843203203754
 30
0.0
 40
0.0393455401062966
100
AcDbArc
 50
249.4573768864478
 51
276.5682384382097
  0
ARC
  5
AB
330
A
100
AcDbEntity
  8
1
  6
solid
 62
     7
100
AcDbCircle
 10
1.56134434621858
 20
0.0918180554941317
 30
0.0
 40
0.0183354821056128
100
AcDbArc
 50
97.41980775459227
 51
121.3279936045352
  0
ARC
  5
AC
330
A
100
AcDbEntity
  8
1
  6
solid
 62
     7
100
AcDbCircle
 10
1.549655946248361
 20
0.1151008048196034
 30
0.0
 40
0.0079193757846951
100
AcDbArc
 50
228.8898194840852
 51
285.7914526858282
  0
ARC
  5
AD
330
A
100
AcDbEntity
  8
1
  6
solid
 62
     7
100
AcDbCircle
 10
1.542740648870003
 20
0.10061110192543
 30
0.0
 40
0.0086922608315945
100
AcDbArc
 50
78.6664647090009
 51
121.8819834179257
  0
ARC
  5
AE
330
A
100
AcDbEntity
  8
1
  6
solid
 62
     7
100
AcDbCircle
 10
1.540471006390299
 20
0.1257799545513039
 30
0.0
 40
0.0179386660456658
100
AcDbArc
 50
242.1349223225739
 51
262.5646021112561
  0
ARC
  5
AF
330
A
100
AcDbEntity
  8
1
  6
solid
 62
     7
100
AcDbCircle
 10
1.524875901622653
 20
0.1224318550496123
 30
0.0
 40
0.0144399097189307
100
AcDbArc
 50
245.8862534600417
 51
299.9581939301617
  0
ARC
  5
B0
330
A
100
AcDbEntity
  8
1
  6
solid
 62
     7
100
AcDbCircle
 10
1.512053678082033
 20
0.1220726358781581
 30
0.0
 40
0.0145703153684735
100
AcDbArc
 50
261.1151437618256
 51
298.3677160800326
  0
ARC
  5
B1
330
A
100
AcDbEntity
  8
1
  6
solid
 62
     7
100
AcDbCircle
 10
1.500041268085761
 20
0.1478570791779454
 30
0.0
 40
0.0413487888872624
100
AcDbArc
 50
260.4058149561414
 51
283.6558710984186
  0
ARC
  5
B2
330
A
100
AcDbEntity
  8
1
  6
solid
 62
     7
100
AcDbCircle
 10
1.492670976628823
 20
0.1485377877251197
 30
0.0
 40
0.0414539389312267
100
AcDbArc
 50
250.8825095171493
 51
270.6617640515495
  0
ARC
  5
B3
330
A
100
AcDbEntity
  8
1
  6
solid
 62
     7
100
AcDbCircle
 10
1.472781332363458
 20
0.1175399936698975
 30
0.0
 40
0.0103249019011855
100
AcDbArc
 50
231.9486274963216
 51
307.694503316225
  0
ARC
  5
B4
330
A
100
AcDbEntity
  8
1
  6
solid
 62
     7
100
AcDbCircle
 10
1.455556508719699
 20
0.129431787923826
 30
0.0
 40
0.0227783583104611
100
AcDbArc
 50
239.9032843697719
 51
298.4771903520496
  0
ARC
  5
B5
330
A
100
AcDbEntity
  8
1
  6
solid
 62
     7
100
AcDbCircle
 10
1.442259989969229
 20
0.0805140758473426
 30
0.0
 40
0.0292703937739134
100
AcDbArc
 50
86.32918563694651
 51
111.2450702762764
  0
LINE
  5
B6
330
A
100
AcDbEntity
  8
1
  6
solid
 62
     7
100
AcDbLine
 10
1.431653618812561
 20
0.1077952831983566
 30
0.0
 11
1.422008037567138
 21
0.1072441041469574
 31
0.0
  0
LINE
  5
B7
330
A
100
AcDbEntity
  8
1
  6
solid
 62
     7
100
AcDbLine
 10
1.422008037567138
 20
0.1072441041469574
 30
0.0
 11
1.418307185173034
 21
0.1091338619589806
 31
0.0
  0
ARC
  5
B8
330
A
100
AcDbEntity
  8
1
  6
solid
 62
     7
100
AcDbCircle
 10
1.393797606914644
 20
-0.1760451993059111
 30
0.0
 40
0.2862303555011749
100
AcDbArc
 50
85.08781241567502
 51
95.83763882958841
  0
ARC
  5
B9
330
A
100
AcDbEntity
  8
1
  6
solid
 62
     7
100
AcDbCircle
 10
1.352801945120262
 20
0.0565067418777057
 30
0.0
 40
0.053529717028141
100
AcDbArc
 50
77.17387029986719
 51
105.8857828345934
  0
ARC
  5
BA
330
A
100
AcDbEntity
  8
1
  6
solid
 62
     7
100
AcDbCircle
 10
1.323156704395945
 20
0.0542620376106391
 30
0.0
 40
0.0557827167212963
100
AcDbArc
 50
74.40865455400919
 51
105.6064007767832
  0
ARC
  5
BB
330
A
100
AcDbEntity
  8
1
  6
solid
 62
     7
100
AcDbCircle
 10
1.298154436362218
 20
0.0840669922236442
 30
0.0
 40
0.02592908218503
100
AcDbArc
 50
67.32617868662368
 51
112.6964854749042
  0
ARC
  5
BC
330
A
100
AcDbEntity
  8
1
  6
solid
 62
     7
100
AcDbCircle
 10
1.273176423565174
 20
0.0544319394242736
 30
0.0
 40
0.055613785982132
100
AcDbArc
 50
74.38112889165404
 51
105.6338991183817
  0
LINE
  5
BD
330
A
100
AcDbEntity
  8
1
  6
solid
 62
     7
100
AcDbLine
 10
1.25818908214569
 20
0.1079921275377274
 30
0.0
 11
1.255157589912414
 21
0.108976386487484
 31
0.0
  0
ARC
  5
BE
330
A
100
AcDbEntity
  8
1
  6
solid
 62
     7
100
AcDbCircle
 10
1.220154576785347
 20
-0.3796949907713314
 30
0.0
 40
0.4899233877658844
100
AcDbArc
 50
85.90296134217021
 51
94.52575756551489
  0
ARC
  5
BF
330
A
100
AcDbEntity
  8
1
  6
solid
 62
     7
100
AcDbCircle
 10
1.174028948437919
 20
0.0881463937581837
 30
0.0
 40
0.0218687560409308
100
AcDbArc
 50
70.03445797556046
 51
114.838869930727
  0
ARC
  5
C0
330
A
100
AcDbEntity
  8
1
  6
solid
 62
     7
100
AcDbCircle
 10
1.156519656920092
 20
0.0918907153286964
 30
0.0
 40
0.0181253124028444
100
AcDbArc
 50
62.66519612530444
 51
117.362071583724
  0
LINE
  5
C1
330
A
100
AcDbEntity
  8
1
  6
solid
 62
     7
100
AcDbLine
 10
1.148189067840576
 20
0.1079921275377274
 30
0.0
 11
1.145157575607299
 21
0.108976386487484
 31
0.0
  0
ARC
  5
C2
330
A
100
AcDbEntity
  8
1
  6
solid
 62
     7
100
AcDbCircle
 10
1.09462806080181
 20
-0.8461168524639807
 30
0.0
 40
0.9564289450645446
100
AcDbArc
 50
86.97157175857539
 51
93.32628029772546
  0
ARC
  5
C3
330
A
100
AcDbEntity
  8
1
  6
solid
 62
     7
100
AcDbCircle
 10
1.019664150109476
 20
-0.0132743001946909
 30
0.0
 40
0.1235192120075226
100
AcDbArc
 50
80.93091147548108
 51
100.9595498768568
  0
LINE
  5
C4
330
A
100
AcDbEntity
  8
1
  6
solid
 62
     7
100
AcDbLine
 10
0.9961811900138854
 20
0.1079921275377274
 30
0.0
 11
0.9941732883453369
 21
0.1100000068545341
 31
0.0
  0
LINE
  5
C5
330
A
100
AcDbEntity
  8
1
  6
solid
 62
     7
100
AcDbLine
 10
0.9941732883453369
 20
0.1100000068545341
 30
0.0
 11
0.5132677555084229
 21
0.1100000068545341
 31
0.0
  0
LINE
  5
C6
330
A
100
AcDbEntity
  8
1
  6
solid
 62
     7
100
AcDbLine
 10
0.5132677555084229
 20
0.1100000068545341
 30
0.0
 11
0.5138583183288575
 21
0.251692920923233
 31
0.0
  0
ARC
  5
C7
330
A
100
AcDbEntity
  8
1
  6
solid
 62
     7
100
AcDbCircle
 10
0.5689219721347032
 20
0.2545336533509618
 30
0.0
 40
0.0551368817687035
100
AcDbArc
 50
161.5661064957519
 51
182.9532695230431
  0
ARC
  5
C8
330
A
100
AcDbEntity
  8
1
  6
solid
 62
     7
100
AcDbCircle
 10
0.4591989829515681
 20
0.2754723994109858
 30
0.0
 40
0.0575220324099064
100
AcDbArc
 50
356.5077342952851
 51
371.7687230710735
  0
LINE
  5
C9
330
A
100
AcDbEntity
  8
1
  6
solid
 62
     7
100
AcDbLine
 10
0.5155118703842163
 20
0.2872047424316406
 30
0.0
 11
0.5109055042266846
 21
0.2933070957660675
 31
0.0
  0
LINE
  5
CA
330
A
100
AcDbEntity
  8
1
  6
solid
 62
     7
100
AcDbLine
 10
0.5109055042266846
 20
0.2933070957660675
 30
0.0
 11
0.4673228859901429
 21
0.2934646010398865
 31
0.0
  0
ARC
  5
CB
330
A
100
AcDbEntity
  8
1
  6
solid
 62
     7
100
AcDbCircle
 10
0.4674511050664382
 20
0.3353812186365582
 30
0.0
 40
0.0419168137013912
100
AcDbArc
 50
254.8497292739028
 51
269.8247380291428
  0
LINE
  5
CC
330
A
100
AcDbEntity
  8
1
  6
solid
 62
     7
100
AcDbLine
 10
0.4564960896968842
 20
0.2949212789535522
 30
0.0
 11
0.4552755951881409
 21
0.2956299483776092
 31
0.0
  0
ARC
  5
CD
330
A
100
AcDbEntity
  8
1
  6
solid
 62
     7
100
AcDbCircle
 10
0.4346063183172114
 20
0.1298953522789787
 30
0.0
 40
0.1670184880495071
100
AcDbArc
 50
82.89116893708557
 51
93.43256529828684
  0
ARC
  5
CE
330
A
100
AcDbEntity
  8
1
  6
solid
 62
     7
100
AcDbCircle
 10
0.4211722697419804
 20
0.3156890371200033
 30
0.0
 40
0.0193814896047115
100
AcDbArc
 50
243.7446613061625
 51
280.2056693410784
  0
LINE
  5
CF
330
A
100
AcDbEntity
  8
1
  6
solid
 62
     7
100
AcDbLine
 10
0.4125984609127045
 20
0.2983070909976959
 30
0.0
 11
0.4016929268836975
 21
0.2998425364494324
 31
0.0
  0
LINE
  5
D0
330
A
100
AcDbEntity
  8
1
  6
solid
 62
     7
100
AcDbLine
 10
0.4016929268836975
 20
0.2998425364494324
 30
0.0
 11
0.3521260023117065
 21
0.3004330992698669
 31
0.0
  0
LINE
  5
D1
330
A
100
AcDbEntity
  8
1
  6
solid
 62
     7
100
AcDbLine
 10
0.3521260023117065
 20
0.3004330992698669
 30
0.0
 11
0.3464961051940918
 21
0.3015748262405395
 31
0.0
  0
LINE
  5
D2
330
A
100
AcDbEntity
  8
1
  6
solid
 62
     7
100
AcDbLine
 10
0.3464961051940918
 20
0.3015748262405395
 30
0.0
 11
0.3452756106853485
 21
0.3022834956645966
 31
0.0
  0
ARC
  5
D3
330
A
100
AcDbEntity
  8
1
  6
solid
 62
     7
100
AcDbCircle
 10
0.3212795383277365
 20
0.0880939512772439
 30
0.0
 40
0.2155295163393021
100
AcDbArc
 50
83.60769676215493
 51
93.1047025577479
  0
ARC
  5
D4
330
A
100
AcDbEntity
  8
1
  6
solid
 62
     7
100
AcDbCircle
 10
0.3066900028250914
 20
0.3421575922002166
 30
0.0
 40
0.0389597788453102
100
AcDbArc
 50
248.6713860375194
 51
274.2928565388684
  0
ARC
  5
D5
330
A
100
AcDbEntity
  8
1
  6
solid
 62
     7
100
AcDbCircle
 10
0.2887308796333623
 20
0.3108621401169108
 30
0.0
 40
0.0062701413407922
100
AcDbArc
 50
236.5595516012138
 51
307.1757641091409
  0
ARC
  5
D6
330
A
100
AcDbEntity
  8
1
  6
solid
 62
     7
100
AcDbCircle
 10
0.265452773484597
 20
0.1490707358112057
 30
0.0
 40
0.1578091531991959
100
AcDbArc
 50
82.7838598350355
 51
93.32525619623678
  0
ARC
  5
D7
330
A
100
AcDbEntity
  8
1
  6
solid
 62
     7
100
AcDbCircle
 10
0.2535567582857248
 20
0.3223520136304145
 30
0.0
 40
0.0159749872982502
100
AcDbArc
 50
241.543837751801
 51
279.8850875821947
  0
LINE
  5
D8
330
A
100
AcDbEntity
  8
1
  6
solid
 62
     7
100
AcDbLine
 10
0.2459448873996735
 20
0.3083071112632751
 30
0.0
 11
0.2350393831729889
 21
0.3098425269126892
 31
0.0
  0
ARC
  5
D9
330
A
100
AcDbEntity
  8
1
  6
solid
 62
     7
100
AcDbCircle
 10
0.2182983941889012
 20
0.596359404962516
 30
0.0
 40
0.2870055437088013
100
AcDbArc
 50
260.4793351123674
 51
273.3439520178568
  0
LINE
  5
DA
330
A
100
AcDbEntity
  8
1
  6
solid
 62
     7
100
AcDbLine
 10
0.1708267778158188
 20
0.3133071064949036
 30
0.0
 11
0.1666535586118698
 21
0.3133071064949036
 31
0.0
  0
LINE
  5
DB
330
A
100
AcDbEntity
  8
1
  6
solid
 62
     7
100
AcDbLine
 10
0.1666535586118698
 20
0.3133071064949036
 30
0.0
 11
0.1666535586118698
 21
0.6489371061325074
 31
0.0
  0
LINE
  5
DC
330
A
100
AcDbEntity
  8
1
  6
solid
 62
     7
100
AcDbLine
 10
0.1666535586118698
 20
0.6489371061325074
 30
0.0
 11
0.1690157651901245
 21
0.6499212980270386
 31
0.0
  0
LINE
  5
DD
330
A
100
AcDbEntity
  8
1
  6
solid
 62
     7
100
AcDbLine
 10
0.1690157651901245
 20
0.6499212980270386
 30
0.0
 11
0.1723228543996811
 21
0.6465748548507691
 31
0.0
  0
LINE
  5
DE
330
A
100
AcDbEntity
  8
1
  6
solid
 62
     7
100
AcDbLine
 10
0.1799606382846832
 20
0.6282677650451661
 30
0.0
 11
0.1799606382846832
 21
0.4019685089588166
 31
0.0
  0
LINE
  5
DF
330
A
100
AcDbEntity
  8
1
  6
solid
 62
     7
100
AcDbLine
 10
0.1799606382846832
 20
0.4019685089588166
 30
0.0
 11
0.1809448897838592
 21
0.3519291579723358
 31
0.0
  0
LINE
  5
E0
330
A
100
AcDbEntity
  8
1
  6
solid
 62
     7
100
AcDbLine
 10
0.1809448897838592
 20
0.3519291579723358
 30
0.0
 11
0.1816929280757904
 21
0.3340551555156708
 31
0.0
  0
LINE
  5
E1
330
A
100
AcDbEntity
  8
1
  6
solid
 62
     7
100
AcDbLine
 10
0.1816929280757904
 20
0.3340551555156708
 30
0.0
 11
0.1826378107070923
 21
0.3277952969074249
 31
0.0
  0
LINE
  5
E2
330
A
100
AcDbEntity
  8
1
  6
solid
 62
     7
100
AcDbLine
 10
0.1826378107070923
 20
0.3277952969074249
 30
0.0
 11
0.187244102358818
 21
0.3267323076725006
 31
0.0
  0
ARC
  5
E3
330
A
100
AcDbEntity
  8
1
  6
solid
 62
     7
100
AcDbCircle
 10
0.188393729641973
 20
0.3073728878397371
 30
0.0
 40
0.0193935241550207
100
AcDbArc
 50
59.79803639098942
 51
93.39842459772054
  0
ARC
  5
E4
330
A
100
AcDbEntity
  8
1
  6
solid
 62
     7
100
AcDbCircle
 10
0.2244684359515647
 20
0.6481365332984125
 30
0.0
 40
0.3250698149204254
100
AcDbArc
 50
265.3560457835269
 51
272.2037573769686
  0
ARC
  5
E5
330
A
100
AcDbEntity
  8
1
  6
solid
 62
     7
100
AcDbCircle
 10
0.236312702752888
 20
0.2461327759475367
 30
0.0
 40
0.0771771371364594
100
AcDbArc
 50
74.41534472430122
 51
89.51313296006132
  0
ARC
  5
E6
330
A
100
AcDbEntity
  8
1
  6
solid
 62
     7
100
AcDbCircle
 10
0.2963867703749573
 20
0.9866587009412596
 30
0.0
 40
0.6673467755317688
100
AcDbArc
 50
266.6205050441931
 51
270.7564402918428
  0
ARC
  5
E7
330
A
100
AcDbEntity
  8
1
  6
solid
 62
     7
100
AcDbCircle
 10
0.3386417618885755
 20
0.4887095050840688
 30
0.0
 40
0.1726105362176895
100
AcDbArc
 50
258.8277509748287
 51
274.428049888205
  0
ARC
  5
E8
330
A
100
AcDbEntity
  8
1
  6
solid
 62
     7
100
AcDbCircle
 10
0.3532863260142192
 20
0.2452326603845587
 30
0.0
 40
0.0713937133550644
100
AcDbArc
 50
73.87877189329419
 51
91.05763680688713
  0
ARC
  5
E9
330
A
100
AcDbEntity
  8
1
  6
solid
 62
     7
100
AcDbCircle
 10
0.4099169608904291
 20
0.8739453256516327
 30
0.0
 40
0.5613344311714173
100
AcDbArc
 50
266.2404186772602
 51
270.8805311686836
  0
ARC
  5
EA
330
A
100
AcDbEntity
  8
1
  6
solid
 62
     7
100
AcDbCircle
 10
0.4145522869412173
 20
0.2618423175567482
 30
0.0
 40
0.0509912855923176
100
AcDbArc
 50
72.6435048611407
 51
85.51090848381148
  0
ARC
  5
EB
330
A
100
AcDbEntity
  8
1
  6
solid
 62
     7
100
AcDbCircle
 10
0.4639900668246943
 20
0.7891036026800056
 30
0.0
 40
0.4798140525817871
100
AcDbArc
 50
265.9094823515947
 51
271.64876352577
  0
ARC
  5
EC
330
A
100
AcDbEntity
  8
1
  6
solid
 62
     7
100
AcDbCircle
 10
0.4760836079714935
 20
0.2871722105780568
 30
0.0
 40
0.0223815459758043
100
AcDbArc
 50
63.97003887943827
 51
85.6138530949819
  0
ARC
  5
ED
330
A
100
AcDbEntity
  8
1
  6
solid
 62
     7
100
AcDbCircle
 10
0.5190945982847154
 20
1.042283252314697
 30
0.0
 40
0.7357487082481385
100
AcDbArc
 50
267.4145555163421
 51
270.8431565869887
  0
LINE
  5
EE
330
A
100
AcDbEntity
  8
1
  6
solid
 62
     7
100
AcDbLine
 10
0.529921293258667
 20
0.3066141903400421
 30
0.0
 11
0.5292519927024842
 21
0.2444882094860077
 31
0.0
  0
LINE
  5
EF
330
A
100
AcDbEntity
  8
1
  6
solid
 62
     7
100
AcDbLine
 10
0.5292519927024842
 20
0.2444882094860077
 30
0.0
 11
0.5298425555229187
 21
0.2368897795677185
 31
0.0
  0
ARC
  5
F0
330
A
100
AcDbEntity
  8
1
  6
solid
 62
     7
100
AcDbCircle
 10
0.5605311938417158
 20
0.2281478004805542
 30
0.0
 40
0.0319094769656658
100
AcDbArc
 50
164.0998437155435
 51
196.4085338671985
  0
ARC
  5
F1
330
A
100
AcDbEntity
  8
1
  6
solid
 62
     7
100
AcDbCircle
 10
0.5164005940293351
 20
0.2191047304463738
 30
0.0
 40
0.0135207306593657
100
AcDbArc
 50
324.7409341574315
 51
360.123540699767
  0
ARC
  5
F2
330
A
100
AcDbEntity
  8
1
  6
solid
 62
     7
100
AcDbCircle
 10
0.5384950264524209
 20
0.2104917344834652
 30
0.0
 40
0.0110835153609514
100
AcDbArc
 50
175.8220056144162
 51
208.7688266798472
  0
ARC
  5
F3
330
A
100
AcDbEntity
  8
1
  6
solid
 62
     7
100
AcDbCircle
 10
0.5842059902722309
 20
0.2037592562803439
 30
0.0
 40
0.0554440580308437
100
AcDbArc
 50
178.5549009051217
 51
191.7376680221503
  0
ARC
  5
F4
330
A
100
AcDbEntity
  8
1
  6
solid
 62
     7
100
AcDbCircle
 10
0.5078391517788122
 20
0.1929582017874553
 30
0.0
 40
0.0220873113721609
100
AcDbArc
 50
340.514453617823
 51
358.7603033627987
  0
ARC
  5
F5
330
A
100
AcDbEntity
  8
1
  6
solid
 62
     7
100
AcDbCircle
 10
0.4678637530832225
 20
0.1707251277690738
 30
0.0
 40
0.0625886470079422
100
AcDbArc
 50
339.9351274450773
 51
373.7396324400596
  0
LINE
  5
F6
330
A
100
AcDbEntity
  8
1
  6
solid
 62
     7
100
AcDbLine
 10
0.5266535878181458
 20
0.1492519825696945
 30
0.0
 11
0.5273228883743287
 21
0.1299606412649155
 31
0.0
  0
LINE
  5
F7
330
A
100
AcDbEntity
  8
1
  6
solid
 62
     7
100
AcDbLine
 10
0.5273228883743287
 20
0.1299606412649155
 30
0.0
 11
0.5288583040237427
 21
0.1268503963947296
 31
0.0
  0
LINE
  5
F8
330
A
100
AcDbEntity
  8
1
  6
solid
 62
     7
100
AcDbLine
 10
0.5288583040237427
 20
0.1268503963947296
 30
0.0
 11
0.5315748453140259
 21
0.1240157559514046
 31
0.0
  0
ARC
  5
F9
330
A
100
AcDbEntity
  8
1
  6
solid
 62
     7
100
AcDbCircle
 10
0.5740946535817103
 20
1.103544438110183
 30
0.0
 40
0.9804511070251464
100
AcDbArc
 50
267.5144402027643
 51
271.1964683989318
  0
ARC
  5
FA
330
A
100
AcDbEntity
  8
1
  6
solid
 62
     7
100
AcDbCircle
 10
0.5928413878416393
 20
0.2181680544336382
 30
0.0
 40
0.0948766544461251
100
AcDbArc
 50
271.0421509468059
 51
282.5301842062142
  0
LINE
  5
FB
330
A
100
AcDbEntity
  8
1
  6
solid
 62
     7
100
AcDbLine
 10
0.6134251952171326
 20
0.1255511939525604
 30
0.0
 11
0.6153937578201294
 21
0.1268110275268555
 31
0.0
  0
ARC
  5
FC
330
A
100
AcDbEntity
  8
1
  6
solid
 62
     7
100
AcDbCircle
 10
0.6867403153495113
 20
0.1243526109848096
 30
0.0
 40
0.0713889002799988
100
AcDbArc
 50
161.3638782548061
 51
178.0265174709295
  0
ARC
  5
FD
330
A
100
AcDbEntity
  8
1
  6
solid
 62
     7
100
AcDbCircle
 10
0.4657308969973721
 20
0.1662700285591663
 30
0.0
 40
0.1545489579439163
100
AcDbArc
 50
352.8991814322274
 51
358.6387358139694
  0
ARC
  5
FE
330
A
100
AcDbEntity
  8
1
  6
solid
 62
     7
100
AcDbCircle
 10
0.5586295893632247
 20
0.1832280352512047
 30
0.0
 40
0.0649689510464668
100
AcDbArc
 50
341.4863724612429
 51
362.3618996781868
  0
ARC
  5
FF
330
A
100
AcDbEntity
  8
1
  6
solid
 62
     7
100
AcDbCircle
 10
0.5512248818441762
 20
0.2109119363461718
 30
0.0
 40
0.076519787311554
100
AcDbArc
 50
340.9255319681148
 51
365.427478115438
  0
ARC
  5
100
330
A
100
AcDbEntity
  8
1
  6
solid
 62
     7
100
AcDbCircle
 10
0.593784118211929
 20
0.2320480504965422
 30
0.0
 40
0.03637720271945
100
AcDbArc
 50
337.5383865171921
 51
366.5862419062455
  0
ARC
  5
101
330
A
100
AcDbEntity
  8
1
  6
solid
 62
     7
100
AcDbCircle
 10
0.6632615617888265
 20
0.2377598458349313
 30
0.0
 40
0.0333758220076561
100
AcDbArc
 50
157.6110034945859
 51
182.643520444183
  0
ARC
  5
102
330
A
100
AcDbEntity
  8
1
  6
solid
 62
     7
100
AcDbCircle
 10
0.5038225782332528
 20
0.2677432051491088
 30
0.0
 40
0.1297337859869003
100
AcDbArc
 50
352.3498156569049
 51
359.1882108723186
  0
ARC
  5
103
330
A
100
AcDbEntity
  8
1
  6
solid
 62
     7
100
AcDbCircle
 10
0.5646996423946397
 20
0.2880858552549831
 30
0.0
 40
0.0723285973072052
100
AcDbArc
 50
342.1419066970241
 51
363.5456909896605
  0
ARC
  5
104
330
A
100
AcDbEntity
  8
1
  6
solid
 62
     7
100
AcDbCircle
 10
0.5903555573835078
 20
0.3107314018871246
 30
0.0
 40
0.049956638365984
100
AcDbArc
 50
338.6685642587758
 51
367.1720894294723
  0
ARC
  5
105
330
A
100
AcDbEntity
  8
1
  6
solid
 62
     7
100
AcDbCircle
 10
0.6773564067887924
 20
0.3132089739962097
 30
0.0
 40
0.0376234091818333
100
AcDbArc
 50
158.2903614301921
 51
174.2650913138685
  0
ARC
  5
106
330
A
100
AcDbEntity
  8
1
  6
solid
 62
     7
100
AcDbCircle
 10
0.5138212165248084
 20
0.3443968644892327
 30
0.0
 40
0.129735141992569
100
AcDbArc
 50
352.3498429776615
 51
359.1882108723186
  0
ARC
  5
107
330
A
100
AcDbEntity
  8
1
  6
solid
 62
     7
100
AcDbCircle
 10
0.602926524247808
 20
0.3592859896203226
 30
0.0
 40
0.0439262725412846
100
AcDbArc
 50
337.617042975674
 51
380.4122967298734
  0
LINE
  5
108
330
A
100
AcDbEntity
  8
1
  6
solid
 62
     7
100
AcDbLine
 10
0.6440945267677308
 20
0.3746063113212585
 30
0.0
 11
0.6442126631736756
 21
0.3787401914596558
 31
0.0
  0
ARC
  5
109
330
A
100
AcDbEntity
  8
1
  6
solid
 62
     7
100
AcDbCircle
 10
0.6291432576334684
 20
0.3940215090313438
 30
0.0
 40
0.0214617252349854
100
AcDbArc
 50
314.5999611708913
 51
367.2562834638238
  0
ARC
  5
10A
330
A
100
AcDbEntity
  8
1
  6
solid
 62
     7
100
AcDbCircle
 10
0.593890729362439
 20
0.417449640723374
 30
0.0
 40
0.0602183006703854
100
AcDbArc
 50
339.8769613267345
 51
365.9962296751723
  0
ARC
  5
10B
330
A
100
AcDbEntity
  8
1
  6
solid
 62
     7
100
AcDbCircle
 10
0.5734809358395464
 20
0.4463086256820209
 30
0.0
 40
0.0834098607301712
100
AcDbArc
 50
344.3016398333388
 51
359.7230697527308
  0
ARC
  5
10C
330
A
100
AcDbEntity
  8
1
  6
solid
 62
     7
100
AcDbCircle
 10
0.603084480932378
 20
0.4661134318470042
 30
0.0
 40
0.0574750155210495
100
AcDbArc
 50
339.4151312558149
 51
366.4390974334086
  0
ARC
  5
10D
330
A
100
AcDbEntity
  8
1
  6
solid
 62
     7
100
AcDbCircle
 10
0.6055001504081904
 20
0.4929632287335721
 30
0.0
 40
0.058378629386425
100
AcDbArc
 50
339.5423913404306
 51
366.1452268368215
  0
ARC
  5
10E
330
A
100
AcDbEntity
  8
1
  6
solid
 62
     7
100
AcDbCircle
 10
0.6162041122738465
 20
0.5176059596839189
 30
0.0
 40
0.0507869832217693
100
AcDbArc
 50
338.7667004167706
 51
367.3401872151355
  0
ARC
  5
10F
330
A
100
AcDbEntity
  8
1
  6
solid
 62
     7
100
AcDbCircle
 10
0.6721028275049462
 20
0.524318406998736
 30
0.0
 40
0.0055324640125036
100
AcDbArc
 50
97.52779987555934
 51
182.3192503831475
  0
ARC
  5
110
330
A
100
AcDbEntity
  8
1
  6
solid
 62
     7
100
AcDbCircle
 10
0.6729273192202204
 20
0.5730947910727416
 30
0.0
 40
0.0433193482458592
100
AcDbArc
 50
267.9503975171079
 51
310.984697646974
  0
ARC
  5
111
330
A
100
AcDbEntity
  8
1
  6
solid
 62
     7
100
AcDbCircle
 10
0.6763831645026755
 20
0.5738888909790616
 30
0.0
 40
0.0417696461081505
100
AcDbArc
 50
306.6878427155919
 51
337.4550138130884
  0
ARC
  5
112
330
A
100
AcDbEntity
  8
1
  6
solid
 62
     7
100
AcDbCircle
 10
0.6391007814272599
 20
0.5763857993193319
 30
0.0
 40
0.0780859142541885
100
AcDbArc
 50
346.2864108438744
 51
357.7405117234862
  0
ARC
  5
113
330
A
100
AcDbEntity
  8
1
  6
solid
 62
     7
100
AcDbCircle
 10
0.6708324836427413
 20
0.5887073213682209
 30
0.0
 40
0.048787884414196
100
AcDbArc
 50
341.5995350354117
 51
394.7774378941229
  0
ARC
  5
114
330
A
100
AcDbEntity
  8
1
  6
solid
 62
     7
100
AcDbCircle
 10
0.6708047483822526
 20
0.5750894332380579
 30
0.0
 40
0.0576701797544956
100
AcDbArc
 50
45.94510135788292
 51
87.78712366623159
  0
LINE
  5
115
330
A
100
AcDbEntity
  8
1
  6
solid
 62
     7
100
AcDbLine
 10
0.6730315685272217
 20
0.6327165961265564
 30
0.0
 11
0.1856693029403686
 21
0.6332677602767945
 31
0.0
  0
ARC
  5
116
330
A
100
AcDbEntity
  8
1
  6
solid
 62
     7
100
AcDbCircle
 10
0.1863277884174354
 20
0.6267570558239219
 30
0.0
 40
0.0065439189784229
100
AcDbArc
 50
95.77519382510159
 51
166.6522375970531
  0
ARC
  5
117
330
A
100
AcDbEntity
  8
1
  6
solid
 62
     7
100
AcDbCircle
 10
0.6372510907158894
 20
0.5740697571514435
 30
0.0
 40
0.0992208495736122
100
AcDbArc
 50
21.37710898883298
 51
33.57176629901419
  0
ARC
  5
118
330
A
100
AcDbEntity
  8
1
  6
solid
 62
     7
100
AcDbCircle
 10
0.7396169579801763
 20
0.60999665017631
 30
0.0
 40
0.0099741080775857
100
AcDbArc
 50
178.6232847590919
 51
223.6635568066773
  0
ARC
  5
119
330
A
100
AcDbEntity
  8
1
  6
solid
 62
     7
100
AcDbCircle
 10
0.6324821452862656
 20
0.5874213110645547
 30
0.0
 40
0.1011436805129051
100
AcDbArc
 50
351.0764765239151
 51
368.9235234760848
  0
ARC
  5
11A
330
A
100
AcDbEntity
  8
1
  6
solid
 62
     7
100
AcDbCircle
 10
0.7704494599290005
 20
0.5575825731514477
 30
0.0
 40
0.040593758225441
100
AcDbArc
 50
159.6002107129875
 51
183.2578105826611
  0
LINE
  5
11B
330
A
100
AcDbEntity
  8
1
  6
solid
 62
     7
100
AcDbLine
 10
0.7299212813377381
 20
0.5552756190299988
 30
0.0
 11
0.7314173579216004
 21
0.5499212741851807
 31
0.0
  0
LINE
  5
11C
330
A
100
AcDbEntity
  8
1
  6
solid
 62
     7
100
AcDbLine
 10
0.7314173579216004
 20
0.5499212741851807
 30
0.0
 11
1.100866198539733
 21
0.5493307709693909
 31
0.0
  0
ARC
  5
11D
330
A
100
AcDbEntity
  8
1
  6
solid
 62
     7
100
AcDbCircle
 10
1.10649076484122
 20
0.1980861719295688
 30
0.0
 40
0.3512896299362183
100
AcDbArc
 50
85.44806092505043
 51
90.91741302322677
  0
ARC
  5
11E
330
A
100
AcDbEntity
  8
1
  6
solid
 62
     7
100
AcDbCircle
 10
1.137687191504538
 20
0.5538169808916212
 30
0.0
 40
0.0064650331623852
100
AcDbArc
 50
239.1317803520731
 51
306.5307825156275
  0
ARC
  5
11F
330
A
100
AcDbEntity
  8
1
  6
solid
 62
     7
100
AcDbCircle
 10
1.149593917151487
 20
0.5641536727939743
 30
0.0
 40
0.017497668042779
100
AcDbArc
 50
242.5779659581814
 51
300.6116586186243
  0
ARC
  5
120
330
A
100
AcDbEntity
  8
1
  6
solid
 62
     7
100
AcDbCircle
 10
1.165780919364388
 20
0.5180159416575377
 30
0.0
 40
0.0319191180169582
100
AcDbArc
 50
74.5362937141238
 51
103.1781558287224
  0
ARC
  5
121
330
A
100
AcDbEntity
  8
1
  6
solid
 62
     7
100
AcDbCircle
 10
1.175730593842406
 20
0.5252004980664751
 30
0.0
 40
0.0236229915171862
100
AcDbArc
 50
69.46831384054185
 51
93.49288611394182
  0
ARC
  5
122
330
A
100
AcDbEntity
  8
1
  6
solid
 62
     7
100
AcDbCircle
 10
1.18901244692887
 20
0.5385948714680245
 30
0.0
 40
0.0100570237264037
100
AcDbArc
 50
60.16498488905376
 51
119.7901389468664
  0
ARC
  5
123
330
A
100
AcDbEntity
  8
1
  6
solid
 62
     7
100
AcDbCircle
 10
1.205192999889811
 20
0.5203212319942481
 30
0.0
 40
0.0292235668748617
100
AcDbArc
 50
76.19659658813801
 51
112.4867679315335
  0
ARC
  5
124
330
A
100
AcDbEntity
  8
1
  6
solid
 62
     7
100
AcDbCircle
 10
1.218409038580074
 20
0.5333608458633354
 30
0.0
 40
0.0165619011968374
100
AcDbArc
 50
67.14132986202104
 51
112.1469591901362
  0
ARC
  5
125
330
A
100
AcDbEntity
  8
1
  6
solid
 62
     7
100
AcDbCircle
 10
1.23145981543314
 20
0.5324209464505632
 30
0.0
 40
0.0175003744661808
100
AcDbArc
 50
69.18947819786525
 51
112.2169481385613
  0
ARC
  5
126
330
A
100
AcDbEntity
  8
1
  6
solid
 62
     7
100
AcDbCircle
 10
1.239643513145175
 20
0.5397275478890823
 30
0.0
 40
0.0092631578445435
100
AcDbArc
 50
58.17952061431735
 51
102.255451913367
  0
LINE
  5
127
330
A
100
AcDbEntity
  8
1
  6
solid
 62
     7
100
AcDbLine
 10
1.244527697563171
 20
0.547598421573639
 30
0.0
 11
1.787637948989868
 21
0.5461811423301697
 31
0.0
  0
ARC
  5
128
330
A
100
AcDbEntity
  8
1
  6
solid
 62
     7
100
AcDbCircle
 10
1.793244057128263
 20
0.5814126122506886
 30
0.0
 40
0.0356747098267079
100
AcDbArc
 50
260.9587699958727
 51
282.7255002957199
  0
ARC
  5
129
330
A
100
AcDbEntity
  8
1
  6
solid
 62
     7
100
AcDbCircle
 10
1.807435701329083
 20
0.4879038213727047
 30
0.0
 40
0.0590510182082653
100
AcDbArc
 50
76.3037622562155
 51
96.15689211667858
  0
ARC
  5
12A
330
A
100
AcDbEntity
  8
1
  6
solid
 62
     7
100
AcDbCircle
 10
1.829120885578826
 20
0.5257476059827813
 30
0.0
 40
0.020992536097765
100
AcDbArc
 50
59.41178236323603
 51
111.5282943154948
  0
ARC
  5
12B
330
A
100
AcDbEntity
  8
1
  6
solid
 62
     7
100
AcDbCircle
 10
1.84695799771137
 20
0.5338030420089642
 30
0.0
 40
0.0123088415712118
100
AcDbArc
 50
68.75873914804756
 51
125.5393413976979
  0
ARC
  5
12C
330
A
100
AcDbEntity
  8
1
  6
solid
 62
     7
100
AcDbCircle
 10
1.85549028835932
 20
0.5374229467287912
 30
0.0
 40
0.0088460640981793
100
AcDbArc
 50
48.95310642307277
 51
117.4139297949973
  0
LINE
  5
12D
330
A
100
AcDbEntity
  8
1
  6
solid
 62
     7
100
AcDbLine
 10
1.861299276351928
 20
0.5440945029258728
 30
0.0
 11
2.203386068344116
 21
0.5426771640777588
 31
0.0
  0
ARC
  5
12E
330
A
100
AcDbEntity
  8
1
  6
solid
 62
     7
100
AcDbCircle
 10
2.208565959870645
 20
0.2453659465606123
 30
0.0
 40
0.2973563373088837
100
AcDbArc
 50
85.05211485886478
 51
90.99813219883797
  0
ARC
  5
12F
330
A
100
AcDbEntity
  8
1
  6
solid
 62
     7
100
AcDbCircle
 10
2.237486906951346
 20
0.5462440608560369
 30
0.0
 40
0.0056705004535615
100
AcDbArc
 50
234.7335483379351
 51
317.8827481614854
  0
ARC
  5
130
330
A
100
AcDbEntity
  8
1
  6
solid
 62
     7
100
AcDbCircle
 10
2.247505627743276
 20
0.5069167526345787
 30
0.0
 40
0.0359966568648815
100
AcDbArc
 50
68.95324244504202
 51
99.29259781368557
  0
ARC
  5
131
330
A
100
AcDbEntity
  8
1
  6
solid
 62
     7
100
AcDbCircle
 10
2.272981300092614
 20
0.5151192536202128
 30
0.0
 40
0.0283238179981709
100
AcDbArc
 50
64.8033492789365
 51
116.2969206581334
  0
ARC
  5
132
330
A
100
AcDbEntity
  8
1
  6
solid
 62
     7
100
AcDbCircle
 10
2.286543826210587
 20
0.548419882110032
 30
0.0
 40
0.0078179333359003
100
AcDbArc
 50
258.9053965653135
 51
306.3827347502729
  0
ARC
  5
133
330
A
100
AcDbEntity
  8
1
  6
solid
 62
     7
100
AcDbCircle
 10
2.294698055929272
 20
0.5297745276677714
 30
0.0
 40
0.0128423618152738
100
AcDbArc
 50
60.28829370923459
 51
105.8927940237765
  0
LINE
  5
134
330
A
100
AcDbEntity
  8
1
  6
solid
 62
     7
100
AcDbLine
 10
2.301063060760498
 20
0.5409449338912964
 30
0.0
 11
2.357204914093017
 21
0.5400000214576722
 31
0.0
  0
LINE
  5
135
330
A
100
AcDbEntity
  8
1
  6
solid
 62
     7
100
AcDbLine
 10
2.357204914093017
 20
0.5400000214576722
 30
0.0
 11
2.653661489486694
 21
0.5390945076942444
 31
0.0
  0
LINE
  5
136
330
A
100
AcDbEntity
  8
1
  6
solid
 62
     7
100
AcDbLine
 10
2.653661489486694
 20
0.5390945076942444
 30
0.0
 11
2.657362222671508
 21
0.5394488573074341
 31
0.0
  0
LINE
  5
137
330
A
100
AcDbEntity
  8
1
  6
solid
 62
     7
100
AcDbLine
 10
2.657362222671508
 20
0.5394488573074341
 30
0.0
 11
2.660827159881591
 21
0.5387795567512513
 31
0.0
  0
ARC
  5
138
330
A
100
AcDbEntity
  8
1
  6
solid
 62
     7
100
AcDbCircle
 10
2.664320475458918
 20
0.60023211512893
 30
0.0
 40
0.0615517683327198
100
AcDbArc
 50
266.7464810532448
 51
279.062988938219
  0
ARC
  5
139
330
A
100
AcDbEntity
  8
1
  6
solid
 62
     7
100
AcDbCircle
 10
2.67950075278274
 20
0.555852205881523
 30
0.0
 40
0.0172960218042135
100
AcDbArc
 50
251.5117167887747
 51
292.5799059849175
  0
LINE
  5
13A
330
A
100
AcDbEntity
  8
1
  6
solid
 62
     7
100
AcDbLine
 10
2.686141967773437
 20
0.5398818850517273
 30
0.0
 11
2.71118140220642
 21
0.5390945076942444
 31
0.0
  0
LINE
  5
13B
330
A
100
AcDbEntity
  8
1
  6
solid
 62
     7
100
AcDbLine
 10
2.71118140220642
 20
0.5390945076942444
 30
0.0
 11
2.715590715408325
 21
0.5373228788375855
 31
0.0
  0
LINE
  5
13C
330
A
100
AcDbEntity
  8
1
  6
solid
 62
     7
100
AcDbLine
 10
2.715590715408325
 20
0.5373228788375855
 30
0.0
 11
2.717047214508056
 21
0.5372047424316407
 31
0.0
  0
ARC
  5
13D
330
A
100
AcDbEntity
  8
1
  6
solid
 62
     7
100
AcDbCircle
 10
2.726680678613092
 20
0.5215250977366092
 30
0.0
 40
0.0184025783091784
100
AcDbArc
 50
58.19965259689595
 51
121.5662749990148
  0
ARC
  5
13E
330
A
100
AcDbEntity
  8
1
  6
solid
 62
     7
100
AcDbCircle
 10
2.743464217835464
 20
0.5267453834760984
 30
0.0
 40
0.0126011334359646
100
AcDbArc
 50
51.55367362879846
 51
124.2172490008152
  0
ARC
  5
13F
330
A
100
AcDbEntity
  8
1
  6
solid
 62
     7
100
AcDbCircle
 10
2.749015666740159
 20
0.5511131672353806
 30
0.0
 40
0.0146776791661978
100
AcDbArc
 50
278.9510728735738
 51
305.0314774456342
  0
ARC
  5
140
330
A
100
AcDbEntity
  8
1
  6
solid
 62
     7
100
AcDbCircle
 10
2.76164562201473
 20
0.5226334511626714
 30
0.0
 40
0.0169895514845848
100
AcDbArc
 50
55.37344667684433
 51
104.3284553076009
  0
ARC
  5
141
330
A
100
AcDbEntity
  8
1
  6
solid
 62
     7
100
AcDbCircle
 10
2.778191587229475
 20
0.5257996473528587
 30
0.0
 40
0.0128239961341024
100
AcDbArc
 50
63.97138101161018
 51
122.5087864629633
  0
LINE
  5
142
330
A
100
AcDbEntity
  8
1
  6
solid
 62
     7
100
AcDbLine
 10
2.783818960189819
 20
0.5373228788375855
 30
0.0
 11
2.787992238998413
 21
0.5386220812797547
 31
0.0
  0
ARC
  5
143
330
A
100
AcDbEntity
  8
1
  6
solid
 62
     7
100
AcDbCircle
 10
2.80057984228883
 20
0.5769461195072624
 30
0.0
 40
0.0403383150696755
100
AcDbArc
 50
251.8171355277009
 51
280.1905985286747
  0
ARC
  5
144
330
A
100
AcDbEntity
  8
1
  6
solid
 62
     7
100
AcDbCircle
 10
2.817153327321365
 20
0.5150433162586979
 30
0.0
 40
0.024123189970851
100
AcDbArc
 50
63.40499098978146
 51
113.0284838949855
  0
ARC
  5
145
330
A
100
AcDbEntity
  8
1
  6
solid
 62
     7
100
AcDbCircle
 10
2.825478713740595
 20
0.5522771004828381
 30
0.0
 40
0.0158570688217878
100
AcDbArc
 50
278.9764265357729
 51
303.7636304111397
  0
ARC
  5
146
330
A
100
AcDbEntity
  8
1
  6
solid
 62
     7
100
AcDbCircle
 10
2.836635844670292
 20
0.528950979673639
 30
0.0
 40
0.0104109225794673
100
AcDbArc
 50
52.0965063281798
 51
103.0137736659677
  0
ARC
  5
147
330
A
100
AcDbEntity
  8
1
  6
solid
 62
     7
100
AcDbCircle
 10
2.850133590100702
 20
0.5266886529694799
 30
0.0
 40
0.0126570109277964
100
AcDbArc
 50
58.15826165052568
 51
124.132431711702
  0
ARC
  5
148
330
A
100
AcDbEntity
  8
1
  6
solid
 62
     7
100
AcDbCircle
 10
2.864976535733553
 20
0.5865677072330334
 30
0.0
 40
0.0498006343841553
100
AcDbArc
 50
260.5632474014157
 51
288.4634329344209
  0
LINE
  5
149
330
A
100
AcDbEntity
  8
1
  6
solid
 62
     7
100
AcDbLine
 10
2.880748271942138
 20
0.5393307209014893
 30
0.0
 11
2.884488582611083
 21
0.5374410152435303
 31
0.0
  0
ARC
  5
14A
330
A
100
AcDbEntity
  8
1
  6
solid
 62
     7
100
AcDbCircle
 10
2.965035867377557
 20
3.569729265657399
 30
0.0
 40
3.033357858657836
100
AcDbArc
 50
268.4783984607066
 51
271.3744633421457
  0
ARC
  5
14B
330
A
100
AcDbEntity
  8
1
  6
solid
 62
     7
100
AcDbCircle
 10
3.040163062345045
 20
0.5925152002246202
 30
0.0
 40
0.055321741849184
100
AcDbArc
 50
267.5472524315371
 51
282.1132694592766
  0
ARC
  5
14C
330
A
100
AcDbEntity
  8
1
  6
solid
 62
     7
100
AcDbCircle
 10
3.047749325613424
 20
0.5417281868806451
 30
0.0
 40
0.0052048643119633
100
AcDbArc
 50
320.610063187639
 51
400.0727776897017
  0
ARC
  5
14D
330
A
100
AcDbEntity
  8
1
  6
solid
 62
     7
100
AcDbCircle
 10
3.086297363502308
 20
0.5668762909343857
 30
0.0
 40
0.0408641174435616
100
AcDbArc
 50
180.0000084240509
 51
212.2364898158005
  0
ARC
  5
14E
330
A
100
AcDbEntity
  8
1
  6
solid
 62
     7
100
AcDbCircle
 10
3.09032295846373
 20
0.5847079449435123
 30
0.0
 40
0.0482966713607311
100
AcDbArc
 50
174.5544488629615
 51
201.6496829419024
  0
ARC
  5
14F
330
A
100
AcDbEntity
  8
1
  6
solid
 62
     7
100
AcDbCircle
 10
3.035563369256592
 20
0.5893035404713714
 30
0.0
 40
0.0066808378323913
100
AcDbArc
 50
359.8953168783147
 51
450.4405050823432
  0
ARC
  5
150
330
A
100
AcDbEntity
  8
1
  6
solid
 62
     7
100
AcDbCircle
 10
3.028771668229285
 20
0.6055839859159436
 30
0.0
 40
0.0117297070100904
100
AcDbArc
 50
230.1786795955612
 51
305.0740875807713
  0
ARC
  5
151
330
A
100
AcDbEntity
  8
1
  6
solid
 62
     7
100
AcDbCircle
 10
3.012929564140661
 20
0.61211736855494
 30
0.0
 40
0.0176342464983463
100
AcDbArc
 50
241.8362244897909
 51
298.1903497276657
  0
ARC
  5
152
330
A
100
AcDbEntity
  8
1
  6
solid
 62
     7
100
AcDbCircle
 10
3.010255538916123
 20
0.5425347388286371
 30
0.0
 40
0.0543345622718334
100
AcDbArc
 50
95.96770953704755
 51
106.7389281034414
  0
LINE
  5
153
330
A
100
AcDbEntity
  8
1
  6
solid
 62
     7
100
AcDbLine
 10
2.994606494903564
 20
0.5945670008659363
 30
0.0
 11
2.991614580154418
 21
0.5955905914306641
 31
0.0
  0
ARC
  5
154
330
A
100
AcDbEntity
  8
1
  6
solid
 62
     7
100
AcDbCircle
 10
2.867816398382224
 20
-3.817218751830351
 30
0.0
 40
4.414545536041259
100
AcDbArc
 50
88.39302974750342
 51
90.59760627737043
  0
ARC
  5
155
330
A
100
AcDbEntity
  8
1
  6
solid
 62
     7
100
AcDbCircle
 10
2.815799906102784
 20
0.5715203260495388
 30
0.0
 40
0.0262545049190521
100
AcDbArc
 50
76.85218888052709
 51
107.3901661502346
  0
ARC
  5
156
330
A
100
AcDbEntity
  8
1
  6
solid
 62
     7
100
AcDbCircle
 10
2.810406543256296
 20
0.6182921469440047
 30
0.0
 40
0.0218554474413395
100
AcDbArc
 50
241.4488434808245
 51
263.5545697295577
  0
ARC
  5
157
330
A
100
AcDbEntity
  8
1
  6
solid
 62
     7
100
AcDbCircle
 10
2.794653615208672
 20
0.5784403653042406
 30
0.0
 40
0.0213251132518053
100
AcDbArc
 50
75.58919128034336
 51
116.9152610987892
  0
ARC
  5
158
330
A
100
AcDbEntity
  8
1
  6
solid
 62
     7
100
AcDbCircle
 10
2.78234115287837
 20
0.6117797754479555
 30
0.0
 40
0.0145832495763898
100
AcDbArc
 50
236.3116669607611
 51
280.5063342683423
  0
ARC
  5
159
330
A
100
AcDbEntity
  8
1
  6
solid
 62
     7
100
AcDbCircle
 10
2.771549147998364
 20
0.5871316859123161
 30
0.0
 40
0.0128026464954019
100
AcDbArc
 50
77.81139332680701
 51
122.6303399245274
  0
LINE
  5
15A
330
A
100
AcDbEntity
  8
1
  6
solid
 62
     7
100
AcDbLine
 10
2.764645814895629
 20
0.5979133844375611
 30
0.0
 11
2.761614322662353
 21
0.5988976955413819
 31
0.0
  0
LINE
  5
15B
330
A
100
AcDbEntity
  8
1
  6
solid
 62
     7
100
AcDbLine
 10
2.761614322662353
 20
0.5988976955413819
 30
0.0
 11
2.741732597351074
 21
0.5998425483703614
 31
0.0
  0
LINE
  5
15C
330
A
100
AcDbEntity
  8
1
  6
solid
 62
     7
100
AcDbLine
 10
2.741732597351074
 20
0.5998425483703614
 30
0.0
 11
2.638464927673339
 21
0.6003937721252442
 31
0.0
  0
LINE
  5
15D
330
A
100
AcDbEntity
  8
1
  6
solid
 62
     7
100
AcDbLine
 10
2.638464927673339
 20
0.6003937721252442
 30
0.0
 11
2.63149619102478
 21
0.601063072681427
 31
0.0
  0
ARC
  5
15E
330
A
100
AcDbEntity
  8
1
  6
solid
 62
     7
100
AcDbCircle
 10
2.623391305440856
 20
0.6286011684769815
 30
0.0
 40
0.0287060253322125
100
AcDbArc
 50
252.2622896917619
 51
286.3999678993629
  0
ARC
  5
15F
330
A
100
AcDbEntity
  8
1
  6
solid
 62
     7
100
AcDbCircle
 10
2.608260155872381
 20
0.6198457227581392
 30
0.0
 40
0.0196521934121847
100
AcDbArc
 50
242.3297193177027
 51
288.961261517361
  0
ARC
  5
160
330
A
100
AcDbEntity
  8
1
  6
solid
 62
     7
100
AcDbCircle
 10
2.592586144980047
 20
0.5789654562661784
 30
0.0
 40
0.0243716817349196
100
AcDbArc
 50
74.41456266764125
 51
116.5481247705227
  0
ARC
  5
161
330
A
100
AcDbEntity
  8
1
  6
solid
 62
     7
100
AcDbCircle
 10
2.579653663729803
 20
0.612950588625639
 30
0.0
 40
0.0123717924579978
100
AcDbArc
 50
238.2843075553309
 51
279.4886087612538
  0
ARC
  5
162
330
A
100
AcDbEntity
  8
1
  6
solid
 62
     7
100
AcDbCircle
 10
2.563476569956911
 20
0.5399551828546312
 30
0.0
 40
0.0632301196455956
100
AcDbArc
 50
81.20018485331966
 51
104.1752849003688
  0
LINE
  5
163
330
A
100
AcDbEntity
  8
1
  6
solid
 62
     7
100
AcDbLine
 10
2.547992229461669
 20
0.6012598872184754
 30
0.0
 11
2.545000314712524
 21
0.6022441387176514
 31
0.0
  0
LINE
  5
164
330
A
100
AcDbEntity
  8
1
  6
solid
 62
     7
100
AcDbLine
 10
2.545000314712524
 20
0.6022441387176514
 30
0.0
 11
2.515472650527954
 21
0.6031890511512757
 31
0.0
  0
LINE
  5
165
330
A
100
AcDbEntity
  8
1
  6
solid
 62
     7
100
AcDbLine
 10
2.515472650527954
 20
0.6031890511512757
 30
0.0
 11
2.369567155838012
 21
0.6036614775657654
 31
0.0
  0
LINE
  5
166
330
A
100
AcDbEntity
  8
1
  6
solid
 62
     7
100
AcDbLine
 10
2.369567155838012
 20
0.6036614775657654
 30
0.0
 11
2.358543395996093
 21
0.6038582921028138
 31
0.0
  0
LINE
  5
167
330
A
100
AcDbEntity
  8
1
  6
solid
 62
     7
100
AcDbLine
 10
2.358543395996093
 20
0.6038582921028138
 30
0.0
 11
2.3543701171875
 21
0.6057480573654175
 31
0.0
  0
LINE
  5
168
330
A
100
AcDbEntity
  8
1
  6
solid
 62
     7
100
AcDbLine
 10
2.3543701171875
 20
0.6057480573654175
 30
0.0
 11
2.352165460586547
 21
0.6058661937713623
 31
0.0
  0
ARC
  5
169
330
A
100
AcDbEntity
  8
1
  6
solid
 62
     7
100
AcDbCircle
 10
2.347181722120061
 20
0.6144672838158539
 30
0.0
 40
0.0099406437948346
100
AcDbArc
 50
239.9566691283247
 51
300.089333562226
  0
ARC
  5
16A
330
A
100
AcDbEntity
  8
1
  6
solid
 62
     7
100
AcDbCircle
 10
2.334780208787439
 20
0.6274147672480148
 30
0.0
 40
0.0227918680757284
100
AcDbArc
 50
246.1143544575634
 51
289.0120508040293
  0
ARC
  5
16B
330
A
100
AcDbEntity
  8
1
  6
solid
 62
     7
100
AcDbCircle
 10
2.328978339665672
 20
0.5576214152015363
 30
0.0
 40
0.0490732304751873
100
AcDbArc
 50
94.00455607523499
 51
106.9336226457326
  0
LINE
  5
16C
330
A
100
AcDbEntity
  8
1
  6
solid
 62
     7
100
AcDbLine
 10
2.314685106277465
 20
0.6045669913291932
 30
0.0
 11
2.311692953109741
 21
0.6055905818939209
 31
0.0
  0
ARC
  5
16D
330
A
100
AcDbEntity
  8
1
  6
solid
 62
     7
100
AcDbCircle
 10
2.216373032602555
 20
-2.100421105395442
 30
0.0
 40
2.707690000534057
100
AcDbArc
 50
87.98257635952067
 51
90.79550417838239
  0
ARC
  5
16E
330
A
100
AcDbEntity
  8
1
  6
solid
 62
     7
100
AcDbCircle
 10
2.173702148494412
 20
0.5804721947032859
 30
0.0
 40
0.0270171295851469
100
AcDbArc
 50
79.16772546199897
 51
104.9500332579234
  0
ARC
  5
16F
330
A
100
AcDbEntity
  8
1
  6
solid
 62
     7
100
AcDbCircle
 10
2.163273043186134
 20
0.6401082390105147
 30
0.0
 40
0.0337113849818707
100
AcDbArc
 50
246.0839191346218
 51
275.8901372574109
  0
ARC
  5
170
330
A
100
AcDbEntity
  8
1
  6
solid
 62
     7
100
AcDbCircle
 10
2.145355182287599
 20
0.6150161997346487
 30
0.0
 40
0.0071307108737528
100
AcDbArc
 50
239.0981689911675
 51
306.5977661808178
  0
LINE
  5
171
330
A
100
AcDbEntity
  8
1
  6
solid
 62
     7
100
AcDbLine
 10
2.141693115234375
 20
0.6088976860046387
 30
0.0
 11
2.120748281478881
 21
0.6098425388336182
 31
0.0
  0
LINE
  5
172
330
A
100
AcDbEntity
  8
1
  6
solid
 62
     7
100
AcDbLine
 10
2.120748281478881
 20
0.6098425388336182
 30
0.0
 11
2.018543481826782
 21
0.6103543639183045
 31
0.0
  0
LINE
  5
173
330
A
100
AcDbEntity
  8
1
  6
solid
 62
     7
100
AcDbLine
 10
2.018543481826782
 20
0.6103543639183045
 30
0.0
 11
2.011102437973022
 21
0.6105905771255494
 31
0.0
  0
LINE
  5
174
330
A
100
AcDbEntity
  8
1
  6
solid
 62
     7
100
AcDbLine
 10
2.011102437973022
 20
0.6105905771255494
 30
0.0
 11
2.006771802902221
 21
0.6099212765693665
 31
0.0
  0
ARC
  5
175
330
A
100
AcDbEntity
  8
1
  6
solid
 62
     7
100
AcDbCircle
 10
2.00821899816437
 20
0.7703457467104351
 30
0.0
 40
0.1604309976100922
100
AcDbArc
 50
258.2653702740428
 51
269.4831466083721
  0
ARC
  5
176
330
A
100
AcDbEntity
  8
1
  6
solid
 62
     7
100
AcDbCircle
 10
1.980154373646658
 20
0.5584652564152848
 30
0.0
 40
0.054992213845253
100
AcDbArc
 50
94.76030967670771
 51
106.2522498043213
  0
LINE
  5
177
330
A
100
AcDbEntity
  8
1
  6
solid
 62
     7
100
AcDbLine
 10
1.964763879776
 20
0.6112598776817322
 30
0.0
 11
1.961732387542724
 21
0.6122441291809082
 31
0.0
  0
ARC
  5
178
330
A
100
AcDbEntity
  8
1
  6
solid
 62
     7
100
AcDbCircle
 10
1.831839235055167
 20
-3.42712749858983
 30
0.0
 40
4.041459560394287
100
AcDbArc
 50
88.15818735327088
 51
90.87729569369328
  0
ARC
  5
179
330
A
100
AcDbEntity
  8
1
  6
solid
 62
     7
100
AcDbCircle
 10
1.767302500741349
 20
0.7222355414671826
 30
0.0
 40
0.1084097921848297
100
AcDbArc
 50
261.847503965391
 51
271.4049979162737
  0
ARC
  5
17A
330
A
100
AcDbEntity
  8
1
  6
solid
 62
     7
100
AcDbCircle
 10
1.749081957815171
 20
0.6109040875230724
 30
0.0
 40
0.004923855420202
100
AcDbArc
 50
54.67263853214975
 51
132.6152671136694
  0
ARC
  5
17B
330
A
100
AcDbEntity
  8
1
  6
solid
 62
     7
100
AcDbCircle
 10
1.744369013100403
 20
0.578037621973234
 30
0.0
 40
0.0365160740911961
100
AcDbArc
 50
87.83552238669029
 51
105.2503293549721
  0
ARC
  5
17C
330
A
100
AcDbEntity
  8
1
  6
solid
 62
     7
100
AcDbCircle
 10
1.735827291272306
 20
0.6274125715052238
 30
0.0
 40
0.0141847021877766
100
AcDbArc
 50
235.3187760214947
 51
265.7009703366126
  0
ARC
  5
17D
330
A
100
AcDbEntity
  8
1
  6
solid
 62
     7
100
AcDbCircle
 10
1.726180133108876
 20
0.6067657123845329
 30
0.0
 40
0.0091195274144411
100
AcDbArc
 50
80.04911356306493
 51
121.1937735571553
  0
LINE
  5
17E
330
A
100
AcDbEntity
  8
1
  6
solid
 62
     7
100
AcDbLine
 10
1.72145676612854
 20
0.61456698179245
 30
0.0
 11
1.718425273895263
 21
0.6155905723571778
 31
0.0
  0
ARC
  5
17F
330
A
100
AcDbEntity
  8
1
  6
solid
 62
     7
100
AcDbCircle
 10
1.599828131820191
 20
-3.444033526766998
 30
0.0
 40
4.06135606765747
100
AcDbArc
 50
88.32664713896006
 51
90.43636600163393
  0
ARC
  5
180
330
A
100
AcDbEntity
  8
1
  6
solid
 62
     7
100
AcDbCircle
 10
1.566955693393813
 20
0.7015760955414788
 30
0.0
 40
0.0843936577439308
100
AcDbArc
 50
255.363086291921
 51
271.3185823628947
  0
ARC
  5
181
330
A
100
AcDbEntity
  8
1
  6
solid
 62
     7
100
AcDbCircle
 10
1.54739837508393
 20
0.5844458215407429
 30
0.0
 40
0.0355194881558418
100
AcDbArc
 50
92.85355308687194
 51
110.4971987131059
  0
LINE
  5
182
330
A
100
AcDbEntity
  8
1
  6
solid
 62
     7
100
AcDbLine
 10
1.534960746765136
 20
0.6177165508270264
 30
0.0
 11
1.524448871612548
 21
0.6174015998840332
 31
0.0
  0
LINE
  5
183
330
A
100
AcDbEntity
  8
1
  6
solid
 62
     7
100
AcDbLine
 10
1.524448871612548
 20
0.6174015998840332
 30
0.0
 11
1.52161431312561
 21
0.6190944910049439
 31
0.0
  0
ARC
  5
184
330
A
100
AcDbEntity
  8
1
  6
solid
 62
     7
100
AcDbCircle
 10
1.423862329703264
 20
-2.687358183861049
 30
0.0
 40
3.307897329330444
100
AcDbArc
 50
88.30660053374607
 51
90.60562491945603
  0
ARC
  5
185
330
A
100
AcDbEntity
  8
1
  6
solid
 62
     7
100
AcDbCircle
 10
1.383668366514385
 20
0.5778357987174784
 30
0.0
 40
0.0428389199078083
100
AcDbArc
 50
82.98849230256909
 51
100.7615836739531
  0
ARC
  5
186
330
A
100
AcDbEntity
  8
1
  6
solid
 62
     7
100
AcDbCircle
 10
1.375690088259562
 20
0.6337257402858671
 30
0.0
 40
0.0138044888153672
100
AcDbArc
 50
235.1172581202227
 51
269.9139676204599
  0
ARC
  5
187
330
A
100
AcDbEntity
  8
1
  6
solid
 62
     7
100
AcDbCircle
 10
1.366087144465295
 20
0.6138787505525732
 30
0.0
 40
0.0086923437193036
100
AcDbArc
 50
78.66657399202762
 51
121.8816282480889
  0
LINE
  5
188
330
A
100
AcDbEntity
  8
1
  6
solid
 62
     7
100
AcDbLine
 10
1.361496090888977
 20
0.6212598681449891
 30
0.0
 11
1.3584645986557
 21
0.6222441196441651
 31
0.0
  0
LINE
  5
189
330
A
100
AcDbEntity
  8
1
  6
solid
 62
     7
100
AcDbLine
 10
1.3584645986557
 20
0.6222441196441651
 30
0.0
 11
1.321496129035949
 21
0.6231890320777893
 31
0.0
  0
LINE
  5
18A
330
A
100
AcDbEntity
  8
1
  6
solid
 62
     7
100
AcDbLine
 10
1.321496129035949
 20
0.6231890320777893
 30
0.0
 11
1.125944972038269
 21
0.6240945458412171
 31
0.0
  0
LINE
  5
18B
330
A
100
AcDbEntity
  8
1
  6
solid
 62
     7
100
AcDbLine
 10
1.125944972038269
 20
0.6240945458412171
 30
0.0
 11
1.121535539627075
 21
0.6232677102088929
 31
0.0
  0
LINE
  5
18C
330
A
100
AcDbEntity
  8
1
  6
solid
 62
     7
100
AcDbLine
 10
1.121535539627075
 20
0.6232677102088929
 30
0.0
 11
1.117677211761474
 21
0.6240945458412171
 31
0.0
  0
ARC
  5
18D
330
A
100
AcDbEntity
  8
1
  6
solid
 62
     7
100
AcDbCircle
 10
1.110964921699683
 20
0.6163177823654311
 30
0.0
 40
0.0102729201316834
100
AcDbArc
 50
49.20182434660421
 51
126.5818912273249
  0
LINE
  5
18E
330
A
100
AcDbEntity
  8
1
  6
solid
 62
     7
100
AcDbLine
 10
1.104842543601989
 20
0.6245669722557068
 30
0.0
 11
1.101850509643554
 21
0.6255905628204346
 31
0.0
  0
LINE
  5
18F
330
A
100
AcDbEntity
  8
1
  6
solid
 62
     7
100
AcDbLine
 10
1.101850509643554
 20
0.6255905628204346
 30
0.0
 11
0.9312599301338195
 21
0.6272047758102417
 31
0.0
  0
ARC
  5
190
330
A
100
AcDbEntity
  8
1
  6
solid
 62
     7
100
AcDbCircle
 10
0.9261191785701106
 20
0.6698112306736207
 30
0.0
 40
0.0429154671728611
100
AcDbArc
 50
251.4142534044132
 51
276.8798589889024
  0
ARC
  5
191
330
A
100
AcDbEntity
  8
1
  6
solid
 62
     7
100
AcDbCircle
 10
0.9052869733425243
 20
0.6410899162177595
 30
0.0
 40
0.0139329200610519
100
AcDbArc
 50
241.0526959240583
 51
300.8945035823438
  0
ARC
  5
192
330
A
100
AcDbEntity
  8
1
  6
solid
 62
     7
100
AcDbCircle
 10
0.8017187578313722
 20
-1.619631334794512
 30
0.0
 40
2.250612735748291
100
AcDbArc
 50
87.53429055372523
 51
91.17039255791345
  0
ARC
  5
193
330
A
100
AcDbEntity
  8
1
  6
solid
 62
     7
100
AcDbCircle
 10
0.7540470920154706
 20
0.6992059483932783
 30
0.0
 40
0.0687151253223419
100
AcDbArc
 50
259.8094301585726
 51
271.4184670493169
  0
ARC
  5
194
330
A
100
AcDbEntity
  8
1
  6
solid
 62
     7
100
AcDbCircle
 10
0.7382738316291667
 20
0.6285601845523673
 30
0.0
 40
0.0047078062780201
100
AcDbArc
 50
39.81762595534318
 51
118.0084909320577
  0
ARC
  5
195
330
A
100
AcDbEntity
  8
1
  6
solid
 62
     7
100
AcDbCircle
 10
0.7301339128432277
 20
0.6391709445286472
 30
0.0
 40
0.0087643275037408
100
AcDbArc
 50
230.5668255857147
 51
312.5714769496676
  0
LINE
  5
196
330
A
100
AcDbEntity
  8
1
  6
solid
 62
     7
100
AcDbLine
 10
0.7245669960975647
 20
0.6324016451835633
 30
0.0
 11
0.7217323184013367
 21
0.6323228478431702
 31
0.0
  0
LINE
  5
197
330
A
100
AcDbEntity
  8
1
  6
solid
 62
     7
100
AcDbLine
 10
0.7217323184013367
 20
0.6323228478431702
 30
0.0
 11
0.7199212908744812
 21
0.6289370059967041
 31
0.0
  0
ARC
  5
198
330
A
100
AcDbEntity
  8
1
  6
solid
 62
     7
100
AcDbCircle
 10
0.7231939704347577
 20
0.5338084106168381
 30
0.0
 40
0.0049777547828853
100
AcDbArc
 50
131.1065193071486
 51
219.0956458180833
  0
ARC
  5
199
330
A
100
AcDbEntity
  8
1
  6
solid
 62
     7
100
AcDbCircle
 10
0.7004769347975404
 20
0.3060976720863389
 30
0.0
 40
0.225361704826355
100
AcDbArc
 50
81.02608034316828
 51
85.20100231060048
  0
ARC
  5
19A
330
A
100
AcDbEntity
  8
1
  6
solid
 62
     7
100
AcDbCircle
 10
0.7523119222642314
 20
0.43558977247103
 30
0.0
 40
0.0945936366915703
100
AcDbArc
 50
79.8290482831017
 51
100.1574500267709
  0
ARC
  5
19B
330
A
100
AcDbEntity
  8
1
  6
solid
 62
     7
100
AcDbCircle
 10
0.7784746630838111
 20
0.4926821262105757
 30
0.0
 40
0.037239994853735
100
AcDbArc
 50
74.81621535687843
 51
104.7142039013557
  0
ARC
  5
19C
330
A
100
AcDbEntity
  8
1
  6
solid
 62
     7
100
AcDbCircle
 10
0.7931571473755131
 20
0.512874824340333
 30
0.0
 40
0.0165005587041378
100
AcDbArc
 50
57.88481161200963
 51
107.3794598287106
  0
ARC
  5
19D
330
A
100
AcDbEntity
  8
1
  6
solid
 62
     7
100
AcDbCircle
 10
0.804478942233835
 20
0.5401120549212203
 30
0.0
 40
0.0135044865310192
100
AcDbArc
 50
259.1167226182337
 51
301.6982085268846
  0
LINE
  5
19E
330
A
100
AcDbEntity
  8
1
  6
solid
 62
     7
100
AcDbLine
 10
0.8115748167037963
 20
0.5286220908164978
 30
0.0
 11
0.8145669698715209
 21
0.5275985002517701
 31
0.0
  0
ARC
  5
19F
330
A
100
AcDbEntity
  8
1
  6
solid
 62
     7
100
AcDbCircle
 10
1.055238987698304
 20
17.74675137861979
 30
0.0
 40
17.22083473205566
100
AcDbArc
 50
269.199229304953
 51
270.2930258304792
  0
LINE
  5
1A0
330
A
100
AcDbEntity
  8
1
  6
solid
 62
     7
100
AcDbLine
 10
1.143307089805603
 20
0.5261417627334595
 30
0.0
 11
1.159488320350646
 21
0.5252756476402283
 31
0.0
  0
LINE
  5
1A1
330
A
100
AcDbEntity
  8
1
  6
solid
 62
     7
100
AcDbLine
 10
1.159488320350646
 20
0.5252756476402283
 30
0.0
 11
1.160826802253723
 21
0.5266141891479493
 31
0.0
  0
LINE
  5
1A2
330
A
100
AcDbEntity
  8
1
  6
solid
 62
     7
100
AcDbLine
 10
1.160826802253723
 20
0.5266141891479493
 30
0.0
 11
1.20082688331604
 21
0.5257480740547181
 31
0.0
  0
LINE
  5
1A3
330
A
100
AcDbEntity
  8
1
  6
solid
 62
     7
100
AcDbLine
 10
1.20082688331604
 20
0.5257480740547181
 30
0.0
 11
1.207834720611572
 21
0.5266141891479493
 31
0.0
  0
ARC
  5
1A4
330
A
100
AcDbEntity
  8
1
  6
solid
 62
     7
100
AcDbCircle
 10
1.215640734618189
 20
0.4780999503935222
 30
0.0
 40
0.0491382256150246
100
AcDbArc
 50
72.33557261259985
 51
99.14063293484197
  0
LINE
  5
1A5
330
A
100
AcDbEntity
  8
1
  6
solid
 62
     7
100
AcDbLine
 10
1.230551242828369
 20
0.5249212980270386
 30
0.0
 11
1.232204794883728
 21
0.5232677459716797
 31
0.0
  0
LINE
  5
1A6
330
A
100
AcDbEntity
  8
1
  6
solid
 62
     7
100
AcDbLine
 10
1.232204794883728
 20
0.5232677459716797
 30
0.0
 11
1.738307237625122
 21
0.5228346586227417
 31
0.0
  0
ARC
  5
1A7
330
A
100
AcDbEntity
  8
1
  6
solid
 62
     7
100
AcDbCircle
 10
1.770714553666279
 20
-0.5828548568190096
 30
0.0
 40
1.106164336204528
100
AcDbArc
 50
88.06265050914214
 51
91.67883568171061
  0
ARC
  5
1A8
330
A
100
AcDbEntity
  8
1
  6
solid
 62
     7
100
AcDbCircle
 10
1.793797278992745
 20
0.3844910041169593
 30
0.0
 40
0.1389254629611969
100
AcDbArc
 50
77.12050987386328
 51
84.08649302297282
  0
ARC
  5
1A9
330
A
100
AcDbEntity
  8
1
  6
solid
 62
     7
100
AcDbCircle
 10
1.819914567713033
 20
0.5975156994733677
 30
0.0
 40
0.0777457803487778
100
AcDbArc
 50
273.5760964873672
 51
283.5351782406899
  0
LINE
  5
1AA
330
A
100
AcDbEntity
  8
1
  6
solid
 62
     7
100
AcDbLine
 10
1.838110446929931
 20
0.5219292044639588
 30
0.0
 11
1.84527575969696
 21
0.5202362537384034
 31
0.0
  0
ARC
  5
1AB
330
A
100
AcDbEntity
  8
1
  6
solid
 62
     7
100
AcDbCircle
 10
1.858406739688684
 20
0.6550301603182581
 30
0.0
 40
0.1354319751262665
100
AcDbArc
 50
264.4360739438396
 51
280.6454891273976
  0
LINE
  5
1AC
330
A
100
AcDbEntity
  8
1
  6
solid
 62
     7
100
AcDbLine
 10
1.883425235748291
 20
0.5219292044639588
 30
0.0
 11
1.885433197021484
 21
0.5199213027954102
 31
0.0
  0
LINE
  5
1AD
330
A
100
AcDbEntity
  8
1
  6
solid
 62
     7
100
AcDbLine
 10
1.885433197021484
 20
0.5199213027954102
 30
0.0
 11
2.290866374969482
 21
0.5194488167762757
 31
0.0
  0
LINE
  5
1AE
330
A
100
AcDbEntity
  8
1
  6
solid
 62
     7
100
AcDbLine
 10
2.290866374969482
 20
0.5194488167762757
 30
0.0
 11
2.304685115814208
 21
0.5166141986846924
 31
0.0
  0
LINE
  5
1AF
330
A
100
AcDbEntity
  8
1
  6
solid
 62
     7
100
AcDbLine
 10
2.304685115814208
 20
0.5166141986846924
 30
0.0
 11
2.30905532836914
 21
0.5172441005706787
 31
0.0
  0
ARC
  5
1B0
330
A
100
AcDbEntity
  8
1
  6
solid
 62
     7
100
AcDbCircle
 10
2.31896182727879
 20
0.4882115520756631
 30
0.0
 40
0.0306761730462313
100
AcDbArc
 50
67.80219847554396
 51
108.8406900091756
  0
ARC
  5
1B1
330
A
100
AcDbEntity
  8
1
  6
solid
 62
     7
100
AcDbCircle
 10
2.326673466327148
 20
0.5472381464425294
 30
0.0
 40
0.0308685023337603
100
AcDbArc
 50
277.2169698055776
 51
296.7988045522077
  0
ARC
  5
1B2
330
A
100
AcDbEntity
  8
1
  6
solid
 62
     7
100
AcDbCircle
 10
2.346117518483694
 20
0.4648060119670095
 30
0.0
 40
0.0551566742360592
100
AcDbArc
 50
78.11135815968104
 51
95.7507963893863
  0
ARC
  5
1B3
330
A
100
AcDbEntity
  8
1
  6
solid
 62
     7
100
AcDbCircle
 10
2.359499223680767
 20
0.5098948981515222
 30
0.0
 40
0.0091111799702048
100
AcDbArc
 50
57.6823784653888
 51
102.8023724809666
  0
LINE
  5
1B4
330
A
100
AcDbEntity
  8
1
  6
solid
 62
     7
100
AcDbLine
 10
2.364370346069335
 20
0.5175984501838684
 30
0.0
 11
2.764015913009643
 21
0.5161417722702027
 31
0.0
  0
ARC
  5
1B5
330
A
100
AcDbEntity
  8
1
  6
solid
 62
     7
100
AcDbCircle
 10
2.768154410980579
 20
0.5255804437868925
 30
0.0
 40
0.0103060994297266
100
AcDbArc
 50
246.3243793594467
 51
290.7835662332042
  0
ARC
  5
1B6
330
A
100
AcDbEntity
  8
1
  6
solid
 62
     7
100
AcDbCircle
 10
2.777152124008579
 20
0.4949704833679166
 30
0.0
 40
0.0216437298804522
100
AcDbArc
 50
69.74332457728324
 51
104.2860603234227
  0
ARC
  5
1B7
330
A
100
AcDbEntity
  8
1
  6
solid
 62
     7
100
AcDbCircle
 10
2.789168464671652
 20
0.5037294164541273
 30
0.0
 40
0.0124003561213613
100
AcDbArc
 50
54.45142578040597
 51
111.3904064565305
  0
LINE
  5
1B8
330
A
100
AcDbEntity
  8
1
  6
solid
 62
     7
100
AcDbLine
 10
2.796377897262573
 20
0.5138189196586609
 30
0.0
 11
2.803858518600463
 21
0.5163386464118958
 31
0.0
  0
ARC
  5
1B9
330
A
100
AcDbEntity
  8
1
  6
solid
 62
     7
100
AcDbCircle
 10
2.811501131882905
 20
0.4620256556400749
 30
0.0
 40
0.0548480674624443
100
AcDbArc
 50
76.1336222439905
 51
98.00974485358461
  0
ARC
  5
1BA
330
A
100
AcDbEntity
  8
1
  6
solid
 62
     7
100
AcDbCircle
 10
2.83629079784244
 20
0.4651373344998259
 30
0.0
 40
0.051472831517458
100
AcDbArc
 50
76.90482573336581
 51
103.0756073685238
  0
ARC
  5
1BB
330
A
100
AcDbEntity
  8
1
  6
solid
 62
     7
100
AcDbCircle
 10
2.856034832699783
 20
0.4895064926531571
 30
0.0
 40
0.0270066931843758
100
AcDbArc
 50
62.87832193307094
 51
107.4125589254285
  0
ARC
  5
1BC
330
A
100
AcDbEntity
  8
1
  6
solid
 62
     7
100
AcDbCircle
 10
2.869422012770921
 20
0.5325780699436593
 30
0.0
 40
0.0190650522708893
100
AcDbArc
 50
266.7666437716746
 51
301.5921766702093
  0
ARC
  5
1BD
330
A
100
AcDbEntity
  8
1
  6
solid
 62
     7
100
AcDbCircle
 10
2.88105768099046
 20
0.5041106641402894
 30
0.0
 40
0.0123385526239872
100
AcDbArc
 50
54.01544114530572
 51
97.67626086735873
  0
ARC
  5
1BE
330
A
100
AcDbEntity
  8
1
  6
solid
 62
     7
100
AcDbCircle
 10
2.889889982777912
 20
0.5232007697362994
 30
0.0
 40
0.0092427460476756
100
AcDbArc
 50
260.1405679748186
 51
300.9666679460195
  0
ARC
  5
1BF
330
A
100
AcDbEntity
  8
1
  6
solid
 62
     7
100
AcDbCircle
 10
2.90463088734221
 20
0.5390493465001903
 30
0.0
 40
0.0257855635136366
100
AcDbArc
 50
247.2171397254808
 51
292.759703884629
  0
ARC
  5
1C0
330
A
100
AcDbEntity
  8
1
  6
solid
 62
     7
100
AcDbCircle
 10
2.919553662235491
 20
0.5242262068727309
 30
0.0
 40
0.0102267842739821
100
AcDbArc
 50
241.0701333970094
 51
309.5332790332517
  0
ARC
  5
1C1
330
A
100
AcDbEntity
  8
1
  6
solid
 62
     7
100
AcDbCircle
 10
2.928175199199981
 20
0.4984366018811141
 30
0.0
 40
0.0180261842906475
100
AcDbArc
 50
69.09798098374377
 51
96.72807351621006
  0
ARC
  5
1C2
330
A
100
AcDbEntity
  8
1
  6
solid
 62
     7
100
AcDbCircle
 10
2.938821704180421
 20
0.5062530871948159
 30
0.0
 40
0.0099586751312017
100
AcDbArc
 50
51.94313101527257
 51
115.0423651717638
  0
ARC
  5
1C3
330
A
100
AcDbEntity
  8
1
  6
solid
 62
     7
100
AcDbCircle
 10
2.946473194559226
 20
0.5219122960021129
 30
0.0
 40
0.0079627055674791
100
AcDbArc
 50
259.0512620852282
 51
305.5471567279702
  0
ARC
  5
1C4
330
A
100
AcDbEntity
  8
1
  6
solid
 62
     7
100
AcDbCircle
 10
2.954587086782436
 20
0.4809921974805226
 30
0.0
 40
0.0346167646348477
100
AcDbArc
 50
68.76276212946871
 51
95.77729069317676
  0
LINE
  5
1C5
330
A
100
AcDbEntity
  8
1
  6
solid
 62
     7
100
AcDbLine
 10
2.967126131057739
 20
0.5132677555084229
 30
0.0
 11
2.974606275558471
 21
0.5152755975723267
 31
0.0
  0
LINE
  5
1C6
330
A
100
AcDbEntity
  8
1
  6
solid
 62
     7
100
AcDbLine
 10
2.974606275558471
 20
0.5152755975723267
 30
0.0
 11
2.977638006210327
 21
0.5142913460731507
 31
0.0
  0
ARC
  5
1C7
330
A
100
AcDbEntity
  8
1
  6
solid
 62
     7
100
AcDbCircle
 10
3.020049417373529
 20
1.084933673925287
 30
0.0
 40
0.5722162127494812
100
AcDbArc
 50
265.7494646797196
 51
271.6431354498939
  0
ARC
  5
1C8
330
A
100
AcDbEntity
  8
1
  6
solid
 62
     7
100
AcDbCircle
 10
3.036448651253703
 20
0.5015927938213718
 30
0.0
 40
0.0113599542528391
100
AcDbArc
 50
51.09510497320755
 51
89.95758019954321
  0
ARC
  5
1C9
330
A
100
AcDbEntity
  8
1
  6
solid
 62
     7
100
AcDbCircle
 10
3.040473487257573
 20
0.5082853208529988
 30
0.0
 40
0.0037790751084685
100
AcDbArc
 50
310.9991368942504
 51
394.6337650923027
  0
LINE
  5
1CA
330
A
100
AcDbEntity
  8
1
  6
solid
 62
     7
100
AcDbLine
 10
3.0429527759552
 20
0.5054330825805664
 30
0.0
 11
3.0429527759552
 21
0.5032677650451661
 31
0.0
  0
LINE
  5
1CB
330
A
100
AcDbEntity
  8
1
  6
solid
 62
     7
100
AcDbLine
 10
3.0429527759552
 20
0.5032677650451661
 30
0.0
 11
2.81433081626892
 21
0.5039370059967041
 31
0.0
  0
ARC
  5
1CC
330
A
100
AcDbEntity
  8
1
  6
solid
 62
     7
100
AcDbCircle
 10
2.804360030620169
 20
0.5574287467299338
 30
0.0
 40
0.0544130764901638
100
AcDbArc
 50
256.1117843079811
 51
280.5586808381413
  0
ARC
  5
1CD
330
A
100
AcDbEntity
  8
1
  6
solid
 62
     7
100
AcDbCircle
 10
2.781604599814965
 20
0.5298883608229924
 30
0.0
 40
0.027077117934823
100
AcDbArc
 50
259.4642870394335
 51
290.97999222845
  0
LINE
  5
1CE
330
A
100
AcDbEntity
  8
1
  6
solid
 62
     7
100
AcDbLine
 10
2.7766535282135
 20
0.5032677650451661
 30
0.0
 11
2.746496200561523
 21
0.5038582682609558
 31
0.0
  0
LINE
  5
1CF
330
A
100
AcDbEntity
  8
1
  6
solid
 62
     7
100
AcDbLine
 10
2.746496200561523
 20
0.5038582682609558
 30
0.0
 11
2.741811275482177
 21
0.5049213171005249
 31
0.0
  0
LINE
  5
1D0
330
A
100
AcDbEntity
  8
1
  6
solid
 62
     7
100
AcDbLine
 10
2.741811275482177
 20
0.5049213171005249
 30
0.0
 11
2.73897647857666
 21
0.5059449076652527
 31
0.0
  0
ARC
  5
1D1
330
A
100
AcDbEntity
  8
1
  6
solid
 62
     7
100
AcDbCircle
 10
2.728293525322744
 20
0.5254882475975648
 30
0.0
 40
0.0222725756466389
100
AcDbArc
 50
266.0824671376091
 51
298.6622884785569
  0
ARC
  5
1D2
330
A
100
AcDbEntity
  8
1
  6
solid
 62
     7
100
AcDbCircle
 10
2.719982582543546
 20
0.5610487531261913
 30
0.0
 40
0.0581784881651402
100
AcDbArc
 50
258.2252907239932
 51
276.701509089295
  0
ARC
  5
1D3
330
A
100
AcDbEntity
  8
1
  6
solid
 62
     7
100
AcDbCircle
 10
2.703230523748384
 20
0.4989817577724961
 30
0.0
 40
0.0070677497424185
100
AcDbArc
 50
46.3355935180163
 51
133.7115602867806
  0
ARC
  5
1D4
330
A
100
AcDbEntity
  8
1
  6
solid
 62
     7
100
AcDbCircle
 10
2.695587719870796
 20
0.5145535334337072
 30
0.0
 40
0.0108167473226786
100
AcDbArc
 50
246.8699099835502
 51
284.7770056695412
  0
ARC
  5
1D5
330
A
100
AcDbEntity
  8
1
  6
solid
 62
     7
100
AcDbCircle
 10
2.682986158122547
 20
0.5296664287002903
 30
0.0
 40
0.0264153741300106
100
AcDbArc
 50
251.5945430777448
 51
288.4329054039255
  0
ARC
  5
1D6
330
A
100
AcDbEntity
  8
1
  6
solid
 62
     7
100
AcDbCircle
 10
2.669640537644672
 20
0.5179731040433353
 30
0.0
 40
0.0142732243984938
100
AcDbArc
 50
249.5172913058472
 51
290.5290358186891
  0
LINE
  5
1D7
330
A
100
AcDbEntity
  8
1
  6
solid
 62
     7
100
AcDbLine
 10
2.664645910263061
 20
0.504606306552887
 30
0.0
 11
2.656496286392211
 21
0.5033071041107178
 31
0.0
  0
ARC
  5
1D8
330
A
100
AcDbEntity
  8
1
  6
solid
 62
     7
100
AcDbCircle
 10
2.643033683586723
 20
0.6632088522814299
 30
0.0
 40
0.1604674756526947
100
AcDbArc
 50
257.3866254561856
 51
274.8125519724363
  0
ARC
  5
1D9
330
A
100
AcDbEntity
  8
1
  6
solid
 62
     7
100
AcDbCircle
 10
2.612720231191971
 20
0.4301822411835548
 30
0.0
 40
0.0765780508518219
100
AcDbArc
 50
93.53961143805388
 51
103.6216092756801
  0
ARC
  5
1DA
330
A
100
AcDbEntity
  8
1
  6
solid
 62
     7
100
AcDbCircle
 10
2.579692355430918
 20
0.4509226249935066
 30
0.0
 40
0.0557380169630051
100
AcDbArc
 50
74.39583428893708
 51
105.6192347022337
  0
ARC
  5
1DB
330
A
100
AcDbEntity
  8
1
  6
solid
 62
     7
100
AcDbCircle
 10
2.548019023863607
 20
0.4462879192498587
 30
0.0
 40
0.0606531165540218
100
AcDbArc
 50
74.05103950944566
 51
105.9625405004861
  0
LINE
  5
1DC
330
A
100
AcDbEntity
  8
1
  6
solid
 62
     7
100
AcDbLine
 10
2.531338930130004
 20
0.504606306552887
 30
0.0
 11
2.528307199478149
 21
0.5055906176567078
 31
0.0
  0
LINE
  5
1DD
330
A
100
AcDbEntity
  8
1
  6
solid
 62
     7
100
AcDbLine
 10
2.528307199478149
 20
0.5055906176567078
 30
0.0
 11
2.482834815979003
 21
0.5065354704856873
 31
0.0
  0
LINE
  5
1DE
330
A
100
AcDbEntity
  8
1
  6
solid
 62
     7
100
AcDbLine
 10
2.482834815979003
 20
0.5065354704856873
 30
0.0
 11
2.242047309875488
 21
0.507440984249115
 31
0.0
  0
LINE
  5
1DF
330
A
100
AcDbEntity
  8
1
  6
solid
 62
     7
100
AcDbLine
 10
2.242047309875488
 20
0.507440984249115
 30
0.0
 11
2.236732482910156
 21
0.5066142082214356
 31
0.0
  0
ARC
  5
1E0
330
A
100
AcDbEntity
  8
1
  6
solid
 62
     7
100
AcDbCircle
 10
2.233745892349014
 20
0.5644280508652288
 30
0.0
 40
0.0578909330070019
100
AcDbArc
 50
258.222148836975
 51
272.9571993862941
  0
ARC
  5
1E1
330
A
100
AcDbEntity
  8
1
  6
solid
 62
     7
100
AcDbCircle
 10
2.218164476549099
 20
0.4561552808209956
 30
0.0
 40
0.0517378151416779
100
AcDbArc
 50
85.82703695935634
 51
102.7655338556782
  0
ARC
  5
1E2
330
A
100
AcDbEntity
  8
1
  6
solid
 62
     7
100
AcDbCircle
 10
2.201149394278584
 20
0.5487335744481046
 30
0.0
 40
0.0424877889454365
100
AcDbArc
 50
248.4621910036203
 51
277.5508021314511
  0
ARC
  5
1E3
330
A
100
AcDbEntity
  8
1
  6
solid
 62
     7
100
AcDbCircle
 10
2.180707791651424
 20
0.5174189276844072
 30
0.0
 40
0.0095290718600154
100
AcDbArc
 50
238.0796238613785
 51
300.5505625764986
  0
ARC
  5
1E4
330
A
100
AcDbEntity
  8
1
  6
solid
 62
     7
100
AcDbCircle
 10
2.170152386957072
 20
0.5148468909435266
 30
0.0
 40
0.00780164077878
100
AcDbArc
 50
227.5041960826376
 51
315.0046908603496
  0
LINE
  5
1E5
330
A
100
AcDbEntity
  8
1
  6
solid
 62
     7
100
AcDbLine
 10
2.164881944656372
 20
0.5090945363044739
 30
0.0
 11
1.784409523010253
 21
0.5107480883598328
 31
0.0
  0
LINE
  5
1E6
330
A
100
AcDbEntity
  8
1
  6
solid
 62
     7
100
AcDbLine
 10
1.784409523010253
 20
0.5107480883598328
 30
0.0
 11
1.775590658187866
 21
0.5132677555084229
 31
0.0
  0
LINE
  5
1E7
330
A
100
AcDbEntity
  8
1
  6
solid
 62
     7
100
AcDbLine
 10
1.775590658187866
 20
0.5132677555084229
 30
0.0
 11
1.771968603134155
 21
0.5124409794807434
 31
0.0
  0
ARC
  5
1E8
330
A
100
AcDbEntity
  8
1
  6
solid
 62
     7
100
AcDbCircle
 10
1.765639509047327
 20
0.5214013872412399
 30
0.0
 40
0.0109702479094267
100
AcDbArc
 50
247.5866461293893
 51
305.2350887998869
  0
ARC
  5
1E9
330
A
100
AcDbEntity
  8
1
  6
solid
 62
     7
100
AcDbCircle
 10
1.756933906821135
 20
0.5228072951766678
 30
0.0
 40
0.0124015295878053
100
AcDbArc
 50
234.4553035066217
 51
291.3890385974637
  0
ARC
  5
1EA
330
A
100
AcDbEntity
  8
1
  6
solid
 62
     7
100
AcDbCircle
 10
1.738615778396475
 20
0.5333740778306506
 30
0.0
 40
0.0234549697488546
100
AcDbArc
 50
251.722950634141
 51
298.2694979597678
  0
ARC
  5
1EB
330
A
100
AcDbEntity
  8
1
  6
solid
 62
     7
100
AcDbCircle
 10
1.729147442323477
 20
0.4608307867317411
 30
0.0
 40
0.0503159575164318
100
AcDbArc
 50
87.59374735045019
 51
102.6711816224836
  0
ARC
  5
1EC
330
A
100
AcDbEntity
  8
1
  6
solid
 62
     7
100
AcDbCircle
 10
1.709487423595981
 20
0.4842652944113675
 30
0.0
 40
0.0270663574337959
100
AcDbArc
 50
71.42244120736626
 51
108.0467727257154
  0
ARC
  5
1ED
330
A
100
AcDbEntity
  8
1
  6
solid
 62
     7
100
AcDbCircle
 10
1.700642660322201
 20
0.5181622637283051
 30
0.0
 40
0.0081751495599747
100
AcDbArc
 50
216.7769980854445
 51
273.2236314054379
  0
LINE
  5
1EE
330
A
100
AcDbEntity
  8
1
  6
solid
 62
     7
100
AcDbLine
 10
1.694094657897949
 20
0.5132677555084229
 30
0.0
 11
1.14877963066101
 21
0.5137007832527161
 31
0.0
  0
ARC
  5
1EF
330
A
100
AcDbEntity
  8
1
  6
solid
 62
     7
100
AcDbCircle
 10
1.143612066950331
 20
0.4714797462954031
 30
0.0
 40
0.0425360985100269
100
AcDbArc
 50
83.02209683328554
 51
100.7618842022766
  0
ARC
  5
1F0
330
A
100
AcDbEntity
  8
1
  6
solid
 62
     7
100
AcDbCircle
 10
1.135639988856681
 20
0.5267889795537531
 30
0.0
 40
0.0135212559252978
100
AcDbArc
 50
234.7420348479788
 51
270.1244194091663
  0
ARC
  5
1F1
330
A
100
AcDbEntity
  8
1
  6
solid
 62
     7
100
AcDbCircle
 10
1.12653092235951
 20
0.5056220900688724
 30
0.0
 40
0.0102095799520612
100
AcDbArc
 50
82.66334114713064
 51
129.1957636415538
  0
ARC
  5
1F2
330
A
100
AcDbEntity
  8
1
  6
solid
 62
     7
100
AcDbCircle
 10
1.119035919037765
 20
0.5329150834514774
 30
0.0
 40
0.0193997677415609
100
AcDbArc
 50
242.2400252735221
 51
273.0815634707017
  0
ARC
  5
1F3
330
A
100
AcDbEntity
  8
1
  6
solid
 62
     7
100
AcDbCircle
 10
1.095887250042598
 20
0.4323382963582694
 30
0.0
 40
0.0845953077077866
100
AcDbArc
 50
80.39654479557595
 51
103.4705186610502
  0
LINE
  5
1F4
330
A
100
AcDbEntity
  8
1
  6
solid
 62
     7
100
AcDbLine
 10
1.076181173324584
 20
0.5146063566207886
 30
0.0
 11
1.074173212051391
 21
0.5166141986846924
 31
0.0
  0
LINE
  5
1F5
330
A
100
AcDbEntity
  8
1
  6
solid
 62
     7
100
AcDbLine
 10
1.074173212051391
 20
0.5166141986846924
 30
0.0
 11
0.8192914128303527
 21
0.5168504118919373
 31
0.0
  0
LINE
  5
1F6
330
A
100
AcDbEntity
  8
1
  6
solid
 62
     7
100
AcDbLine
 10
0.8192914128303527
 20
0.5168504118919373
 30
0.0
 11
0.7689764499664307
 21
0.5176771879196167
 31
0.0
  0
LINE
  5
1F7
330
A
100
AcDbEntity
  8
1
  6
solid
 62
     7
100
AcDbLine
 10
0.7689764499664307
 20
0.5176771879196167
 30
0.0
 11
0.762047290802002
 21
0.5182677507400513
 31
0.0
  0
LINE
  5
1F8
330
A
100
AcDbEntity
  8
1
  6
solid
 62
     7
100
AcDbLine
 10
0.762047290802002
 20
0.5182677507400513
 30
0.0
 11
0.759212613105774
 21
0.5192520022392273
 31
0.0
  0
ARC
  5
1F9
330
A
100
AcDbEntity
  8
1
  6
solid
 62
     7
100
AcDbCircle
 10
0.7519776022642271
 20
0.5302443374275386
 30
0.0
 40
0.013159666210413
100
AcDbArc
 50
250.5628839847494
 51
303.3523881363079
  0
ARC
  5
1FA
330
A
100
AcDbEntity
  8
1
  6
solid
 62
     7
100
AcDbCircle
 10
0.7421746172467666
 20
0.5297587852718843
 30
0.0
 40
0.0130997272208333
100
AcDbArc
 50
234.4969437548967
 51
294.4590720256011
  0
ARC
  5
1FB
330
A
100
AcDbEntity
  8
1
  6
solid
 62
     7
100
AcDbCircle
 10
0.7329843381504669
 20
0.5099882883285604
 30
0.0
 40
0.0092427460476756
100
AcDbArc
 50
80.14057662624058
 51
120.9677694277087
  0
ARC
  5
1FC
330
A
100
AcDbEntity
  8
1
  6
solid
 62
     7
100
AcDbCircle
 10
0.7199055002851983
 20
0.5018117754945664
 30
0.0
 40
0.0181255023926497
100
AcDbArc
 50
62.66550348381709
 51
117.361750564833
  0
ARC
  5
1FD
330
A
100
AcDbEntity
  8
1
  6
solid
 62
     7
100
AcDbCircle
 10
0.6990911789673678
 20
0.4842646156153498
 30
0.0
 40
0.0358898714184761
100
AcDbArc
 50
69.64518500419392
 51
117.2158508939723
  0
LINE
  5
1FE
330
A
100
AcDbEntity
  8
1
  6
solid
 62
     7
100
AcDbLine
 10
0.6826772093772889
 20
0.5161811709403992
 30
0.0
 11
0.681574821472168
 21
0.514803171157837
 31
0.0
  0
LINE
  5
1FF
330
A
100
AcDbEntity
  8
1
  6
solid
 62
     7
100
AcDbLine
 10
0.681574821472168
 20
0.514803171157837
 30
0.0
 11
0.6848819255828858
 21
0.510629951953888
 31
0.0
  0
LINE
  5
200
330
A
100
AcDbEntity
  8
1
  6
solid
 62
     7
100
AcDbLine
 10
0.6848819255828858
 20
0.510629951953888
 30
0.0
 11
1.038937091827392
 21
0.5094488263130188
 31
0.0
  0
LINE
  5
201
330
A
100
AcDbEntity
  8
1
  6
solid
 62
     7
100
AcDbLine
 10
1.038937091827392
 20
0.5094488263130188
 30
0.0
 11
1.056181192398071
 21
0.5086220502853394
 31
0.0
  0
LINE
  5
202
330
A
100
AcDbEntity
  8
1
  6
solid
 62
     7
100
AcDbLine
 10
1.056181192398071
 20
0.5086220502853394
 30
0.0
 11
1.057519793510437
 21
0.5099213123321534
 31
0.0
  0
ARC
  5
203
330
A
100
AcDbEntity
  8
1
  6
solid
 62
     7
100
AcDbCircle
 10
1.073004159515801
 20
0.2939358212162192
 30
0.0
 40
0.2165398299694061
100
AcDbArc
 50
82.98529235894294
 51
94.10061585572204
  0
ARC
  5
204
330
A
100
AcDbEntity
  8
1
  6
solid
 62
     7
100
AcDbCircle
 10
1.103987989502374
 20
0.5149965096165572
 30
0.0
 40
0.0076342849060893
100
AcDbArc
 50
233.517337533566
 51
303.3860268179702
  0
ARC
  5
205
330
A
100
AcDbEntity
  8
1
  6
solid
 62
     7
100
AcDbCircle
 10
1.120903046106307
 20
0.5485544584770957
 30
0.0
 40
0.0419075712561607
100
AcDbArc
 50
252.3390712633166
 51
287.8376236819077
  0
ARC
  5
206
330
A
100
AcDbEntity
  8
1
  6
solid
 62
     7
100
AcDbCircle
 10
1.140365295590219
 20
0.4851540163507426
 30
0.0
 40
0.0244231745600701
100
AcDbArc
 50
65.85790999621896
 51
105.7394494467205
  0
ARC
  5
207
330
A
100
AcDbEntity
  8
1
  6
solid
 62
     7
100
AcDbCircle
 10
1.156972582381894
 20
0.5307009524909152
 30
0.0
 40
0.024183189496398
100
AcDbArc
 50
254.1172700325944
 51
296.689822053811
  0
ARC
  5
208
330
A
100
AcDbEntity
  8
1
  6
solid
 62
     7
100
AcDbCircle
 10
1.17034600135774
 20
0.4967258683622982
 30
0.0
 40
0.0126210255548358
100
AcDbArc
 50
51.57965908349577
 51
101.476905970634
  0
ARC
  5
209
330
A
100
AcDbEntity
  8
1
  6
solid
 62
     7
100
AcDbCircle
 10
1.183722753329917
 20
0.5003049011870627
 30
0.0
 40
0.0083922194316983
100
AcDbArc
 50
60.35235063836555
 51
131.2530815063587
  0
LINE
  5
20A
330
A
100
AcDbEntity
  8
1
  6
solid
 62
     7
100
AcDbLine
 10
1.18787407875061
 20
0.5075984597206116
 30
0.0
 11
1.527480363845825
 21
0.5059842467308045
 31
0.0
  0
ARC
  5
20B
330
A
100
AcDbEntity
  8
1
  6
solid
 62
     7
100
AcDbCircle
 10
1.533395863389209
 20
0.2016728833411369
 30
0.0
 40
0.3043688535690308
100
AcDbArc
 50
85.08220867234786
 51
91.11363069770289
  0
ARC
  5
20C
330
A
100
AcDbEntity
  8
1
  6
solid
 62
     7
100
AcDbCircle
 10
1.568741369849526
 20
0.5298791253639101
 30
0.0
 40
0.0266179218888283
100
AcDbArc
 50
249.6575663159263
 51
282.5551280570632
  0
ARC
  5
20D
330
A
100
AcDbEntity
  8
1
  6
solid
 62
     7
100
AcDbCircle
 10
1.579859787180958
 20
0.4951953506556423
 30
0.0
 40
0.0102059934288263
100
AcDbArc
 50
63.03071369873768
 51
121.4970305412093
  0
ARC
  5
20E
330
A
100
AcDbEntity
  8
1
  6
solid
 62
     7
100
AcDbCircle
 10
1.613730927210106
 20
0.8314859407035285
 30
0.0
 40
0.3284987509250641
100
AcDbArc
 50
264.8928223540167
 51
274.1734750774603
  0
ARC
  5
20F
330
A
100
AcDbEntity
  8
1
  6
solid
 62
     7
100
AcDbCircle
 10
1.635325154208898
 20
0.5392532154092331
 30
0.0
 40
0.0354704223573208
100
AcDbArc
 50
273.7383817820468
 51
290.1082790903434
  0
LINE
  5
210
330
A
100
AcDbEntity
  8
1
  6
solid
 62
     7
100
AcDbLine
 10
1.647519707679748
 20
0.5059449076652527
 30
0.0
 11
1.651299238204956
 21
0.5040945410728455
 31
0.0
  0
LINE
  5
211
330
A
100
AcDbEntity
  8
1
  6
solid
 62
     7
100
AcDbLine
 10
1.651299238204956
 20
0.5040945410728455
 30
0.0
 11
2.096614360809326
 21
0.5028346776962281
 31
0.0
  0
ARC
  5
212
330
A
100
AcDbEntity
  8
1
  6
solid
 62
     7
100
AcDbCircle
 10
2.102844928223659
 20
0.5267993138597478
 30
0.0
 40
0.0247613359242678
100
AcDbArc
 50
255.4263167681624
 51
288.1333162314559
  0
ARC
  5
213
330
A
100
AcDbEntity
  8
1
  6
solid
 62
     7
100
AcDbCircle
 10
2.118480823944933
 20
0.5283888600033963
 30
0.0
 40
0.0263428520411253
100
AcDbArc
 50
252.4817129339432
 51
282.5675590013526
  0
ARC
  5
214
330
A
100
AcDbEntity
  8
1
  6
solid
 62
     7
100
AcDbCircle
 10
2.141275108117805
 20
0.546589506533402
 30
0.0
 40
0.047110665589571
100
AcDbArc
 50
248.7660900254562
 51
290.4262107358292
  0
ARC
  5
215
330
A
100
AcDbEntity
  8
1
  6
solid
 62
     7
100
AcDbCircle
 10
2.160125116502945
 20
0.4914438852461738
 30
0.0
 40
0.0112577313557267
100
AcDbArc
 50
49.4688847431517
 51
102.352754788283
  0
ARC
  5
216
330
A
100
AcDbEntity
  8
1
  6
solid
 62
     7
100
AcDbCircle
 10
2.173331081625692
 20
0.4924764317524375
 30
0.0
 40
0.0095549207180738
100
AcDbArc
 50
62.41155705047602
 51
128.0559928992808
  0
LINE
  5
217
330
A
100
AcDbEntity
  8
1
  6
solid
 62
     7
100
AcDbLine
 10
2.177756071090698
 20
0.5009449124336243
 30
0.0
 11
2.237086772918701
 21
0.5000000596046448
 31
0.0
  0
LINE
  5
218
330
A
100
AcDbEntity
  8
1
  6
solid
 62
     7
100
AcDbLine
 10
2.237086772918701
 20
0.5000000596046448
 30
0.0
 11
2.529015779495239
 21
0.4994488656520844
 31
0.0
  0
LINE
  5
219
330
A
100
AcDbEntity
  8
1
  6
solid
 62
     7
100
AcDbLine
 10
2.529015779495239
 20
0.4994488656520844
 30
0.0
 11
2.545984268188476
 21
0.4986220896244049
 31
0.0
  0
LINE
  5
21A
330
A
100
AcDbEntity
  8
1
  6
solid
 62
     7
100
AcDbLine
 10
2.545984268188476
 20
0.4986220896244049
 30
0.0
 11
2.547322988510131
 21
0.4999212920665741
 31
0.0
  0
ARC
  5
21B
330
A
100
AcDbEntity
  8
1
  6
solid
 62
     7
100
AcDbCircle
 10
2.566978578420562
 20
0.2059560649487807
 30
0.0
 40
0.294621616601944
100
AcDbArc
 50
83.80350121018627
 51
93.82531142084634
  0
LINE
  5
21C
330
A
100
AcDbEntity
  8
1
  6
solid
 62
     7
100
AcDbLine
 10
2.598779678344726
 20
0.4988583028316498
 30
0.0
 11
2.600354433059692
 21
0.4982677400112152
 31
0.0
  0
LINE
  5
21D
330
A
100
AcDbEntity
  8
1
  6
solid
 62
     7
100
AcDbLine
 10
2.600354433059692
 20
0.4982677400112152
 30
0.0
 11
2.666732311248779
 21
0.4967323243618012
 31
0.0
  0
LINE
  5
21E
330
A
100
AcDbEntity
  8
1
  6
solid
 62
     7
100
AcDbLine
 10
2.666732311248779
 20
0.4967323243618012
 30
0.0
 11
2.943464517593383
 21
0.4962992668151856
 31
0.0
  0
LINE
  5
21F
330
A
100
AcDbEntity
  8
1
  6
solid
 62
     7
100
AcDbLine
 10
2.943464517593383
 20
0.4962992668151856
 30
0.0
 11
2.972322940826416
 21
0.4953937232494355
 31
0.0
  0
LINE
  5
220
330
A
100
AcDbEntity
  8
1
  6
solid
 62
     7
100
AcDbLine
 10
2.972322940826416
 20
0.4953937232494355
 30
0.0
 11
2.993228435516357
 21
0.4938976764678955
 31
0.0
  0
LINE
  5
221
330
A
100
AcDbEntity
  8
1
  6
solid
 62
     7
100
AcDbLine
 10
2.993228435516357
 20
0.4938976764678955
 30
0.0
 11
3.006141901016235
 21
0.4918110668659211
 31
0.0
  0
LINE
  5
222
330
A
100
AcDbEntity
  8
1
  6
solid
 62
     7
100
AcDbLine
 10
3.006141901016235
 20
0.4918110668659211
 30
0.0
 11
3.011141777038574
 21
0.4890944957733155
 31
0.0
  0
LINE
  5
223
330
A
100
AcDbEntity
  8
1
  6
solid
 62
     7
100
AcDbLine
 10
3.011141777038574
 20
0.4890944957733155
 30
0.0
 11
3.008622407913208
 21
0.4866141974925995
 31
0.0
  0
LINE
  5
224
330
A
100
AcDbEntity
  8
1
  6
solid
 62
     7
100
AcDbLine
 10
3.008622407913208
 20
0.4866141974925995
 30
0.0
 11
2.589370250701904
 21
0.4872834980487824
 31
0.0
  0
ARC
  5
225
330
A
100
AcDbEntity
  8
1
  6
solid
 62
     7
100
AcDbCircle
 10
2.551830617156754
 20
1.240541428322841
 30
0.0
 40
0.7541927695274353
100
AcDbArc
 50
267.1529494527336
 51
272.8530526618297
  0
ARC
  5
226
330
A
100
AcDbEntity
  8
1
  6
solid
 62
     7
100
AcDbCircle
 10
2.506098164236814
 20
0.5366783477733284
 30
0.0
 40
0.0500827096402645
100
AcDbArc
 50
256.8275061707284
 51
279.5069683097428
  0
ARC
  5
227
330
A
100
AcDbEntity
  8
1
  6
solid
 62
     7
100
AcDbCircle
 10
2.488957271416711
 20
0.4981797734359768
 30
0.0
 40
0.0117561332881451
100
AcDbArc
 50
230.6059215885238
 51
299.1584607406233
  0
ARC
  5
228
330
A
100
AcDbEntity
  8
1
  6
solid
 62
     7
100
AcDbCircle
 10
2.444706934488615
 20
-0.1337095635158179
 30
0.0
 40
0.6238896846771241
100
AcDbArc
 50
86.61945501629372
 51
93.05863933509851
  0
LINE
  5
229
330
A
100
AcDbEntity
  8
1
  6
solid
 62
     7
100
AcDbLine
 10
2.411417484283447
 20
0.4892913699150086
 30
0.0
 11
2.405590534210205
 21
0.4886614382266999
 31
0.0
  0
LINE
  5
22A
330
A
100
AcDbEntity
  8
1
  6
solid
 62
     7
100
AcDbLine
 10
2.405590534210205
 20
0.4886614382266999
 30
0.0
 11
2.350984334945678
 21
0.4898425340652466
 31
0.0
  0
LINE
  5
22B
330
A
100
AcDbEntity
  8
1
  6
solid
 62
     7
100
AcDbLine
 10
2.350984334945678
 20
0.4898425340652466
 30
0.0
 11
2.082677364349365
 21
0.490393728017807
 31
0.0
  0
LINE
  5
22C
330
A
100
AcDbEntity
  8
1
  6
solid
 62
     7
100
AcDbLine
 10
2.082677364349365
 20
0.490393728017807
 30
0.0
 11
2.06673240661621
 21
0.4912598729133606
 31
0.0
  0
LINE
  5
22D
330
A
100
AcDbEntity
  8
1
  6
solid
 62
     7
100
AcDbLine
 10
2.06673240661621
 20
0.4912598729133606
 30
0.0
 11
2.065433263778686
 21
0.4899212718009949
 31
0.0
  0
ARC
  5
22E
330
A
100
AcDbEntity
  8
1
  6
solid
 62
     7
100
AcDbCircle
 10
2.047390386983817
 20
0.7739916031132413
 30
0.0
 40
0.28464275598526
100
AcDbArc
 50
263.8647047141059
 51
273.6342896990958
  0
ARC
  5
22F
330
A
100
AcDbEntity
  8
1
  6
solid
 62
     7
100
AcDbCircle
 10
2.012314495787794
 20
0.4844930351626543
 30
0.0
 40
0.0079873818904161
100
AcDbArc
 50
54.35947094361008
 51
122.0914584895809
  0
ARC
  5
230
330
A
100
AcDbEntity
  8
1
  6
solid
 62
     7
100
AcDbCircle
 10
2.003808997724128
 20
0.4858613255937084
 30
0.0
 40
0.0068781184963882
100
AcDbArc
 50
51.71024888533182
 51
124.4164173170128
  0
LINE
  5
231
330
A
100
AcDbEntity
  8
1
  6
solid
 62
     7
100
AcDbLine
 10
1.999921441078186
 20
0.4915354549884797
 30
0.0
 11
1.999015808105468
 21
0.4912204742431641
 31
0.0
  0
ARC
  5
232
330
A
100
AcDbEntity
  8
1
  6
solid
 62
     7
100
AcDbCircle
 10
1.992535625161258
 20
0.509688675572897
 30
0.0
 40
0.0195721033960581
100
AcDbArc
 50
237.4597944394836
 51
289.3351187517709
  0
ARC
  5
233
330
A
100
AcDbEntity
  8
1
  6
solid
 62
     7
100
AcDbCircle
 10
1.986666565219092
 20
0.4611301562569815
 30
0.0
 40
0.0323955602943897
100
AcDbArc
 50
98.26798064572445
 51
111.5562605250514
  0
ARC
  5
234
330
A
100
AcDbEntity
  8
1
  6
solid
 62
     7
100
AcDbCircle
 10
1.969767336085073
 20
0.4825617992357138
 30
0.0
 40
0.010031103156507
100
AcDbArc
 50
60.12456382954564
 51
119.9199535222317
  0
ARC
  5
235
330
A
100
AcDbEntity
  8
1
  6
solid
 62
     7
100
AcDbCircle
 10
1.959767226412527
 20
0.4825617992357138
 30
0.0
 40
0.010031103156507
100
AcDbArc
 50
60.12456382954564
 51
119.9199535222317
  0
ARC
  5
236
330
A
100
AcDbEntity
  8
1
  6
solid
 62
     7
100
AcDbCircle
 10
1.949767386657301
 20
0.4825624000563115
 30
0.0
 40
0.0100305071100593
100
AcDbArc
 50
60.12360077287266
 51
119.9219137865234
  0
ARC
  5
237
330
A
100
AcDbEntity
  8
1
  6
solid
 62
     7
100
AcDbCircle
 10
1.923768949851033
 20
0.3944967717685464
 30
0.0
 40
0.0990145727992058
100
AcDbArc
 50
77.75813151165926
 51
102.252538837686
  0
LINE
  5
238
330
A
100
AcDbEntity
  8
1
  6
solid
 62
     7
100
AcDbLine
 10
1.902755975723266
 20
0.4912598729133606
 30
0.0
 11
1.900748133659362
 21
0.4932677447795868
 31
0.0
  0
LINE
  5
239
330
A
100
AcDbEntity
  8
1
  6
solid
 62
     7
100
AcDbLine
 10
1.900748133659362
 20
0.4932677447795868
 30
0.0
 11
1.556653618812561
 21
0.4938583076000214
 31
0.0
  0
ARC
  5
23A
330
A
100
AcDbEntity
  8
1
  6
solid
 62
     7
100
AcDbCircle
 10
1.551404393342996
 20
0.8025507494157137
 30
0.0
 40
0.3087370693683624
100
AcDbArc
 50
265.1451743650734
 51
270.9742042249426
  0
LINE
  5
23B
330
A
100
AcDbEntity
  8
1
  6
solid
 62
     7
100
AcDbLine
 10
1.525275588035583
 20
0.4949212968349457
 30
0.0
 11
1.522480368614196
 21
0.4959448873996735
 31
0.0
  0
LINE
  5
23C
330
A
100
AcDbEntity
  8
1
  6
solid
 62
     7
100
AcDbLine
 10
1.522480368614196
 20
0.4959448873996735
 30
0.0
 11
1.519645810127258
 21
0.4940944910049439
 31
0.0
  0
ARC
  5
23D
330
A
100
AcDbEntity
  8
1
  6
solid
 62
     7
100
AcDbCircle
 10
1.483320875578959
 20
1.084907463209808
 30
0.0
 40
0.5919286012649537
100
AcDbArc
 50
267.1698883218752
 51
273.5182857662323
  0
ARC
  5
23E
330
A
100
AcDbEntity
  8
1
  6
solid
 62
     7
100
AcDbCircle
 10
1.449671132836654
 20
0.4721647625751315
 30
0.0
 40
0.0219856481999159
100
AcDbArc
 50
78.39316834974119
 51
106.2906491278351
  0
ARC
  5
23F
330
A
100
AcDbEntity
  8
1
  6
solid
 62
     7
100
AcDbCircle
 10
1.440306095912343
 20
0.5287439428973038
 30
0.0
 40
0.0356200374662876
100
AcDbArc
 50
251.7208469358767
 51
275.150810260892
  0
LINE
  5
240
330
A
100
AcDbEntity
  8
1
  6
solid
 62
     7
100
AcDbLine
 10
1.429134011268615
 20
0.4949212968349457
 30
0.0
 11
1.427441000938415
 21
0.4966141879558564
 31
0.0
  0
LINE
  5
241
330
A
100
AcDbEntity
  8
1
  6
solid
 62
     7
100
AcDbLine
 10
1.427441000938415
 20
0.4966141879558564
 30
0.0
 11
0.9702756404876708
 21
0.4970079064369202
 31
0.0
  0
ARC
  5
242
330
A
100
AcDbEntity
  8
1
  6
solid
 62
     7
100
AcDbCircle
 10
0.9665792137827791
 20
0.4818573625334432
 30
0.0
 40
0.0155949527397752
100
AcDbArc
 50
76.28885536835196
 51
108.869933464107
  0
ARC
  5
243
330
A
100
AcDbEntity
  8
1
  6
solid
 62
     7
100
AcDbCircle
 10
0.9503047710550958
 20
0.4425379245601009
 30
0.0
 40
0.0552301593124867
100
AcDbArc
 50
78.26746554825627
 51
101.7525894810086
  0
ARC
  5
244
330
A
100
AcDbEntity
  8
1
  6
solid
 62
     7
100
AcDbCircle
 10
0.920039462724954
 20
0.4019758210824231
 30
0.0
 40
0.0965298861265183
100
AcDbArc
 50
78.63880927305152
 51
97.14584545188849
  0
ARC
  5
245
330
A
100
AcDbEntity
  8
1
  6
solid
 62
     7
100
AcDbCircle
 10
0.9030032567758919
 20
0.4899468535452626
 30
0.0
 40
0.0092879151925445
100
AcDbArc
 50
57.22255305499062
 51
120.9372145764567
  0
ARC
  5
246
330
A
100
AcDbEntity
  8
1
  6
solid
 62
     7
100
AcDbCircle
 10
0.8901398978482852
 20
0.4811287516920744
 30
0.0
 40
0.0186319369822741
100
AcDbArc
 50
64.27064575009429
 51
116.8233609035067
  0
ARC
  5
247
330
A
100
AcDbEntity
  8
1
  6
solid
 62
     7
100
AcDbCircle
 10
0.8781969188423859
 20
0.55368391365332
 30
0.0
 40
0.0560396015644074
100
AcDbArc
 50
253.6287373371147
 51
273.6170776223874
  0
ARC
  5
248
330
A
100
AcDbEntity
  8
1
  6
solid
 62
     7
100
AcDbCircle
 10
0.8657272269087719
 20
0.4517959955661462
 30
0.0
 40
0.048240065574646
100
AcDbArc
 50
93.95304961870392
 51
107.0600562774587
  0
LINE
  5
249
330
A
100
AcDbEntity
  8
1
  6
solid
 62
     7
100
AcDbLine
 10
0.8515748381614685
 20
0.4979134202003479
 30
0.0
 11
0.8485433459281921
 21
0.4989370405673981
 31
0.0
  0
ARC
  5
24A
330
A
100
AcDbEntity
  8
1
  6
solid
 62
     7
100
AcDbCircle
 10
0.770581484073885
 20
-1.450696716617136
 30
0.0
 40
1.951191902160644
100
AcDbArc
 50
87.71007913239385
 51
92.53701095799547
  0
ARC
  5
24B
330
A
100
AcDbEntity
  8
1
  6
solid
 62
     7
100
AcDbCircle
 10
0.6826673567314053
 20
0.4932874700619482
 30
0.0
 40
0.0055161039344966
100
AcDbArc
 50
73.73093586380385
 51
192.5727713463057
  0
ARC
  5
24C
330
A
100
AcDbEntity
  8
1
  6
solid
 62
     7
100
AcDbCircle
 10
0.6816489514036635
 20
0.4931474415226202
 30
0.0
 40
0.0044924630783498
100
AcDbArc
 50
193.6580747450424
 51
281.1763553353531
  0
ARC
  5
24D
330
A
100
AcDbEntity
  8
1
  6
solid
 62
     7
100
AcDbCircle
 10
0.685302427415642
 20
0.5252216753522207
 30
0.0
 40
0.0365874730050564
100
AcDbArc
 50
265.6381052754918
 51
285.2422884010863
  0
ARC
  5
24E
330
A
100
AcDbEntity
  8
1
  6
solid
 62
     7
100
AcDbCircle
 10
0.7021675156573437
 20
0.5093438989513236
 30
0.0
 40
0.0207303129136562
100
AcDbArc
 50
249.5404422320389
 51
285.526314987532
  0
ARC
  5
24F
330
A
100
AcDbEntity
  8
1
  6
solid
 62
     7
100
AcDbCircle
 10
0.7163459724754641
 20
0.5017156451512114
 30
0.0
 40
0.0150624569505453
100
AcDbArc
 50
235.0470813415954
 51
303.0791600789399
  0
ARC
  5
250
330
A
100
AcDbEntity
  8
1
  6
solid
 62
     7
100
AcDbCircle
 10
0.7266345165417045
 20
0.4826436020455266
 30
0.0
 40
0.0067741177044809
100
AcDbArc
 50
45.0855937678231
 51
107.7707272153148
  0
LINE
  5
251
330
A
100
AcDbEntity
  8
1
  6
solid
 62
     7
100
AcDbLine
 10
0.7314173579216004
 20
0.487440973520279
 30
0.0
 11
1.144291400909423
 21
0.4857480525970459
 31
0.0
  0
ARC
  5
252
330
A
100
AcDbEntity
  8
1
  6
solid
 62
     7
100
AcDbCircle
 10
1.150505677423937
 20
0.463904254015456
 30
0.0
 40
0.0227105431258679
100
AcDbArc
 50
70.22556325344282
 51
105.880363079487
  0
ARC
  5
253
330
A
100
AcDbEntity
  8
1
  6
solid
 62
     7
100
AcDbCircle
 10
1.164038686073519
 20
0.4733378839690976
 30
0.0
 40
0.0132938753813505
100
AcDbArc
 50
54.01146256011418
 51
116.1054294745629
  0
ARC
  5
254
330
A
100
AcDbEntity
  8
1
  6
solid
 62
     7
100
AcDbCircle
 10
1.17335476901127
 20
0.4917649709980385
 30
0.0
 40
0.0078165922313929
100
AcDbArc
 50
258.9040305274795
 51
306.389974750793
  0
LINE
  5
255
330
A
100
AcDbEntity
  8
1
  6
solid
 62
     7
100
AcDbLine
 10
1.177992224693298
 20
0.4854724705219269
 30
0.0
 11
1.191850423812866
 21
0.4865354597568512
 31
0.0
  0
LINE
  5
256
330
A
100
AcDbEntity
  8
1
  6
solid
 62
     7
100
AcDbLine
 10
1.191850423812866
 20
0.4865354597568512
 30
0.0
 11
1.197204828262329
 21
0.4849212765693665
 31
0.0
  0
LINE
  5
257
330
A
100
AcDbEntity
  8
1
  6
solid
 62
     7
100
AcDbLine
 10
1.197204828262329
 20
0.4849212765693665
 30
0.0
 11
1.198858380317687
 21
0.48326775431633
 31
0.0
  0
LINE
  5
258
330
A
100
AcDbEntity
  8
1
  6
solid
 62
     7
100
AcDbLine
 10
1.198858380317687
 20
0.48326775431633
 30
0.0
 11
1.665118217468261
 21
0.4824409782886506
 31
0.0
  0
LINE
  5
259
330
A
100
AcDbEntity
  8
1
  6
solid
 62
     7
100
AcDbLine
 10
1.665118217468261
 20
0.4824409782886506
 30
0.0
 11
1.670315027236938
 21
0.4807874560356141
 31
0.0
  0
ARC
  5
25A
330
A
100
AcDbEntity
  8
1
  6
solid
 62
     7
100
AcDbCircle
 10
1.678117280073424
 20
0.5309359716416139
 30
0.0
 40
0.0507518351078034
100
AcDbArc
 50
261.1566542365064
 51
285.2384361743943
  0
ARC
  5
25B
330
A
100
AcDbEntity
  8
1
  6
solid
 62
     7
100
AcDbCircle
 10
1.698113291598417
 20
0.491743721067587
 30
0.0
 40
0.0118263885378838
100
AcDbArc
 50
235.7467932409281
 51
304.2189000853615
  0
ARC
  5
25C
330
A
100
AcDbEntity
  8
1
  6
solid
 62
     7
100
AcDbCircle
 10
1.716574433296845
 20
0.5119449832532478
 30
0.0
 40
0.0322192050516605
100
AcDbArc
 50
248.4958604211339
 51
276.3147120615026
  0
ARC
  5
25D
330
A
100
AcDbEntity
  8
1
  6
solid
 62
     7
100
AcDbCircle
 10
1.733648674996633
 20
0.6878370008701424
 30
0.0
 40
0.2083555161952972
100
AcDbArc
 50
266.2766186798612
 51
277.4077882155148
  0
LINE
  5
25E
330
A
100
AcDbEntity
  8
1
  6
solid
 62
     7
100
AcDbLine
 10
1.760511994361877
 20
0.4812205135822297
 30
0.0
 11
1.821535587310791
 21
0.4800000190734864
 31
0.0
  0
LINE
  5
25F
330
A
100
AcDbEntity
  8
1
  6
solid
 62
     7
100
AcDbLine
 10
1.821535587310791
 20
0.4800000190734864
 30
0.0
 11
2.140826940536499
 21
0.4790945053100586
 31
0.0
  0
LINE
  5
260
330
A
100
AcDbEntity
  8
1
  6
solid
 62
     7
100
AcDbLine
 10
2.140826940536499
 20
0.4790945053100586
 30
0.0
 11
2.147204875946044
 21
0.4799212813377381
 31
0.0
  0
LINE
  5
261
330
A
100
AcDbEntity
  8
1
  6
solid
 62
     7
100
AcDbLine
 10
2.147204875946044
 20
0.4799212813377381
 30
0.0
 11
2.151023626327514
 21
0.4794094860553742
 31
0.0
  0
ARC
  5
262
330
A
100
AcDbEntity
  8
1
  6
solid
 62
     7
100
AcDbCircle
 10
2.159598732179819
 20
0.4913722809984196
 30
0.0
 40
0.0147187262773514
100
AcDbArc
 50
234.3664939719386
 51
303.4719505977289
  0
ARC
  5
263
330
A
100
AcDbEntity
  8
1
  6
solid
 62
     7
100
AcDbCircle
 10
2.170510844409185
 20
0.4683323658786839
 30
0.0
 40
0.0111189922317863
100
AcDbArc
 50
67.73108937609496
 51
104.5551902672887
  0
ARC
  5
264
330
A
100
AcDbEntity
  8
1
  6
solid
 62
     7
100
AcDbCircle
 10
2.179499858237693
 20
0.4650018830438204
 30
0.0
 40
0.0144330533221364
100
AcDbArc
 50
53.56864432074933
 51
109.3208113266925
  0
ARC
  5
265
330
A
100
AcDbEntity
  8
1
  6
solid
 62
     7
100
AcDbCircle
 10
2.185467856706596
 20
0.4924646870553475
 30
0.0
 40
0.016062818467617
100
AcDbArc
 50
279.3265420326277
 51
303.657134101601
  0
ARC
  5
266
330
A
100
AcDbEntity
  8
1
  6
solid
 62
     7
100
AcDbCircle
 10
2.196714506694625
 20
0.4689524787989522
 30
0.0
 40
0.0104094259440899
100
AcDbArc
 50
52.08904093141697
 51
103.014832345289
  0
ARC
  5
267
330
A
100
AcDbEntity
  8
1
  6
solid
 62
     7
100
AcDbCircle
 10
2.20926112982736
 20
0.4700786607839466
 30
0.0
 40
0.0093836383894086
100
AcDbArc
 50
51.6837887324872
 51
130.9551349943844
  0
ARC
  5
268
330
A
100
AcDbEntity
  8
1
  6
solid
 62
     7
100
AcDbCircle
 10
2.216654722723808
 20
0.4864240689652644
 30
0.0
 40
0.0091202668845654
100
AcDbArc
 50
260.0499177041541
 51
301.1909986791195
  0
ARC
  5
269
330
A
100
AcDbEntity
  8
1
  6
solid
 62
     7
100
AcDbCircle
 10
2.228054257562353
 20
0.4886934816134995
 30
0.0
 40
0.0120832277461887
100
AcDbArc
 50
236.460247480871
 51
303.5056097699588
  0
LINE
  5
26A
330
A
100
AcDbEntity
  8
1
  6
solid
 62
     7
100
AcDbLine
 10
2.234724521636962
 20
0.4786220788955689
 30
0.0
 11
2.237716674804687
 21
0.4775984585285187
 31
0.0
  0
LINE
  5
26B
330
A
100
AcDbEntity
  8
1
  6
solid
 62
     7
100
AcDbLine
 10
2.237716674804687
 20
0.4775984585285187
 30
0.0
 11
2.568425416946411
 21
0.4760236442089081
 31
0.0
  0
ARC
  5
26C
330
A
100
AcDbEntity
  8
1
  6
solid
 62
     7
100
AcDbCircle
 10
2.573459327594874
 20
0.1833757944333182
 30
0.0
 40
0.2926911413669586
100
AcDbArc
 50
84.92890507642693
 51
90.9854621979276
  0
ARC
  5
26D
330
A
100
AcDbEntity
  8
1
  6
solid
 62
     7
100
AcDbCircle
 10
2.607951814254918
 20
0.4963806512562067
 30
0.0
 40
0.0231262724846602
100
AcDbArc
 50
248.1130966200463
 51
293.159843686965
  0
ARC
  5
26E
330
A
100
AcDbEntity
  8
1
  6
solid
 62
     7
100
AcDbCircle
 10
2.618696340258633
 20
0.471960897234152
 30
0.0
 40
0.00356196728535
100
AcDbArc
 50
21.59804853300997
 51
117.577949957726
  0
LINE
  5
26F
330
A
100
AcDbEntity
  8
1
  6
solid
 62
     7
100
AcDbLine
 10
2.622008085250854
 20
0.4732677638530732
 30
0.0
 11
2.950472593307495
 21
0.4729527831077576
 31
0.0
  0
ARC
  5
270
330
A
100
AcDbEntity
  8
1
  6
solid
 62
     7
100
AcDbCircle
 10
2.947041190749446
 20
-0.0128597134239337
 30
0.0
 40
0.4858246147632599
100
AcDbArc
 50
84.14803686937606
 51
89.59531379615491
  0
LINE
  5
271
330
A
100
AcDbEntity
  8
1
  6
solid
 62
     7
100
AcDbLine
 10
2.996575117111206
 20
0.4704330861568451
 30
0.0
 11
3.007677316665649
 21
0.4682677686214447
 31
0.0
  0
LINE
  5
272
330
A
100
AcDbEntity
  8
1
  6
solid
 62
     7
100
AcDbLine
 10
3.007677316665649
 20
0.4682677686214447
 30
0.0
 11
3.010787725448608
 21
0.4654330909252167
 31
0.0
  0
LINE
  5
273
330
A
100
AcDbEntity
  8
1
  6
solid
 62
     7
100
AcDbLine
 10
3.010787725448608
 20
0.4654330909252167
 30
0.0
 11
3.008622407913208
 21
0.4632677435874939
 31
0.0
  0
ARC
  5
274
330
A
100
AcDbEntity
  8
1
  6
solid
 62
     7
100
AcDbCircle
 10
2.989331152404749
 20
0.0759143187472344
 30
0.0
 40
0.3878335058689117
100
AcDbArc
 50
87.14886980905058
 51
94.98501948530655
  0
LINE
  5
275
330
A
100
AcDbEntity
  8
1
  6
solid
 62
     7
100
AcDbLine
 10
2.955630302429199
 20
0.4622834920883179
 30
0.0
 11
2.489134073257446
 21
0.4641338884830475
 31
0.0
  0
ARC
  5
276
330
A
100
AcDbEntity
  8
1
  6
solid
 62
     7
100
AcDbCircle
 10
2.484926643678041
 20
0.4754858809785194
 30
0.0
 40
0.0121066179126501
100
AcDbArc
 50
233.2169628893417
 51
290.336397163338
  0
ARC
  5
277
330
A
100
AcDbEntity
  8
1
  6
solid
 62
     7
100
AcDbCircle
 10
2.475855301346911
 20
0.4590271739731522
 30
0.0
 40
0.0070014744997025
100
AcDbArc
 50
74.91586440177434
 51
133.6349802058064
  0
ARC
  5
278
330
A
100
AcDbEntity
  8
1
  6
solid
 62
     7
100
AcDbCircle
 10
2.465920213802935
 20
0.4772999888743825
 30
0.0
 40
0.0141573930159211
100
AcDbArc
 50
234.3922472002041
 51
291.1302290694336
  0
ARC
  5
279
330
A
100
AcDbEntity
  8
1
  6
solid
 62
     7
100
AcDbCircle
 10
2.456004304463925
 20
0.4602776890089255
 30
0.0
 40
0.0057581388391554
100
AcDbArc
 50
73.10877393230739
 51
138.4792372331246
  0
ARC
  5
27A
330
A
100
AcDbEntity
  8
1
  6
solid
 62
     7
100
AcDbCircle
 10
2.449673821058631
 20
0.4756426983068815
 30
0.0
 40
0.0117234140634537
100
AcDbArc
 50
237.3366871098833
 51
279.9180637355075
  0
ARC
  5
27B
330
A
100
AcDbEntity
  8
1
  6
solid
 62
     7
100
AcDbCircle
 10
2.437294736001617
 20
0.444378697468883
 30
0.0
 40
0.0222476907074452
100
AcDbArc
 50
74.21499820047182
 51
114.604731045979
  0
ARC
  5
27C
330
A
100
AcDbEntity
  8
1
  6
solid
 62
     7
100
AcDbCircle
 10
2.431985006990983
 20
0.4899434502019412
 30
0.0
 40
0.0256436970084906
100
AcDbArc
 50
245.4704315433713
 51
261.1317103856575
  0
ARC
  5
27D
330
A
100
AcDbEntity
  8
1
  6
solid
 62
     7
100
AcDbCircle
 10
2.415011806152734
 20
0.475552256500923
 30
0.0
 40
0.0109507944434881
100
AcDbArc
 50
240.8948912334743
 51
305.2935278984255
  0
ARC
  5
27E
330
A
100
AcDbEntity
  8
1
  6
solid
 62
     7
100
AcDbCircle
 10
2.410233309989175
 20
0.4579817559339292
 30
0.0
 40
0.0080212820321322
100
AcDbArc
 50
93.91865278604374
 51
130.3539793096803
  0
ARC
  5
27F
330
A
100
AcDbEntity
  8
1
  6
solid
 62
     7
100
AcDbCircle
 10
2.402376018979889
 20
0.4749852259816545
 30
0.0
 40
0.0112117137759924
100
AcDbArc
 50
250.0120155678095
 51
283.7429696707146
  0
ARC
  5
280
330
A
100
AcDbEntity
  8
1
  6
solid
 62
     7
100
AcDbCircle
 10
2.396101129493493
 20
0.5087369026958389
 30
0.0
 40
0.0443553328514099
100
AcDbArc
 50
251.7422664091139
 51
273.1566409100584
  0
ARC
  5
281
330
A
100
AcDbEntity
  8
1
  6
solid
 62
     7
100
AcDbCircle
 10
2.368236973504809
 20
0.5138962683276099
 30
0.0
 40
0.0493020750582218
100
AcDbArc
 50
271.2712252462844
 51
286.4578879035246
  0
LINE
  5
282
330
A
100
AcDbEntity
  8
1
  6
solid
 62
     7
100
AcDbLine
 10
2.369330883026123
 20
0.4646063148975373
 30
0.0
 11
2.367322921752929
 21
0.4666141867637635
 31
0.0
  0
LINE
  5
283
330
A
100
AcDbEntity
  8
1
  6
solid
 62
     7
100
AcDbLine
 10
2.367322921752929
 20
0.4666141867637635
 30
0.0
 11
2.066102504730224
 21
0.467204749584198
 31
0.0
  0
ARC
  5
284
330
A
100
AcDbEntity
  8
1
  6
solid
 62
     7
100
AcDbCircle
 10
2.061663161341745
 20
0.7133238371735655
 30
0.0
 40
0.2461591213941574
100
AcDbArc
 50
264.5738700221368
 51
271.0333536631549
  0
LINE
  5
285
330
A
100
AcDbEntity
  8
1
  6
solid
 62
     7
100
AcDbLine
 10
2.038385868072509
 20
0.4682677686214447
 30
0.0
 11
2.034724473953247
 21
0.4699212908744812
 31
0.0
  0
ARC
  5
286
330
A
100
AcDbEntity
  8
1
  6
solid
 62
     7
100
AcDbCircle
 10
2.019337424309872
 20
0.5035822733556435
 30
0.0
 40
0.0370111204683781
100
AcDbArc
 50
248.7205907203002
 51
294.5660054672468
  0
ARC
  5
287
330
A
100
AcDbEntity
  8
1
  6
solid
 62
     7
100
AcDbCircle
 10
1.998100818166684
 20
0.4289014140787164
 30
0.0
 40
0.0409438982605934
100
AcDbArc
 50
79.01091114884465
 51
112.7253088732016
  0
ARC
  5
288
330
A
100
AcDbEntity
  8
1
  6
solid
 62
     7
100
AcDbCircle
 10
1.982050508220202
 20
0.4798220631176133
 30
0.0
 40
0.0131705403327942
100
AcDbArc
 50
234.5385225314692
 51
271.0140378881821
  0
ARC
  5
289
330
A
100
AcDbEntity
  8
1
  6
solid
 62
     7
100
AcDbCircle
 10
1.972827081498408
 20
0.4599881185544407
 30
0.0
 40
0.0092429053038359
100
AcDbArc
 50
80.14168994707528
 51
120.9682543711398
  0
LINE
  5
28A
330
A
100
AcDbEntity
  8
1
  6
solid
 62
     7
100
AcDbLine
 10
1.968070983886718
 20
0.4679133892059327
 30
0.0
 11
1.965078830718994
 21
0.4689370393753052
 31
0.0
  0
ARC
  5
28B
330
A
100
AcDbEntity
  8
1
  6
solid
 62
     7
100
AcDbCircle
 10
1.691928176107459
 20
-23.18302921113757
 30
0.0
 40
23.65354347229004
100
AcDbArc
 50
89.33833475882236
 51
90.40568479188225
  0
ARC
  5
28C
330
A
100
AcDbEntity
  8
1
  6
solid
 62
     7
100
AcDbCircle
 10
1.512312574512097
 20
0.4118780443395176
 30
0.0
 40
0.0592984668910504
100
AcDbArc
 50
78.19013414647338
 51
101.8283909204174
  0
ARC
  5
28D
330
A
100
AcDbEntity
  8
1
  6
solid
 62
     7
100
AcDbCircle
 10
1.494586811990699
 20
0.5073278142174257
 30
0.0
 40
0.0378190465271473
100
AcDbArc
 50
244.2384839831544
 51
278.4703641597883
  0
ARC
  5
28E
330
A
100
AcDbEntity
  8
1
  6
solid
 62
     7
100
AcDbCircle
 10
1.480837811961678
 20
0.4570587906443069
 30
0.0
 40
0.0164303686469793
100
AcDbArc
 50
99.41644963390542
 51
123.3253185027654
  0
ARC
  5
28F
330
A
100
AcDbEntity
  8
1
  6
solid
 62
     7
100
AcDbCircle
 10
1.46901683442259
 20
0.4815495454879094
 30
0.0
 40
0.0111189922317863
100
AcDbArc
 50
247.7310602341054
 51
284.5551884460558
  0
ARC
  5
290
330
A
100
AcDbEntity
  8
1
  6
solid
 62
     7
100
AcDbCircle
 10
1.454795953465122
 20
0.5078866285901145
 30
0.0
 40
0.0379692688584328
100
AcDbArc
 50
254.7412385491264
 51
285.2815380831517
  0
ARC
  5
291
330
A
100
AcDbEntity
  8
1
  6
solid
 62
     7
100
AcDbCircle
 10
1.439075336297083
 20
0.4815262058834103
 30
0.0
 40
0.0117561332881451
100
AcDbArc
 50
230.6059215885238
 51
299.1584607406233
  0
LINE
  5
292
330
A
100
AcDbEntity
  8
1
  6
solid
 62
     7
100
AcDbLine
 10
1.431614279747009
 20
0.4724409878253937
 30
0.0
 11
1.000000119209289
 21
0.4737008213996888
 31
0.0
  0
ARC
  5
293
330
A
100
AcDbEntity
  8
1
  6
solid
 62
     7
100
AcDbCircle
 10
0.9939350500498351
 20
0.4543367273206635
 30
0.0
 40
0.0202917028218508
100
AcDbArc
 50
72.60881091525162
 51
110.7906987719305
  0
ARC
  5
294
330
A
100
AcDbEntity
  8
1
  6
solid
 62
     7
100
AcDbCircle
 10
0.9782082316772541
 20
0.5383390932402579
 30
0.0
 40
0.0655882656574249
100
AcDbArc
 50
258.3823304333901
 51
277.4675284650903
  0
ARC
  5
295
330
A
100
AcDbEntity
  8
1
  6
solid
 62
     7
100
AcDbCircle
 10
0.9598142071137566
 20
0.4677510292486581
 30
0.0
 40
0.0081935059279203
100
AcDbArc
 50
50.7336445321413
 51
125.6441062542821
  0
ARC
  5
296
330
A
100
AcDbEntity
  8
1
  6
solid
 62
     7
100
AcDbCircle
 10
0.9448686823787188
 20
0.5427045586242572
 30
0.0
 40
0.0690482780337334
100
AcDbArc
 50
253.1743111912554
 51
278.4704461220583
  0
ARC
  5
297
330
A
100
AcDbEntity
  8
1
  6
solid
 62
     7
100
AcDbCircle
 10
0.9148772160636566
 20
0.5004846002957298
 30
0.0
 40
0.0258822347968817
100
AcDbArc
 50
247.2828359000125
 51
292.7398587699955
  0
ARC
  5
298
330
A
100
AcDbEntity
  8
1
  6
solid
 62
     7
100
AcDbCircle
 10
0.894700017183583
 20
0.5013655097055225
 30
0.0
 40
0.0267637595534325
100
AcDbArc
 50
247.6612830215446
 51
292.3607832710598
  0
ARC
  5
299
330
A
100
AcDbEntity
  8
1
  6
solid
 62
     7
100
AcDbCircle
 10
0.8782274440583959
 20
0.4166731472274
 30
0.0
 40
0.0602712444961071
100
AcDbArc
 50
83.99988622429708
 51
106.0391410720277
  0
LINE
  5
29A
330
A
100
AcDbEntity
  8
1
  6
solid
 62
     7
100
AcDbLine
 10
0.8615748286247253
 20
0.4746063053607941
 30
0.0
 11
0.8585433363914489
 21
0.4755905866622925
 31
0.0
  0
ARC
  5
29B
330
A
100
AcDbEntity
  8
1
  6
solid
 62
     7
100
AcDbCircle
 10
0.7737210465554764
 20
-1.810357133780397
 30
0.0
 40
2.287520885467529
100
AcDbArc
 50
87.87495989895795
 51
92.30369169594784
  0
LINE
  5
29C
330
A
100
AcDbEntity
  8
1
  6
solid
 62
     7
100
AcDbLine
 10
0.6817716956138611
 20
0.4753150045871735
 30
0.0
 11
0.677755892276764
 21
0.4746063053607941
 31
0.0
  0
ARC
  5
29D
330
A
100
AcDbEntity
  8
1
  6
solid
 62
     7
100
AcDbCircle
 10
0.6963378256894327
 20
0.4608551123905147
 30
0.0
 40
0.0231167376041412
100
AcDbArc
 50
143.4974386880355
 51
181.4355980743717
  0
LINE
  5
29E
330
A
100
AcDbEntity
  8
1
  6
solid
 62
     7
100
AcDbLine
 10
0.6732283830642701
 20
0.4602756202220917
 30
0.0
 11
0.675000011920929
 21
0.4566141963005066
 31
0.0
  0
LINE
  5
29F
330
A
100
AcDbEntity
  8
1
  6
solid
 62
     7
100
AcDbLine
 10
0.675000011920929
 20
0.4566141963005066
 30
0.0
 11
0.7285040020942688
 21
0.4560236334800721
 31
0.0
  0
LINE
  5
2A0
330
A
100
AcDbEntity
  8
1
  6
solid
 62
     7
100
AcDbLine
 10
0.7285040020942688
 20
0.4560236334800721
 30
0.0
 11
0.7339370250701905
 21
0.4549606740474701
 31
0.0
  0
LINE
  5
2A1
330
A
100
AcDbEntity
  8
1
  6
solid
 62
     7
100
AcDbLine
 10
0.7339370250701905
 20
0.4549606740474701
 30
0.0
 11
0.7907087206840516
 21
0.4534251987934113
 31
0.0
  0
LINE
  5
2A2
330
A
100
AcDbEntity
  8
1
  6
solid
 62
     7
100
AcDbLine
 10
0.7907087206840516
 20
0.4534251987934113
 30
0.0
 11
1.052362322807312
 21
0.4526771903038025
 31
0.0
  0
LINE
  5
2A3
330
A
100
AcDbEntity
  8
1
  6
solid
 62
     7
100
AcDbLine
 10
1.052362322807312
 20
0.4526771903038025
 30
0.0
 11
1.07342529296875
 21
0.4522047638893128
 31
0.0
  0
LINE
  5
2A4
330
A
100
AcDbEntity
  8
1
  6
solid
 62
     7
100
AcDbLine
 10
1.07342529296875
 20
0.4522047638893128
 30
0.0
 11
1.081023693084716
 21
0.4516142010688782
 31
0.0
  0
LINE
  5
2A5
330
A
100
AcDbEntity
  8
1
  6
solid
 62
     7
100
AcDbLine
 10
1.081023693084716
 20
0.4516142010688782
 30
0.0
 11
1.0839763879776
 21
0.4507087171077729
 31
0.0
  0
ARC
  5
2A6
330
A
100
AcDbEntity
  8
1
  6
solid
 62
     7
100
AcDbCircle
 10
1.092099214653777
 20
0.4311901957396959
 30
0.0
 40
0.0211412627249956
100
AcDbArc
 50
66.31864040668218
 51
112.5951220525266
  0
ARC
  5
2A7
330
A
100
AcDbEntity
  8
1
  6
solid
 62
     7
100
AcDbCircle
 10
1.107314365399588
 20
0.4413079291611171
 30
0.0
 40
0.01143011264503
100
AcDbArc
 50
56.03127244109201
 51
126.0330138105281
  0
ARC
  5
2A8
330
A
100
AcDbEntity
  8
1
  6
solid
 62
     7
100
AcDbCircle
 10
1.121517385692198
 20
0.5006836293325074
 30
0.0
 40
0.050504744052887
100
AcDbArc
 50
261.0966578548369
 51
285.2980227447135
  0
ARC
  5
2A9
330
A
100
AcDbEntity
  8
1
  6
solid
 62
     7
100
AcDbCircle
 10
1.139845926392732
 20
0.4606365567508409
 30
0.0
 40
0.0100084450095892
100
AcDbArc
 50
240.0053615469177
 51
299.94948543897
  0
ARC
  5
2AA
330
A
100
AcDbEntity
  8
1
  6
solid
 62
     7
100
AcDbCircle
 10
1.156521786589639
 20
0.4877858616446033
 30
0.0
 40
0.037673432379961
100
AcDbArc
 50
251.9399423289778
 51
288.0407261870672
  0
ARC
  5
2AB
330
A
100
AcDbEntity
  8
1
  6
solid
 62
     7
100
AcDbCircle
 10
1.17627658456038
 20
0.4688624113646487
 30
0.0
 40
0.0187299698591232
100
AcDbArc
 50
244.4183740904197
 51
296.6754513357973
  0
ARC
  5
2AC
330
A
100
AcDbEntity
  8
1
  6
solid
 62
     7
100
AcDbCircle
 10
1.188149051230617
 20
0.3810443695240031
 30
0.0
 40
0.0711659789085388
100
AcDbArc
 50
77.73442734014472
 51
92.7899230445641
  0
LINE
  5
2AD
330
A
100
AcDbEntity
  8
1
  6
solid
 62
     7
100
AcDbLine
 10
1.203267812728881
 20
0.450590580701828
 30
0.0
 11
1.665787458419799
 21
0.4495275616645813
 31
0.0
  0
ARC
  5
2AE
330
A
100
AcDbEntity
  8
1
  6
solid
 62
     7
100
AcDbCircle
 10
1.669511294244145
 20
0.4159008935058372
 30
0.0
 40
0.0338322296738625
100
AcDbArc
 50
75.27585976726361
 51
96.3192183924931
  0
ARC
  5
2AF
330
A
100
AcDbEntity
  8
1
  6
solid
 62
     7
100
AcDbCircle
 10
1.684416358013788
 20
0.4310143581669893
 30
0.0
 40
0.0187029112130404
100
AcDbArc
 50
59.95815651570203
 51
109.7047294297498
  0
ARC
  5
2B0
330
A
100
AcDbEntity
  8
1
  6
solid
 62
     7
100
AcDbCircle
 10
1.696795418489408
 20
0.4645187342582705
 30
0.0
 40
0.017574667930603
100
AcDbArc
 50
260.1194763506616
 51
302.4316069192039
  0
ARC
  5
2B1
330
A
100
AcDbEntity
  8
1
  6
solid
 62
     7
100
AcDbCircle
 10
1.709005386343766
 20
0.4372056376673271
 30
0.0
 40
0.0127863874658942
100
AcDbArc
 50
63.23364886426251
 51
102.5798654083751
  0
ARC
  5
2B2
330
A
100
AcDbEntity
  8
1
  6
solid
 62
     7
100
AcDbCircle
 10
1.71928658000533
 20
0.4370749973613293
 30
0.0
 40
0.0124012483283878
100
AcDbArc
 50
54.45438325231658
 51
111.389539022506
  0
ARC
  5
2B3
330
A
100
AcDbEntity
  8
1
  6
solid
 62
     7
100
AcDbCircle
 10
1.733592488845189
 20
0.4373443938883383
 30
0.0
 40
0.0121165541931987
100
AcDbArc
 50
70.69330826818364
 51
125.8508390049855
  0
ARC
  5
2B4
330
A
100
AcDbEntity
  8
1
  6
solid
 62
     7
100
AcDbCircle
 10
1.739578877319539
 20
0.4207052581744457
 30
0.0
 40
0.0281440541148186
100
AcDbArc
 50
66.9665931324846
 51
94.0349162660957
  0
ARC
  5
2B5
330
A
100
AcDbEntity
  8
1
  6
solid
 62
     7
100
AcDbCircle
 10
1.746659887122547
 20
0.4735769430713186
 30
0.0
 40
0.0272477585822344
100
AcDbArc
 50
278.2945004490388
 51
294.4847364614074
  0
ARC
  5
2B6
330
A
100
AcDbEntity
  8
1
  6
solid
 62
     7
100
AcDbCircle
 10
1.761416827307243
 20
0.3777638938847376
 30
0.0
 40
0.0711000934243202
100
AcDbArc
 50
77.7229526223391
 51
92.79257315796206
  0
LINE
  5
2B7
330
A
100
AcDbEntity
  8
1
  6
solid
 62
     7
100
AcDbLine
 10
1.776535511016845
 20
0.4472441375255585
 30
0.0
 11
2.235708713531494
 21
0.4461811184883118
 31
0.0
  0
ARC
  5
2B8
330
A
100
AcDbEntity
  8
1
  6
solid
 62
     7
100
AcDbCircle
 10
2.239749288467194
 20
0.4311762162389335
 30
0.0
 40
0.0155394123867154
100
AcDbArc
 50
56.23536873877575
 51
105.0713135119207
  0
ARC
  5
2B9
330
A
100
AcDbEntity
  8
1
  6
solid
 62
     7
100
AcDbCircle
 10
2.24996855600484
 20
0.4532007470865344
 30
0.0
 40
0.0092427460476756
100
AcDbArc
 50
260.1405679748186
 51
300.9688536065539
  0
LINE
  5
2BA
330
A
100
AcDbEntity
  8
1
  6
solid
 62
     7
100
AcDbLine
 10
2.254724502563476
 20
0.4452756047248841
 30
0.0
 11
2.257716655731201
 21
0.4442913830280304
 31
0.0
  0
LINE
  5
2BB
330
A
100
AcDbEntity
  8
1
  6
solid
 62
     7
100
AcDbLine
 10
2.257716655731201
 20
0.4442913830280304
 30
0.0
 11
2.312834739685058
 21
0.4433465003967286
 31
0.0
  0
LINE
  5
2BC
330
A
100
AcDbEntity
  8
1
  6
solid
 62
     7
100
AcDbLine
 10
2.312834739685058
 20
0.4433465003967286
 30
0.0
 11
2.604330778121948
 21
0.4425984621047974
 31
0.0
  0
LINE
  5
2BD
330
A
100
AcDbEntity
  8
1
  6
solid
 62
     7
100
AcDbLine
 10
2.604330778121948
 20
0.4425984621047974
 30
0.0
 11
2.60799241065979
 21
0.4432677626609803
 31
0.0
  0
ARC
  5
2BE
330
A
100
AcDbEntity
  8
1
  6
solid
 62
     7
100
AcDbCircle
 10
2.618168044646639
 20
0.4810533534179102
 30
0.0
 40
0.0391317568719387
100
AcDbArc
 50
254.9278495625349
 51
271.1263910849343
  0
ARC
  5
2BF
330
A
100
AcDbEntity
  8
1
  6
solid
 62
     7
100
AcDbCircle
 10
2.622932772962409
 20
0.4467962053972455
 30
0.0
 40
0.0062970062717795
100
AcDbArc
 50
230.6162829854947
 51
316.2390767981002
  0
ARC
  5
2C0
330
A
100
AcDbEntity
  8
1
  6
solid
 62
     7
100
AcDbCircle
 10
2.631333050483295
 20
0.4312684661515932
 30
0.0
 40
0.0118180923163891
100
AcDbArc
 50
53.5984649266656
 51
109.0253783243328
  0
ARC
  5
2C1
330
A
100
AcDbEntity
  8
1
  6
solid
 62
     7
100
AcDbCircle
 10
2.63785442962923
 20
0.4553996106955264
 30
0.0
 40
0.0146204866468907
100
AcDbArc
 50
271.9284636142634
 51
294.4157242300335
  0
ARC
  5
2C2
330
A
100
AcDbEntity
  8
1
  6
solid
 62
     7
100
AcDbCircle
 10
2.652901898550211
 20
0.4093926916304995
 30
0.0
 40
0.033911120146513
100
AcDbArc
 50
74.35388668214944
 51
105.3975165164913
  0
ARC
  5
2C3
330
A
100
AcDbEntity
  8
1
  6
solid
 62
     7
100
AcDbCircle
 10
2.672309522652752
 20
0.4073029221955626
 30
0.0
 40
0.0362281799316406
100
AcDbArc
 50
64.34924415196821
 51
106.4551030075761
  0
ARC
  5
2C4
330
A
100
AcDbEntity
  8
1
  6
solid
 62
     7
100
AcDbCircle
 10
2.685388426564277
 20
0.4558131650404468
 30
0.0
 40
0.016064940020442
100
AcDbArc
 50
279.3280173534884
 51
303.6559593090637
  0
ARC
  5
2C5
330
A
100
AcDbEntity
  8
1
  6
solid
 62
     7
100
AcDbCircle
 10
2.696635978184696
 20
0.4322974586126954
 30
0.0
 40
0.0104109225794673
100
AcDbArc
 50
52.0965063281798
 51
103.0137736659677
  0
ARC
  5
2C6
330
A
100
AcDbEntity
  8
1
  6
solid
 62
     7
100
AcDbCircle
 10
2.711834417564156
 20
0.4257578790348685
 30
0.0
 40
0.0171803757548332
100
AcDbArc
 50
61.02274736578065
 51
120.8215521530517
  0
ARC
  5
2C7
330
A
100
AcDbEntity
  8
1
  6
solid
 62
     7
100
AcDbCircle
 10
2.726701479075369
 20
0.4714288498454751
 30
0.0
 40
0.0313324145972729
100
AcDbArc
 50
257.9448807227129
 51
290.7364652486878
  0
ARC
  5
2C8
330
A
100
AcDbEntity
  8
1
  6
solid
 62
     7
100
AcDbCircle
 10
2.741292259432196
 20
0.4295765152267121
 30
0.0
 40
0.0130275888368488
100
AcDbArc
 50
60.65214471651034
 51
105.5704569062761
  0
ARC
  5
2C9
330
A
100
AcDbEntity
  8
1
  6
solid
 62
     7
100
AcDbCircle
 10
2.769626830934436
 20
0.6219475418593855
 30
0.0
 40
0.1823286414146423
100
AcDbArc
 50
263.0857182241714
 51
277.5998804557322
  0
LINE
  5
2CA
330
A
100
AcDbEntity
  8
1
  6
solid
 62
     7
100
AcDbLine
 10
2.793740510940551
 20
0.4412205219268799
 30
0.0
 11
2.829173326492309
 21
0.4400394260883332
 31
0.0
  0
LINE
  5
2CB
330
A
100
AcDbEntity
  8
1
  6
solid
 62
     7
100
AcDbLine
 10
2.829173326492309
 20
0.4400394260883332
 30
0.0
 11
2.974370241165161
 21
0.4396457076072693
 31
0.0
  0
LINE
  5
2CC
330
A
100
AcDbEntity
  8
1
  6
solid
 62
     7
100
AcDbLine
 10
2.974370241165161
 20
0.4396457076072693
 30
0.0
 11
2.98972463607788
 21
0.4387401640415192
 31
0.0
  0
LINE
  5
2CD
330
A
100
AcDbEntity
  8
1
  6
solid
 62
     7
100
AcDbLine
 10
2.98972463607788
 20
0.4387401640415192
 30
0.0
 11
3.000945091247558
 21
0.4372441470623017
 31
0.0
  0
LINE
  5
2CE
330
A
100
AcDbEntity
  8
1
  6
solid
 62
     7
100
AcDbLine
 10
3.000945091247558
 20
0.4372441470623017
 30
0.0
 11
3.008071184158325
 21
0.4351575076580048
 31
0.0
  0
LINE
  5
2CF
330
A
100
AcDbEntity
  8
1
  6
solid
 62
     7
100
AcDbLine
 10
3.008071184158325
 20
0.4351575076580048
 30
0.0
 11
3.011141777038574
 21
0.4324409663677216
 31
0.0
  0
LINE
  5
2D0
330
A
100
AcDbEntity
  8
1
  6
solid
 62
     7
100
AcDbLine
 10
3.011141777038574
 20
0.4324409663677216
 30
0.0
 11
3.008622407913208
 21
0.4299606680870057
 31
0.0
  0
LINE
  5
2D1
330
A
100
AcDbEntity
  8
1
  6
solid
 62
     7
100
AcDbLine
 10
3.008622407913208
 20
0.4299606680870057
 30
0.0
 11
2.766653776168823
 21
0.4301968514919281
 31
0.0
  0
LINE
  5
2D2
330
A
100
AcDbEntity
  8
1
  6
solid
 62
     7
100
AcDbLine
 10
2.766653776168823
 20
0.4301968514919281
 30
0.0
 11
2.718464851379394
 21
0.43102365732193
 31
0.0
  0
LINE
  5
2D3
330
A
100
AcDbEntity
  8
1
  6
solid
 62
     7
100
AcDbLine
 10
2.718464851379394
 20
0.43102365732193
 30
0.0
 11
2.711811304092407
 21
0.4316141903400422
 31
0.0
  0
LINE
  5
2D4
330
A
100
AcDbEntity
  8
1
  6
solid
 62
     7
100
AcDbLine
 10
2.711811304092407
 20
0.4316141903400422
 30
0.0
 11
2.708976745605468
 21
0.4325984716415406
 31
0.0
  0
ARC
  5
2D5
330
A
100
AcDbEntity
  8
1
  6
solid
 62
     7
100
AcDbCircle
 10
2.702273088523407
 20
0.4418711878887066
 30
0.0
 40
0.0114421276375652
100
AcDbArc
 50
248.0309089537636
 51
305.864832241362
  0
ARC
  5
2D6
330
A
100
AcDbEntity
  8
1
  6
solid
 62
     7
100
AcDbCircle
 10
2.691375179421913
 20
0.4474609968207845
 30
0.0
 40
0.0175003744661808
100
AcDbArc
 50
249.1889504520663
 51
292.2169394871393
  0
ARC
  5
2D7
330
A
100
AcDbEntity
  8
1
  6
solid
 62
     7
100
AcDbCircle
 10
2.681589742169215
 20
0.3646821742878574
 30
0.0
 40
0.0665159747004509
100
AcDbArc
 50
86.92528356657019
 51
101.0693041866297
  0
ARC
  5
2D8
330
A
100
AcDbEntity
  8
1
  6
solid
 62
     7
100
AcDbCircle
 10
2.660498404830267
 20
0.4041560437669251
 30
0.0
 40
0.027112914249301
100
AcDbArc
 50
72.12839589960044
 51
107.898953771698
  0
ARC
  5
2D9
330
A
100
AcDbEntity
  8
1
  6
solid
 62
     7
100
AcDbCircle
 10
2.65195929497286
 20
0.4429238434283441
 30
0.0
 40
0.0129648176953197
100
AcDbArc
 50
233.9564811311573
 51
270.9119948619821
  0
ARC
  5
2DA
330
A
100
AcDbEntity
  8
1
  6
solid
 62
     7
100
AcDbCircle
 10
2.642802758709286
 20
0.4245557693211172
 30
0.0
 40
0.0080318776890636
100
AcDbArc
 50
79.03323220705225
 51
125.4027410293922
  0
ARC
  5
2DB
330
A
100
AcDbEntity
  8
1
  6
solid
 62
     7
100
AcDbCircle
 10
2.631699000725139
 20
0.4570169938030697
 30
0.0
 40
0.0267054010182619
100
AcDbArc
 50
254.6856408092825
 51
283.9781467442165
  0
ARC
  5
2DC
330
A
100
AcDbEntity
  8
1
  6
solid
 62
     7
100
AcDbCircle
 10
2.619669784396992
 20
0.4451565584685924
 30
0.0
 40
0.0147606832906604
100
AcDbArc
 50
252.200462819395
 51
289.7006977969066
  0
ARC
  5
2DD
330
A
100
AcDbEntity
  8
1
  6
solid
 62
     7
100
AcDbCircle
 10
2.613132507237896
 20
0.4486927669203406
 30
0.0
 40
0.0177065581083298
100
AcDbArc
 50
244.7906911171716
 51
276.5672822117259
  0
ARC
  5
2DE
330
A
100
AcDbEntity
  8
1
  6
solid
 62
     7
100
AcDbCircle
 10
2.600073026508758
 20
0.4382188835256757
 30
0.0
 40
0.0078202430158854
100
AcDbArc
 50
227.634898582595
 51
314.8762833039534
  0
ARC
  5
2DF
330
A
100
AcDbEntity
  8
1
  6
solid
 62
     7
100
AcDbCircle
 10
2.568290299236671
 20
0.1051940101001914
 30
0.0
 40
0.3283192217350006
100
AcDbArc
 50
85.36810288864485
 51
94.18495844668795
  0
LINE
  5
2E0
330
A
100
AcDbEntity
  8
1
  6
solid
 62
     7
100
AcDbLine
 10
2.544330835342407
 20
0.4326378107070923
 30
0.0
 11
2.538937330245971
 21
0.432007908821106
 31
0.0
  0
LINE
  5
2E1
330
A
100
AcDbEntity
  8
1
  6
solid
 62
     7
100
AcDbLine
 10
2.538937330245971
 20
0.432007908821106
 30
0.0
 11
2.489606380462646
 21
0.4331890046596527
 31
0.0
  0
LINE
  5
2E2
330
A
100
AcDbEntity
  8
1
  6
solid
 62
     7
100
AcDbLine
 10
2.489606380462646
 20
0.4331890046596527
 30
0.0
 11
2.234882116317749
 21
0.4339370131492615
 31
0.0
  0
LINE
  5
2E3
330
A
100
AcDbEntity
  8
1
  6
solid
 62
     7
100
AcDbLine
 10
2.234882116317749
 20
0.4339370131492615
 30
0.0
 11
2.234094619750976
 21
0.4338583052158356
 31
0.0
  0
ARC
  5
2E4
330
A
100
AcDbEntity
  8
1
  6
solid
 62
     7
100
AcDbCircle
 10
2.232409245540683
 20
0.4451412861898357
 30
0.0
 40
0.0114081613719463
100
AcDbArc
 50
247.4354223260706
 51
278.4956358597173
  0
ARC
  5
2E5
330
A
100
AcDbEntity
  8
1
  6
solid
 62
     7
100
AcDbCircle
 10
2.216369621255894
 20
0.4846468822912169
 30
0.0
 40
0.0513815246522427
100
AcDbArc
 50
256.900725798631
 51
283.1186903805754
  0
ARC
  5
2E6
330
A
100
AcDbEntity
  8
1
  6
solid
 62
     7
100
AcDbCircle
 10
2.198046580511495
 20
0.4505435277974675
 30
0.0
 40
0.0172797590494156
100
AcDbArc
 50
247.299446920074
 51
292.7345312224429
  0
ARC
  5
2E7
330
A
100
AcDbEntity
  8
1
  6
solid
 62
     7
100
AcDbCircle
 10
2.180713781960574
 20
0.4709537308969351
 30
0.0
 40
0.0378795824944973
100
AcDbArc
 50
245.03223392698
 51
286.3516921223093
  0
ARC
  5
2E8
330
A
100
AcDbEntity
  8
1
  6
solid
 62
     7
100
AcDbCircle
 10
2.168053436903124
 20
0.4190074049623414
 30
0.0
 40
0.0179187040776014
100
AcDbArc
 50
100.7063240284731
 51
122.650611925984
  0
ARC
  5
2E9
330
A
100
AcDbEntity
  8
1
  6
solid
 62
     7
100
AcDbCircle
 10
2.155685064799321
 20
0.4453438576483796
 30
0.0
 40
0.0115690380334854
100
AcDbArc
 50
248.1440407920811
 51
283.5009624080427
  0
ARC
  5
2EA
330
A
100
AcDbEntity
  8
1
  6
solid
 62
     7
100
AcDbCircle
 10
2.146372791359207
 20
0.4479725104124638
 30
0.0
 40
0.0142726618796587
100
AcDbArc
 50
249.5158159849864
 51
290.5298827621462
  0
ARC
  5
2EB
330
A
100
AcDbEntity
  8
1
  6
solid
 62
     7
100
AcDbCircle
 10
2.13675291821926
 20
0.4469946552602837
 30
0.0
 40
0.0132236117497087
100
AcDbArc
 50
232.2738811045976
 51
290.4733561165751
  0
ARC
  5
2EC
330
A
100
AcDbEntity
  8
1
  6
solid
 62
     7
100
AcDbCircle
 10
2.118455124250059
 20
0.4603553034594873
 30
0.0
 40
0.0259143486618996
100
AcDbArc
 50
250.1265988213257
 51
293.1940390290447
  0
LINE
  5
2ED
330
A
100
AcDbEntity
  8
1
  6
solid
 62
     7
100
AcDbLine
 10
2.109645843505859
 20
0.4359842836856842
 30
0.0
 11
1.647126078605651
 21
0.4370472729206086
 31
0.0
  0
ARC
  5
2EE
330
A
100
AcDbEntity
  8
1
  6
solid
 62
     7
100
AcDbCircle
 10
1.64282463226731
 20
0.4139311836752695
 30
0.0
 40
0.0235128905624151
100
AcDbArc
 50
79.45895106782997
 51
100.0035966006218
  0
ARC
  5
2EF
330
A
100
AcDbEntity
  8
1
  6
solid
 62
     7
100
AcDbCircle
 10
1.627099646519651
 20
0.3601191556056159
 30
0.0
 40
0.0778427645564079
100
AcDbArc
 50
81.39978347143495
 51
98.61954755777794
  0
ARC
  5
2F0
330
A
100
AcDbEntity
  8
1
  6
solid
 62
     7
100
AcDbCircle
 10
1.609619589101282
 20
0.4156630604793695
 30
0.0
 40
0.022198349237442
100
AcDbArc
 50
74.81781020604962
 51
109.2978448156083
  0
ARC
  5
2F1
330
A
100
AcDbEntity
  8
1
  6
solid
 62
     7
100
AcDbCircle
 10
1.594376960496654
 20
0.4116377929010536
 30
0.0
 40
0.0261979978531599
100
AcDbArc
 50
72.43406735552601
 51
102.6011653533018
  0
ARC
  5
2F2
330
A
100
AcDbEntity
  8
1
  6
solid
 62
     7
100
AcDbCircle
 10
1.583093776160497
 20
0.4311296927300323
 30
0.0
 40
0.0082404548302293
100
AcDbArc
 50
47.49542111078699
 51
130.0150960589156
  0
ARC
  5
2F3
330
A
100
AcDbEntity
  8
1
  6
solid
 62
     7
100
AcDbCircle
 10
1.572561019663
 20
0.454647724923349
 30
0.0
 40
0.0179852731525898
100
AcDbArc
 50
238.1527854326731
 51
286.9196086914175
  0
ARC
  5
2F4
330
A
100
AcDbEntity
  8
1
  6
solid
 62
     7
100
AcDbCircle
 10
1.555365171467014
 20
0.4519987239548517
 30
0.0
 40
0.0147939678281546
100
AcDbArc
 50
236.3398107552362
 51
301.391112976517
  0
ARC
  5
2F5
330
A
100
AcDbEntity
  8
1
  6
solid
 62
     7
100
AcDbCircle
 10
1.541049562785839
 20
0.3748672204705772
 30
0.0
 40
0.065105713903904
100
AcDbArc
 50
84.60986309831422
 51
104.4500975616243
  0
ARC
  5
2F6
330
A
100
AcDbEntity
  8
1
  6
solid
 62
     7
100
AcDbCircle
 10
1.519806627964341
 20
0.4291895204682302
 30
0.0
 40
0.0100534772500396
100
AcDbArc
 50
60.19779028763734
 51
119.8466041207349
  0
ARC
  5
2F7
330
A
100
AcDbEntity
  8
1
  6
solid
 62
     7
100
AcDbCircle
 10
1.509806637201138
 20
0.4291894090205379
 30
0.0
 40
0.0100535741075874
100
AcDbArc
 50
60.19810447633916
 51
119.8462899320331
  0
ARC
  5
2F8
330
A
100
AcDbEntity
  8
1
  6
solid
 62
     7
100
AcDbCircle
 10
1.488156378983325
 20
0.3811714170052579
 30
0.0
 40
0.0591334700584412
100
AcDbArc
 50
73.64951317870811
 51
106.3639712085752
  0
ARC
  5
2F9
330
A
100
AcDbEntity
  8
1
  6
solid
 62
     7
100
AcDbCircle
 10
1.460477605905768
 20
0.4094796625861257
 30
0.0
 40
0.0304940436035395
100
AcDbArc
 50
68.81768709567936
 51
111.2026001600173
  0
LINE
  5
2FA
330
A
100
AcDbEntity
  8
1
  6
solid
 62
     7
100
AcDbLine
 10
1.449448943138122
 20
0.4379133880138398
 30
0.0
 11
1.447441101074218
 21
0.4399606585502625
 31
0.0
  0
LINE
  5
2FB
330
A
100
AcDbEntity
  8
1
  6
solid
 62
     7
100
AcDbLine
 10
1.447441101074218
 20
0.4399606585502625
 30
0.0
 11
1.025511860847473
 21
0.4405905902385712
 31
0.0
  0
ARC
  5
2FC
330
A
100
AcDbEntity
  8
1
  6
solid
 62
     7
100
AcDbCircle
 10
1.01992911167992
 20
0.4195683785084789
 30
0.0
 40
0.0217508729547262
100
AcDbArc
 50
75.12756611509889
 51
110.3581292314153
  0
ARC
  5
2FD
330
A
100
AcDbEntity
  8
1
  6
solid
 62
     7
100
AcDbCircle
 10
1.003628462560519
 20
0.4117696694126605
 30
0.0
 40
0.0295128915458918
100
AcDbArc
 50
72.78662806010373
 51
107.2393145922257
  0
ARC
  5
2FE
330
A
100
AcDbEntity
  8
1
  6
solid
 62
     7
100
AcDbCircle
 10
0.9865414081304052
 20
0.41481812288858
 30
0.0
 40
0.0264898352324963
100
AcDbArc
 50
71.64779646884166
 51
108.3792526741333
  0
ARC
  5
2FF
330
A
100
AcDbEntity
  8
1
  6
solid
 62
     7
100
AcDbCircle
 10
0.9667126111502984
 20
0.3953160832253871
 30
0.0
 40
0.0460960455238819
100
AcDbArc
 50
75.5836246761698
 51
96.64567069896845
  0
LINE
  5
300
330
A
100
AcDbEntity
  8
1
  6
solid
 62
     7
100
AcDbLine
 10
0.9613779783248901
 20
0.4411023855209351
 30
0.0
 11
0.9585434198379516
 21
0.4422834813594819
 31
0.0
  0
ARC
  5
301
330
A
100
AcDbEntity
  8
1
  6
solid
 62
     7
100
AcDbCircle
 10
0.8149012907636988
 20
-7.454703733694727
 30
0.0
 40
7.898293495178222
100
AcDbArc
 50
88.95793420318765
 51
90.51735838481196
  0
LINE
  5
302
330
A
100
AcDbEntity
  8
1
  6
solid
 62
     7
100
AcDbLine
 10
0.7435827255249024
 20
0.4432677626609803
 30
0.0
 11
0.6706693768501282
 21
0.4381889998912812
 31
0.0
  0
ARC
  5
303
330
A
100
AcDbEntity
  8
1
  6
solid
 62
     7
100
AcDbCircle
 10
0.6914502399024196
 20
0.4317513577041793
 30
0.0
 40
0.0217551719397307
100
AcDbArc
 50
162.7876960740924
 51
202.9519233939625
  0
LINE
  5
304
330
A
100
AcDbEntity
  8
1
  6
solid
 62
     7
100
AcDbLine
 10
0.6714173555374146
 20
0.4232677519321442
 30
0.0
 11
0.8535433411598205
 21
0.4226378202438355
 31
0.0
  0
ARC
  5
305
330
A
100
AcDbEntity
  8
1
  6
solid
 62
     7
100
AcDbCircle
 10
0.8694861465926331
 20
0.2890679036601487
 30
0.0
 40
0.1345180124044418
100
AcDbArc
 50
84.10277277885954
 51
96.80657971053019
  0
ARC
  5
306
330
A
100
AcDbEntity
  8
1
  6
solid
 62
     7
100
AcDbCircle
 10
0.8954085510859346
 20
0.4902608133405572
 30
0.0
 40
0.0684647485613823
100
AcDbArc
 50
259.8192758762611
 51
281.9012057459261
  0
ARC
  5
307
330
A
100
AcDbEntity
  8
1
  6
solid
 62
     7
100
AcDbCircle
 10
0.9148604444173003
 20
0.3649292035434636
 30
0.0
 40
0.0585817843675614
100
AcDbArc
 50
76.80927138687732
 51
95.22300718165189
  0
ARC
  5
308
330
A
100
AcDbEntity
  8
1
  6
solid
 62
     7
100
AcDbCircle
 10
0.9340474274549869
 20
0.4096762581062609
 30
0.0
 40
0.0136000122874975
100
AcDbArc
 50
54.78481755907804
 51
115.3322384001391
  0
ARC
  5
309
330
A
100
AcDbEntity
  8
1
  6
solid
 62
     7
100
AcDbCircle
 10
0.9432236900326596
 20
0.4308090022737436
 30
0.0
 40
0.0101099573075771
100
AcDbArc
 50
262.4185180252879
 51
309.7257298584005
  0
ARC
  5
30A
330
A
100
AcDbEntity
  8
1
  6
solid
 62
     7
100
AcDbCircle
 10
0.9511457230437081
 20
0.3747023996742565
 30
0.0
 40
0.0483512058854103
100
AcDbArc
 50
71.19420702115569
 51
91.73109345905038
  0
LINE
  5
30B
330
A
100
AcDbEntity
  8
1
  6
solid
 62
     7
100
AcDbLine
 10
0.9667323231697082
 20
0.4204724729061127
 30
0.0
 11
1.413504004478454
 21
0.4199606776237488
 31
0.0
  0
ARC
  5
30C
330
A
100
AcDbEntity
  8
1
  6
solid
 62
     7
100
AcDbCircle
 10
1.416837058056647
 20
0.3859719867620401
 30
0.0
 40
0.0341517254710198
100
AcDbArc
 50
66.46777075702023
 51
95.60072347294278
  0
ARC
  5
30D
330
A
100
AcDbEntity
  8
1
  6
solid
 62
     7
100
AcDbCircle
 10
1.439611965173918
 20
0.4032156071585682
 30
0.0
 40
0.016775980591774
100
AcDbArc
 50
57.99100397813041
 51
123.0101769895555
  0
ARC
  5
30E
330
A
100
AcDbEntity
  8
1
  6
solid
 62
     7
100
AcDbCircle
 10
1.450079982313958
 20
0.4264240665810786
 30
0.0
 40
0.0091202668845654
100
AcDbArc
 50
260.0499177041541
 51
301.1909986791195
  0
ARC
  5
30F
330
A
100
AcDbEntity
  8
1
  6
solid
 62
     7
100
AcDbCircle
 10
1.459750440424796
 20
0.4275724975334527
 30
0.0
 40
0.0102266203612089
100
AcDbArc
 50
241.0696143026324
 51
309.5329511841716
  0
ARC
  5
310
330
A
100
AcDbEntity
  8
1
  6
solid
 62
     7
100
AcDbCircle
 10
1.468371738179686
 20
0.4017896683412566
 30
0.0
 40
0.0180195830762386
100
AcDbArc
 50
69.08893098309349
 51
96.73055287487876
  0
ARC
  5
311
330
A
100
AcDbEntity
  8
1
  6
solid
 62
     7
100
AcDbCircle
 10
1.484922791159997
 20
0.3699051622396366
 30
0.0
 40
0.0497568212449551
100
AcDbArc
 50
79.19315084118434
 51
101.734588517451
  0
LINE
  5
312
330
A
100
AcDbEntity
  8
1
  6
solid
 62
     7
100
AcDbLine
 10
1.494252085685729
 20
0.4187795519828797
 30
0.0
 11
1.518307209014892
 21
0.4187795519828797
 31
0.0
  0
LINE
  5
313
330
A
100
AcDbEntity
  8
1
  6
solid
 62
     7
100
AcDbLine
 10
1.518307209014892
 20
0.4187795519828797
 30
0.0
 11
1.523149728775024
 21
0.4172441363334656
 31
0.0
  0
ARC
  5
314
330
A
100
AcDbEntity
  8
1
  6
solid
 62
     7
100
AcDbCircle
 10
1.535109858560356
 20
0.3914491608523028
 30
0.0
 40
0.0284328237175942
100
AcDbArc
 50
89.90406225230158
 51
114.875326065422
  0
ARC
  5
315
330
A
100
AcDbEntity
  8
1
  6
solid
 62
     7
100
AcDbCircle
 10
1.535513949875478
 20
0.4114979035984513
 30
0.0
 40
0.0083916075527668
100
AcDbArc
 50
37.56689762381097
 51
92.43406335861726
  0
LINE
  5
316
330
A
100
AcDbEntity
  8
1
  6
solid
 62
     7
100
AcDbLine
 10
1.542165398597717
 20
0.4166142046451569
 30
0.0
 11
2.000393867492675
 21
0.4163386225700379
 31
0.0
  0
ARC
  5
317
330
A
100
AcDbEntity
  8
1
  6
solid
 62
     7
100
AcDbCircle
 10
2.00288468475489
 20
0.3972245487093672
 30
0.0
 40
0.0192756839096546
100
AcDbArc
 50
66.94513267811242
 51
97.42456156625459
  0
LINE
  5
318
330
A
100
AcDbEntity
  8
1
  6
solid
 62
     7
100
AcDbLine
 10
2.010433197021484
 20
0.4149606823921204
 30
0.0
 11
2.069330692291259
 21
0.4134252071380616
 31
0.0
  0
LINE
  5
319
330
A
100
AcDbEntity
  8
1
  6
solid
 62
     7
100
AcDbLine
 10
2.069330692291259
 20
0.4134252071380616
 30
0.0
 11
2.359015941619873
 21
0.4127953052520752
 31
0.0
  0
LINE
  5
31A
330
A
100
AcDbEntity
  8
1
  6
solid
 62
     7
100
AcDbLine
 10
2.359015941619873
 20
0.4127953052520752
 30
0.0
 11
2.376023769378662
 21
0.4119685292243958
 31
0.0
  0
LINE
  5
31B
330
A
100
AcDbEntity
  8
1
  6
solid
 62
     7
100
AcDbLine
 10
2.376023769378662
 20
0.4119685292243958
 30
0.0
 11
2.377322912216186
 21
0.4132677614688874
 31
0.0
  0
LINE
  5
31C
330
A
100
AcDbEntity
  8
1
  6
solid
 62
     7
100
AcDbLine
 10
2.377322912216186
 20
0.4132677614688874
 30
0.0
 11
2.425669431686401
 21
0.4128740429878235
 31
0.0
  0
LINE
  5
31D
330
A
100
AcDbEntity
  8
1
  6
solid
 62
     7
100
AcDbLine
 10
2.425669431686401
 20
0.4128740429878235
 30
0.0
 11
2.43066930770874
 21
0.4124409854412079
 31
0.0
  0
ARC
  5
31E
330
A
100
AcDbEntity
  8
1
  6
solid
 62
     7
100
AcDbCircle
 10
2.441639566107304
 20
0.3555169553372939
 30
0.0
 40
0.0579714737832546
100
AcDbArc
 50
77.55363906300366
 51
100.9081697788253
  0
ARC
  5
31F
330
A
100
AcDbEntity
  8
1
  6
solid
 62
     7
100
AcDbCircle
 10
2.457476068629647
 20
0.4992841408439285
 30
0.0
 40
0.0872221887111664
100
AcDbArc
 50
267.8040675443295
 51
279.3808932629481
  0
ARC
  5
320
330
A
100
AcDbEntity
  8
1
  6
solid
 62
     7
100
AcDbCircle
 10
2.472153055627914
 20
0.4050665625385938
 30
0.0
 40
0.0081747537478805
100
AcDbArc
 50
36.77506013295305
 51
93.22590084947519
  0
LINE
  5
321
330
A
100
AcDbEntity
  8
1
  6
solid
 62
     7
100
AcDbLine
 10
2.478700876235961
 20
0.4099606275558472
 30
0.0
 11
2.985905647277832
 21
0.4096457064151764
 31
0.0
  0
ARC
  5
322
330
A
100
AcDbEntity
  8
1
  6
solid
 62
     7
100
AcDbCircle
 10
2.987173506614042
 20
0.3758607422863118
 30
0.0
 40
0.033808745443821
100
AcDbArc
 50
60.73469438281911
 51
92.14914884757936
  0
ARC
  5
323
330
A
100
AcDbEntity
  8
1
  6
solid
 62
     7
100
AcDbCircle
 10
3.002283225763987
 20
0.4013778666376753
 30
0.0
 40
0.0042216619476676
100
AcDbArc
 50
340.3817364394315
 51
430.3771968681116
  0
LINE
  5
324
330
A
100
AcDbEntity
  8
1
  6
solid
 62
     7
100
AcDbLine
 10
3.00625991821289
 20
0.3999606370925903
 30
0.0
 11
2.471850633621215
 21
0.4004330933094025
 31
0.0
  0
ARC
  5
325
330
A
100
AcDbEntity
  8
1
  6
solid
 62
     7
100
AcDbCircle
 10
2.464855168606338
 20
0.3595985991614297
 30
0.0
 40
0.0414293669164181
100
AcDbArc
 50
80.27887429655498
 51
103.0334685164394
  0
ARC
  5
326
330
A
100
AcDbEntity
  8
1
  6
solid
 62
     7
100
AcDbCircle
 10
2.447700027690111
 20
0.3771662073363598
 30
0.0
 40
0.0240959264338017
100
AcDbArc
 50
71.08258465464476
 51
103.9527709975881
  0
ARC
  5
327
330
A
100
AcDbEntity
  8
1
  6
solid
 62
     7
100
AcDbCircle
 10
2.429885869482572
 20
0.3755808450838748
 30
0.0
 40
0.0277059432119131
100
AcDbArc
 50
64.32478865964498
 51
114.5235200967475
  0
ARC
  5
328
330
A
100
AcDbEntity
  8
1
  6
solid
 62
     7
100
AcDbCircle
 10
2.41538664089682
 20
0.4196646076962799
 30
0.0
 40
0.0191139876842499
100
AcDbArc
 50
239.3071420439186
 51
279.0280900866548
  0
ARC
  5
329
330
A
100
AcDbEntity
  8
1
  6
solid
 62
     7
100
AcDbCircle
 10
2.401440101391737
 20
0.3353994509178109
 30
0.0
 40
0.0679582133889198
100
AcDbArc
 50
86.46514738256479
 51
104.273318605526
  0
ARC
  5
32A
330
A
100
AcDbEntity
  8
1
  6
solid
 62
     7
100
AcDbCircle
 10
2.376362328402569
 20
0.3851582437047867
 30
0.0
 40
0.0181255023926497
100
AcDbArc
 50
62.66550348381709
 51
117.361750564833
  0
LINE
  5
32B
330
A
100
AcDbEntity
  8
1
  6
solid
 62
     7
100
AcDbLine
 10
2.368031740188598
 20
0.4012598693370819
 30
0.0
 11
2.365000247955322
 21
0.4022834897041321
 31
0.0
  0
ARC
  5
32C
330
A
100
AcDbEntity
  8
1
  6
solid
 62
     7
100
AcDbCircle
 10
2.092608997094528
 20
-21.1189782309254
 30
0.0
 40
21.52298545837402
100
AcDbArc
 50
89.27485498067625
 51
90.28540516059832
  0
ARC
  5
32D
330
A
100
AcDbEntity
  8
1
  6
solid
 62
     7
100
AcDbCircle
 10
1.979921324495747
 20
0.3858101889817799
 30
0.0
 40
0.0187465120106936
100
AcDbArc
 50
73.02720098304992
 51
96.14838511606732
  0
ARC
  5
32E
330
A
100
AcDbEntity
  8
1
  6
solid
 62
     7
100
AcDbCircle
 10
1.973093613854038
 20
0.3974279092601787
 30
0.0
 40
0.0085161691531539
100
AcDbArc
 50
55.53041466925498
 51
124.5173811733239
  0
ARC
  5
32F
330
A
100
AcDbEntity
  8
1
  6
solid
 62
     7
100
AcDbCircle
 10
1.969212878317195
 20
0.3267618368159966
 30
0.0
 40
0.0776927769184113
100
AcDbArc
 50
90.69689353568374
 51
97.77601193820537
  0
ARC
  5
330
330
A
100
AcDbEntity
  8
1
  6
solid
 62
     7
100
AcDbCircle
 10
1.95326780504121
 20
0.3861125485953727
 30
0.0
 40
0.0184459052979946
100
AcDbArc
 50
72.86993587741038
 51
96.24897331197409
  0
ARC
  5
331
330
A
100
AcDbEntity
  8
1
  6
solid
 62
     7
100
AcDbCircle
 10
1.937739539011405
 20
0.3576426059766864
 30
0.0
 40
0.0487199276685715
100
AcDbArc
 50
73.88800289395746
 51
108.7403374547952
  0
ARC
  5
332
330
A
100
AcDbEntity
  8
1
  6
solid
 62
     7
100
AcDbCircle
 10
1.916574778435381
 20
0.3844298148870626
 30
0.0
 40
0.0201195012778044
100
AcDbArc
 50
74.09995732428129
 51
95.72735176506022
  0
ARC
  5
333
330
A
100
AcDbEntity
  8
1
  6
solid
 62
     7
100
AcDbCircle
 10
1.906174059403291
 20
0.3893443932802079
 30
0.0
 40
0.0172796547412872
100
AcDbArc
 50
60.94087388819971
 51
117.9653412119762
  0
LINE
  5
334
330
A
100
AcDbEntity
  8
1
  6
solid
 62
     7
100
AcDbLine
 10
1.898070931434631
 20
0.4046063125133515
 30
0.0
 11
1.895078897476196
 21
0.4055905640125275
 31
0.0
  0
LINE
  5
335
330
A
100
AcDbEntity
  8
1
  6
solid
 62
     7
100
AcDbLine
 10
1.895078897476196
 20
0.4055905640125275
 30
0.0
 11
1.827165484428405
 21
0.4065354466438294
 31
0.0
  0
LINE
  5
336
330
A
100
AcDbEntity
  8
1
  6
solid
 62
     7
100
AcDbLine
 10
1.827165484428405
 20
0.4065354466438294
 30
0.0
 11
1.334055185317993
 21
0.4068897664546967
 31
0.0
  0
LINE
  5
337
330
A
100
AcDbEntity
  8
1
  6
solid
 62
     7
100
AcDbLine
 10
1.334055185317993
 20
0.4068897664546967
 30
0.0
 11
1.306141853332519
 21
0.4076772034168244
 31
0.0
  0
LINE
  5
338
330
A
100
AcDbEntity
  8
1
  6
solid
 62
     7
100
AcDbLine
 10
1.306141853332519
 20
0.4076772034168244
 30
0.0
 11
1.301968455314636
 21
0.4082677662372589
 31
0.0
  0
LINE
  5
339
330
A
100
AcDbEntity
  8
1
  6
solid
 62
     7
100
AcDbLine
 10
1.301968455314636
 20
0.4082677662372589
 30
0.0
 11
1.299173235893249
 21
0.4092913866043091
 31
0.0
  0
ARC
  5
33A
330
A
100
AcDbEntity
  8
1
  6
solid
 62
     7
100
AcDbCircle
 10
1.29267623640966
 20
0.4182679028850284
 30
0.0
 40
0.0110810128971934
100
AcDbArc
 50
229.1825374862498
 51
305.896169149274
  0
ARC
  5
33B
330
A
100
AcDbEntity
  8
1
  6
solid
 62
     7
100
AcDbCircle
 10
1.289074708438807
 20
0.3848692574011418
 30
0.0
 40
0.0252763535827398
100
AcDbArc
 50
98.28336223173533
 51
115.1148983656548
  0
ARC
  5
33C
330
A
100
AcDbEntity
  8
1
  6
solid
 62
     7
100
AcDbCircle
 10
1.274828311305519
 20
0.4331159524390647
 30
0.0
 40
0.0256029218435288
100
AcDbArc
 50
249.0392600262163
 51
277.8982948356647
  0
ARC
  5
33D
330
A
100
AcDbEntity
  8
1
  6
solid
 62
     7
100
AcDbCircle
 10
1.260819241857641
 20
0.4177373411709655
 30
0.0
 40
0.0098079331219196
100
AcDbArc
 50
232.456411079977
 51
299.6381312656549
  0
ARC
  5
33E
330
A
100
AcDbEntity
  8
1
  6
solid
 62
     7
100
AcDbCircle
 10
1.248102263571563
 20
0.4202685327282598
 30
0.0
 40
0.0123160695657134
100
AcDbArc
 50
242.6347316603734
 51
303.1808137843571
  0
ARC
  5
33F
330
A
100
AcDbEntity
  8
1
  6
solid
 62
     7
100
AcDbCircle
 10
1.235089087145343
 20
0.420957630699966
 30
0.0
 40
0.0137562584131956
100
AcDbArc
 50
235.0301629630212
 51
302.3057299478951
  0
ARC
  5
340
330
A
100
AcDbEntity
  8
1
  6
solid
 62
     7
100
AcDbCircle
 10
1.21849031766932
 20
0.3520287124705076
 30
0.0
 40
0.058311190456152
100
AcDbArc
 50
81.40507003785254
 51
105.8955978164308
  0
ARC
  5
341
330
A
100
AcDbEntity
  8
1
  6
solid
 62
     7
100
AcDbCircle
 10
1.200833948064629
 20
0.4113058583774882
 30
0.0
 40
0.0036130116786808
100
AcDbArc
 50
201.8490766543426
 51
297.8137330968312
  0
LINE
  5
342
330
A
100
AcDbEntity
  8
1
  6
solid
 62
     7
100
AcDbLine
 10
1.19748044013977
 20
0.4099606275558472
 30
0.0
 11
0.8912598490715026
 21
0.4101968705654145
 31
0.0
  0
LINE
  5
343
330
A
100
AcDbEntity
  8
1
  6
solid
 62
     7
100
AcDbLine
 10
0.8912598490715026
 20
0.4101968705654145
 30
0.0
 11
0.8301969170570373
 21
0.4110236465930939
 31
0.0
  0
LINE
  5
344
330
A
100
AcDbEntity
  8
1
  6
solid
 62
     7
100
AcDbLine
 10
0.8301969170570373
 20
0.4110236465930939
 30
0.0
 11
0.8218898177146911
 21
0.4116142094135285
 31
0.0
  0
LINE
  5
345
330
A
100
AcDbEntity
  8
1
  6
solid
 62
     7
100
AcDbLine
 10
0.8218898177146911
 20
0.4116142094135285
 30
0.0
 11
0.8182284235954284
 21
0.4132677614688874
 31
0.0
  0
ARC
  5
346
330
A
100
AcDbEntity
  8
1
  6
solid
 62
     7
100
AcDbCircle
 10
0.8115521752343093
 20
0.4233391991080681
 30
0.0
 40
0.0120833003893495
100
AcDbArc
 50
236.4942003512351
 51
303.5399724516731
  0
ARC
  5
347
330
A
100
AcDbEntity
  8
1
  6
solid
 62
     7
100
AcDbCircle
 10
0.7993482174308716
 20
0.4195769568078013
 30
0.0
 40
0.008392134681344
100
AcDbArc
 50
240.352601534132
 51
311.2535782889353
  0
ARC
  5
348
330
A
100
AcDbEntity
  8
1
  6
solid
 62
     7
100
AcDbCircle
 10
0.7373249607106616
 20
-0.6521206837431829
 30
0.0
 40
1.06597626209259
100
AcDbArc
 50
86.88787462048605
 51
93.44511192890534
  0
ARC
  5
349
330
A
100
AcDbEntity
  8
1
  6
solid
 62
     7
100
AcDbCircle
 10
0.6730431803589783
 20
0.406134274627669
 30
0.0
 40
0.0057992367073894
100
AcDbArc
 50
87.78040959027746
 51
173.3029908673804
  0
ARC
  5
34A
330
A
100
AcDbEntity
  8
1
  6
solid
 62
     7
100
AcDbCircle
 10
0.6257252248003402
 20
0.4064729870908889
 30
0.0
 40
0.0415596850216389
100
AcDbArc
 50
334.9829395016903
 51
360.4660423232859
  0
ARC
  5
34B
330
A
100
AcDbEntity
  8
1
  6
solid
 62
     7
100
AcDbCircle
 10
0.6690202058153791
 20
0.3874667712008206
 30
0.0
 40
0.0058131916448474
100
AcDbArc
 50
165.7505091926389
 51
226.2465670111415
  0
LINE
  5
34C
330
A
100
AcDbEntity
  8
1
  6
solid
 62
     7
100
AcDbLine
 10
0.6650000214576722
 20
0.3832677602767944
 30
0.0
 11
0.7125591039657593
 21
0.3828740417957306
 31
0.0
  0
LINE
  5
34D
330
A
100
AcDbEntity
  8
1
  6
solid
 62
     7
100
AcDbLine
 10
0.7125591039657593
 20
0.3828740417957306
 30
0.0
 11
0.7176771759986878
 21
0.382440984249115
 31
0.0
  0
ARC
  5
34E
330
A
100
AcDbEntity
  8
1
  6
solid
 62
     7
100
AcDbCircle
 10
0.725344415444863
 20
0.3474106116797127
 30
0.0
 40
0.0358596369624138
100
AcDbArc
 50
75.48715166923796
 51
102.3458699575997
  0
ARC
  5
34F
330
A
100
AcDbEntity
  8
1
  6
solid
 62
     7
100
AcDbCircle
 10
0.7377695669960492
 20
0.429820497491765
 30
0.0
 40
0.0478183068335056
100
AcDbArc
 50
265.8760144246617
 51
280.7069608299277
  0
ARC
  5
350
330
A
100
AcDbEntity
  8
1
  6
solid
 62
     7
100
AcDbCircle
 10
0.7521873452966993
 20
0.3998625198226484
 30
0.0
 40
0.0179044511169195
100
AcDbArc
 50
251.9966055783322
 51
287.5910265321135
  0
ARC
  5
351
330
A
100
AcDbEntity
  8
1
  6
solid
 62
     7
100
AcDbCircle
 10
0.7630708964138618
 20
0.4018213714196602
 30
0.0
 40
0.0197974443435669
100
AcDbArc
 50
253.9532635302441
 51
275.8210806298075
  0
ARC
  5
352
330
A
100
AcDbEntity
  8
1
  6
solid
 62
     7
100
AcDbCircle
 10
0.769644781082802
 20
0.3876497669080808
 30
0.0
 40
0.0071666100993752
100
AcDbArc
 50
230.4225241791198
 51
313.3796317624527
  0
ARC
  5
353
330
A
100
AcDbEntity
  8
1
  6
solid
 62
     7
100
AcDbCircle
 10
0.7773185462824504
 20
0.3720450707355962
 30
0.0
 40
0.0107538821175695
100
AcDbArc
 50
69.62284004032422
 51
104.8248256451533
  0
ARC
  5
354
330
A
100
AcDbEntity
  8
1
  6
solid
 62
     7
100
AcDbCircle
 10
0.7830622821406169
 20
0.3733275318690252
 30
0.0
 40
0.0090227574110031
100
AcDbArc
 50
57.47590867696849
 51
102.8018465564006
  0
LINE
  5
355
330
A
100
AcDbEntity
  8
1
  6
solid
 62
     7
100
AcDbLine
 10
0.7879134416580201
 20
0.3809449076652527
 30
0.0
 11
1.151456832885742
 21
0.3793701231479645
 31
0.0
  0
ARC
  5
356
330
A
100
AcDbEntity
  8
1
  6
solid
 62
     7
100
AcDbCircle
 10
1.157509595530003
 20
0.0643370712382533
 30
0.0
 40
0.3150911927223206
100
AcDbArc
 50
85.08102021943228
 51
91.10069431941489
  0
ARC
  5
357
330
A
100
AcDbEntity
  8
1
  6
solid
 62
     7
100
AcDbCircle
 10
1.188203787319058
 20
0.3817483762626154
 30
0.0
 40
0.0050624841824174
100
AcDbArc
 50
223.4349264694949
 51
295.1383684895047
  0
ARC
  5
358
330
A
100
AcDbEntity
  8
1
  6
solid
 62
     7
100
AcDbCircle
 10
1.198975713883871
 20
0.3641951743754052
 30
0.0
 40
0.0155741740018129
100
AcDbArc
 50
67.87044572573073
 51
123.6121488818654
  0
ARC
  5
359
330
A
100
AcDbEntity
  8
1
  6
solid
 62
     7
100
AcDbCircle
 10
1.209432294196999
 20
0.3665255138430928
 30
0.0
 40
0.012938030064106
100
AcDbArc
 50
57.53067313373364
 51
110.7779365634663
  0
ARC
  5
35A
330
A
100
AcDbEntity
  8
1
  6
solid
 62
     7
100
AcDbCircle
 10
1.23083220914094
 20
0.4852240912936258
 30
0.0
 40
0.1087479591369629
100
AcDbArc
 50
262.3619913797168
 51
275.231662625192
  0
ARC
  5
35B
330
A
100
AcDbEntity
  8
1
  6
solid
 62
     7
100
AcDbCircle
 10
1.248865018897348
 20
0.3651108493050113
 30
0.0
 40
0.0143372863531113
100
AcDbArc
 50
59.31715350738008
 51
124.4817822273698
  0
ARC
  5
35C
330
A
100
AcDbEntity
  8
1
  6
solid
 62
     7
100
AcDbCircle
 10
1.262233124995647
 20
0.3988485734344109
 30
0.0
 40
0.0222466047853232
100
AcDbArc
 50
254.2142040772953
 51
294.6060133003101
  0
ARC
  5
35D
330
A
100
AcDbEntity
  8
1
  6
solid
 62
     7
100
AcDbCircle
 10
1.267702655628167
 20
0.3540240079522019
 30
0.0
 40
0.0248888768255711
100
AcDbArc
 50
65.18142757025339
 51
81.23290145944404
  0
ARC
  5
35E
330
A
100
AcDbEntity
  8
1
  6
solid
 62
     7
100
AcDbCircle
 10
1.28809019307369
 20
0.3556378141829736
 30
0.0
 40
0.023212568834424
100
AcDbArc
 50
68.56030849228035
 51
115.3560211188291
  0
LINE
  5
35F
330
A
100
AcDbEntity
  8
1
  6
solid
 62
     7
100
AcDbLine
 10
1.2965749502182
 20
0.3772441148757935
 30
0.0
 11
1.747323036193847
 21
0.3763386011123657
 31
0.0
  0
ARC
  5
360
330
A
100
AcDbEntity
  8
1
  6
solid
 62
     7
100
AcDbCircle
 10
1.747858596208435
 20
0.3283172310802345
 30
0.0
 40
0.0480243563652039
100
AcDbArc
 50
69.38941832543903
 51
90.63896670133287
  0
ARC
  5
361
330
A
100
AcDbEntity
  8
1
  6
solid
 62
     7
100
AcDbCircle
 10
1.774759240457194
 20
0.3498412488857575
 30
0.0
 40
0.0254697874188423
100
AcDbArc
 50
66.87071776710514
 51
113.1065188062529
  0
LINE
  5
362
330
A
100
AcDbEntity
  8
1
  6
solid
 62
     7
100
AcDbLine
 10
1.784763932228088
 20
0.3732677698135376
 30
0.0
 11
1.79488205909729
 21
0.375157505273819
 31
0.0
  0
LINE
  5
363
330
A
100
AcDbEntity
  8
1
  6
solid
 62
     7
100
AcDbLine
 10
1.79488205909729
 20
0.375157505273819
 30
0.0
 11
1.798031568527221
 21
0.3738976716995239
 31
0.0
  0
ARC
  5
364
330
A
100
AcDbEntity
  8
1
  6
solid
 62
     7
100
AcDbCircle
 10
1.803915514236092
 20
0.3770099902461246
 30
0.0
 40
0.0066563761793077
100
AcDbArc
 50
207.876643464798
 51
270.8635893113342
  0
LINE
  5
365
330
A
100
AcDbEntity
  8
1
  6
solid
 62
     7
100
AcDbLine
 10
1.80401587486267
 20
0.3703543543815613
 30
0.0
 11
1.806023716926574
 21
0.3737008273601532
 31
0.0
  0
ARC
  5
366
330
A
100
AcDbEntity
  8
1
  6
solid
 62
     7
100
AcDbCircle
 10
1.812760856916758
 20
0.4212573762524177
 30
0.0
 40
0.0480313897132874
100
AcDbArc
 50
261.9367984435052
 51
286.959944373561
  0
LINE
  5
367
330
A
100
AcDbEntity
  8
1
  6
solid
 62
     7
100
AcDbLine
 10
1.826771736145019
 20
0.3753149807453155
 30
0.0
 11
1.828779697418212
 21
0.3732677698135376
 31
0.0
  0
LINE
  5
368
330
A
100
AcDbEntity
  8
1
  6
solid
 62
     7
100
AcDbLine
 10
1.828779697418212
 20
0.3732677698135376
 30
0.0
 11
2.254015922546386
 21
0.3724409639835358
 31
0.0
  0
ARC
  5
369
330
A
100
AcDbEntity
  8
1
  6
solid
 62
     7
100
AcDbCircle
 10
2.267184891869808
 20
0.2807002527704023
 30
0.0
 40
0.0926810652017594
100
AcDbArc
 50
84.74747433461706
 51
98.16875165746251
  0
ARC
  5
36A
330
A
100
AcDbEntity
  8
1
  6
solid
 62
     7
100
AcDbCircle
 10
2.282555614564853
 20
0.3811785223223804
 30
0.0
 40
0.0106975641101599
100
AcDbArc
 50
229.9299309361785
 51
310.3956587178575
  0
ARC
  5
36B
330
A
100
AcDbEntity
  8
1
  6
solid
 62
     7
100
AcDbCircle
 10
2.291286930145496
 20
0.3581496632847683
 30
0.0
 40
0.0149901593104005
100
AcDbArc
 50
55.56319616217646
 51
96.89131503737336
  0
ARC
  5
36C
330
A
100
AcDbEntity
  8
1
  6
solid
 62
     7
100
AcDbCircle
 10
2.308883897148922
 20
0.354351329082566
 30
0.0
 40
0.0185562875121832
100
AcDbArc
 50
73.31123781477948
 51
119.437673864937
  0
ARC
  5
36D
330
A
100
AcDbEntity
  8
1
  6
solid
 62
     7
100
AcDbCircle
 10
2.316183375950718
 20
0.3543247061844789
 30
0.0
 40
0.0179100446403027
100
AcDbArc
 50
64.90380087105989
 51
96.31683465647277
  0
ARC
  5
36E
330
A
100
AcDbEntity
  8
1
  6
solid
 62
     7
100
AcDbCircle
 10
2.332540622309982
 20
0.3587206067677304
 30
0.0
 40
0.0147213693708182
100
AcDbArc
 50
49.77611689730263
 51
126.5214679588324
  0
LINE
  5
36F
330
A
100
AcDbEntity
  8
1
  6
solid
 62
     7
100
AcDbLine
 10
2.342047452926635
 20
0.3699606359004974
 30
0.0
 11
2.694173574447631
 21
0.3694488406181335
 31
0.0
  0
LINE
  5
370
330
A
100
AcDbEntity
  8
1
  6
solid
 62
     7
100
AcDbLine
 10
2.694173574447631
 20
0.3694488406181335
 30
0.0
 11
2.702992439270019
 21
0.3672440946102142
 31
0.0
  0
LINE
  5
371
330
A
100
AcDbEntity
  8
1
  6
solid
 62
     7
100
AcDbLine
 10
2.702992439270019
 20
0.3672440946102142
 30
0.0
 11
2.704291582107543
 21
0.3674409687519073
 31
0.0
  0
ARC
  5
372
330
A
100
AcDbEntity
  8
1
  6
solid
 62
     7
100
AcDbCircle
 10
2.712121623720317
 20
0.3566688417503431
 30
0.0
 40
0.0133172171190381
100
AcDbArc
 50
63.84267292689045
 51
126.0126461864231
  0
ARC
  5
373
330
A
100
AcDbEntity
  8
1
  6
solid
 62
     7
100
AcDbCircle
 10
2.727185725390067
 20
0.3361839857426923
 30
0.0
 40
0.0337157212197781
100
AcDbArc
 50
66.93649931900153
 51
105.8234812640792
  0
ARC
  5
374
330
A
100
AcDbEntity
  8
1
  6
solid
 62
     7
100
AcDbCircle
 10
2.746161880248471
 20
0.3607394072138049
 30
0.0
 40
0.0086643286049366
100
AcDbArc
 50
50.6645879045379
 51
131.7374648619177
  0
ARC
  5
375
330
A
100
AcDbEntity
  8
1
  6
solid
 62
     7
100
AcDbCircle
 10
2.753158160689584
 20
0.3751125282758744
 30
0.0
 40
0.0078176464885473
100
AcDbArc
 50
258.9061069049872
 51
306.3842647126469
  0
LINE
  5
376
330
A
100
AcDbEntity
  8
1
  6
solid
 62
     7
100
AcDbLine
 10
2.757795572280883
 20
0.3688189089298248
 30
0.0
 11
2.774016141891479
 21
0.3694882094860077
 31
0.0
  0
LINE
  5
377
330
A
100
AcDbEntity
  8
1
  6
solid
 62
     7
100
AcDbLine
 10
2.774016141891479
 20
0.3694882094860077
 30
0.0
 11
2.777992248535156
 21
0.3686220943927765
 31
0.0
  0
ARC
  5
378
330
A
100
AcDbEntity
  8
1
  6
solid
 62
     7
100
AcDbCircle
 10
2.794254877559121
 20
0.2906648522952435
 30
0.0
 40
0.0796354487538338
100
AcDbArc
 50
80.18174559146283
 51
101.7834585209625
  0
ARC
  5
379
330
A
100
AcDbEntity
  8
1
  6
solid
 62
     7
100
AcDbCircle
 10
2.823718789265628
 20
0.4174354624619556
 30
0.0
 40
0.0508463233709335
100
AcDbArc
 50
251.7963444318674
 51
286.2566534551032
  0
ARC
  5
37A
330
A
100
AcDbEntity
  8
1
  6
solid
 62
     7
100
AcDbCircle
 10
2.84630313748708
 20
0.3847770369146973
 30
0.0
 40
0.018185418099165
100
AcDbArc
 50
242.6661300399879
 51
297.3072438340235
  0
ARC
  5
37B
330
A
100
AcDbEntity
  8
1
  6
solid
 62
     7
100
AcDbCircle
 10
2.863938267062884
 20
0.3892323523593768
 30
0.0
 40
0.0226082727313042
100
AcDbArc
 50
245.7308359205726
 51
297.2540230000107
  0
ARC
  5
37C
330
A
100
AcDbEntity
  8
1
  6
solid
 62
     7
100
AcDbCircle
 10
2.876286776460286
 20
0.3564348154885999
 30
0.0
 40
0.0128548797219992
100
AcDbArc
 50
53.03984424501777
 51
98.92965522156943
  0
ARC
  5
37D
330
A
100
AcDbEntity
  8
1
  6
solid
 62
     7
100
AcDbCircle
 10
2.892577780558755
 20
0.3490823199325229
 30
0.0
 40
0.0195815488696098
100
AcDbArc
 50
63.55133462293814
 51
115.9276123297108
  0
ARC
  5
37E
330
A
100
AcDbEntity
  8
1
  6
solid
 62
     7
100
AcDbCircle
 10
2.910070637100209
 20
0.3488354505906289
 30
0.0
 40
0.0198247600346804
100
AcDbArc
 50
69.15213072348362
 51
116.2600922781287
  0
ARC
  5
37F
330
A
100
AcDbEntity
  8
1
  6
solid
 62
     7
100
AcDbCircle
 10
2.920905432562269
 20
0.3623854398560112
 30
0.0
 40
0.0062490967102349
100
AcDbArc
 50
57.19038286399985
 51
127.2121503480824
  0
ARC
  5
380
330
A
100
AcDbEntity
  8
1
  6
solid
 62
     7
100
AcDbCircle
 10
2.964432593442251
 20
0.8998612360316716
 30
0.0
 40
0.5337350368499756
100
AcDbArc
 50
265.6868181846523
 51
271.6164430706175
  0
ARC
  5
381
330
A
100
AcDbEntity
  8
1
  6
solid
 62
     7
100
AcDbCircle
 10
2.980438743526498
 20
0.3561241580815256
 30
0.0
 40
0.0102585693821311
100
AcDbArc
 50
33.66622098504629
 51
95.31559722604059
  0
ARC
  5
382
330
A
100
AcDbEntity
  8
1
  6
solid
 62
     7
100
AcDbCircle
 10
2.978247505100328
 20
0.3578740188662531
 30
0.0
 40
0.0114287417382002
100
AcDbArc
 50
353.6710476773231
 51
380.1503233440813
  0
LINE
  5
383
330
A
100
AcDbEntity
  8
1
  6
solid
 62
     7
100
AcDbLine
 10
2.989606618881225
 20
0.3566142022609711
 30
0.0
 11
2.560984373092651
 21
0.3574409782886505
 31
0.0
  0
ARC
  5
384
330
A
100
AcDbEntity
  8
1
  6
solid
 62
     7
100
AcDbCircle
 10
2.555826721844296
 20
0.3513886761967421
 30
0.0
 40
0.0079518379643559
100
AcDbArc
 50
49.56302524048199
 51
124.3615811432613
  0
ARC
  5
385
330
A
100
AcDbEntity
  8
1
  6
solid
 62
     7
100
AcDbCircle
 10
2.54684754224599
 20
0.351449353050254
 30
0.0
 40
0.0079034632071853
100
AcDbArc
 50
55.37182792201104
 51
130.7048871084789
  0
ARC
  5
386
330
A
100
AcDbEntity
  8
1
  6
solid
 62
     7
100
AcDbCircle
 10
2.53902953032919
 20
0.3683316767197251
 30
0.0
 40
0.0112117128446698
100
AcDbArc
 50
250.0120155678095
 51
283.7437619726584
  0
ARC
  5
387
330
A
100
AcDbEntity
  8
1
  6
solid
 62
     7
100
AcDbCircle
 10
2.532872454141836
 20
0.3900871220274596
 30
0.0
 40
0.0323753841221333
100
AcDbArc
 50
248.9058527713476
 51
274.1174026394691
  0
ARC
  5
388
330
A
100
AcDbEntity
  8
1
  6
solid
 62
     7
100
AcDbCircle
 10
2.512800869866653
 20
0.2922493805080571
 30
0.0
 40
0.0681546479463577
100
AcDbArc
 50
82.90355890023997
 51
105.4145885743218
  0
ARC
  5
389
330
A
100
AcDbEntity
  8
1
  6
solid
 62
     7
100
AcDbCircle
 10
2.486941036844147
 20
0.3441256610704019
 30
0.0
 40
0.0158480498939753
100
AcDbArc
 50
60.74816693095697
 51
122.840057467898
  0
ARC
  5
38A
330
A
100
AcDbEntity
  8
1
  6
solid
 62
     7
100
AcDbCircle
 10
2.476332306197635
 20
0.3639407571442961
 30
0.0
 40
0.0068047372624278
100
AcDbArc
 50
224.7083537685413
 51
287.2181972411738
  0
LINE
  5
38B
330
A
100
AcDbEntity
  8
1
  6
solid
 62
     7
100
AcDbLine
 10
2.47149634361267
 20
0.3591338992118835
 30
0.0
 11
2.13846468925476
 21
0.3605511784553528
 31
0.0
  0
ARC
  5
38C
330
A
100
AcDbEntity
  8
1
  6
solid
 62
     7
100
AcDbCircle
 10
2.133697621426095
 20
0.6717545972190254
 30
0.0
 40
0.3112399280071258
100
AcDbArc
 50
265.182521839455
 51
270.8775980293219
  0
ARC
  5
38D
330
A
100
AcDbEntity
  8
1
  6
solid
 62
     7
100
AcDbCircle
 10
2.101422797699078
 20
0.3512586829936656
 30
0.0
 40
0.0120371161028743
100
AcDbArc
 50
59.3501296606929
 51
123.8117406697915
  0
ARC
  5
38E
330
A
100
AcDbEntity
  8
1
  6
solid
 62
     7
100
AcDbCircle
 10
2.085429169518702
 20
0.3390869127602669
 30
0.0
 40
0.0240425039082766
100
AcDbArc
 50
67.25582090798337
 51
115.4996975631149
  0
ARC
  5
38F
330
A
100
AcDbEntity
  8
1
  6
solid
 62
     7
100
AcDbCircle
 10
2.072734337504555
 20
0.3709297848194052
 30
0.0
 40
0.0104097882285714
100
AcDbArc
 50
232.0916482424471
 51
283.0152266750281
  0
ARC
  5
390
330
A
100
AcDbEntity
  8
1
  6
solid
 62
     7
100
AcDbCircle
 10
2.055630503895508
 20
0.3821405370814293
 30
0.0
 40
0.0221800152212381
100
AcDbArc
 50
239.4903857740663
 51
298.8670302291172
  0
ARC
  5
391
330
A
100
AcDbEntity
  8
1
  6
solid
 62
     7
100
AcDbCircle
 10
2.04182063518347
 20
0.3497696815801451
 30
0.0
 40
0.0135047007352114
100
AcDbArc
 50
79.11787874143621
 51
121.6987635934402
  0
ARC
  5
392
330
A
100
AcDbEntity
  8
1
  6
solid
 62
     7
100
AcDbCircle
 10
2.021234709408565
 20
0.3096014231647927
 30
0.0
 40
0.0533907264471054
100
AcDbArc
 50
75.36495616989184
 51
107.3922425277423
  0
LINE
  5
393
330
A
100
AcDbEntity
  8
1
  6
solid
 62
     7
100
AcDbLine
 10
2.005275726318359
 20
0.3605511784553528
 30
0.0
 11
2.001535415649414
 21
0.3624409735202789
 31
0.0
  0
LINE
  5
394
330
A
100
AcDbEntity
  8
1
  6
solid
 62
     7
100
AcDbLine
 10
2.001535415649414
 20
0.3624409735202789
 30
0.0
 11
1.665511846542358
 21
0.3638976514339447
 31
0.0
  0
ARC
  5
395
330
A
100
AcDbEntity
  8
1
  6
solid
 62
     7
100
AcDbCircle
 10
1.660550700879305
 20
0.6570880912172072
 30
0.0
 40
0.2932324111461639
100
AcDbArc
 50
265.0243892997909
 51
270.9694230925236
  0
ARC
  5
396
330
A
100
AcDbEntity
  8
1
  6
solid
 62
     7
100
AcDbCircle
 10
1.631391707110733
 20
0.3613817339764129
 30
0.0
 40
0.0051667848601937
100
AcDbArc
 50
43.84229443320568
 51
113.9838087938169
  0
ARC
  5
397
330
A
100
AcDbEntity
  8
1
  6
solid
 62
     7
100
AcDbCircle
 10
1.620815425575415
 20
0.3772846396823811
 30
0.0
 40
0.0140315694734454
100
AcDbArc
 50
244.629064935747
 51
307.1616392779374
  0
ARC
  5
398
330
A
100
AcDbEntity
  8
1
  6
solid
 62
     7
100
AcDbCircle
 10
1.608752215576488
 20
0.382062278091431
 30
0.0
 40
0.018475016579032
100
AcDbArc
 50
237.185739929226
 51
289.1188476418916
  0
ARC
  5
399
330
A
100
AcDbEntity
  8
1
  6
solid
 62
     7
100
AcDbCircle
 10
1.600161871404082
 20
0.3481215059250311
 30
0.0
 40
0.0184687469154596
100
AcDbArc
 50
94.41477040659677
 51
123.3818861294714
  0
ARC
  5
39A
330
A
100
AcDbEntity
  8
1
  6
solid
 62
     7
100
AcDbCircle
 10
1.587215153565612
 20
0.3760227606506887
 30
0.0
 40
0.0127863874658942
100
AcDbArc
 50
243.2336538732188
 51
282.5798704173315
  0
LINE
  5
39B
330
A
100
AcDbEntity
  8
1
  6
solid
 62
     7
100
AcDbLine
 10
1.581456780433654
 20
0.3646063208580017
 30
0.0
 11
1.574803113937377
 21
0.363267719745636
 31
0.0
  0
ARC
  5
39C
330
A
100
AcDbEntity
  8
1
  6
solid
 62
     7
100
AcDbCircle
 10
1.558066053693897
 20
0.3257440148358857
 30
0.0
 40
0.0410871952772141
100
AcDbArc
 50
65.96123368288833
 51
84.10837353397896
  0
ARC
  5
39D
330
A
100
AcDbEntity
  8
1
  6
solid
 62
     7
100
AcDbCircle
 10
1.555134083323432
 20
0.3783120232663808
 30
0.0
 40
0.0137096801772714
100
AcDbArc
 50
243.6789036599282
 51
301.4326951681841
  0
ARC
  5
39E
330
A
100
AcDbEntity
  8
1
  6
solid
 62
     7
100
AcDbCircle
 10
1.536257964352292
 20
0.3909588660077151
 30
0.0
 40
0.0280273836106062
100
AcDbArc
 50
248.0634718806316
 51
297.1678157674014
  0
LINE
  5
39F
330
A
100
AcDbEntity
  8
1
  6
solid
 62
     7
100
AcDbLine
 10
1.525787472724914
 20
0.364960640668869
 30
0.0
 11
1.524094581604003
 21
0.3666141927242279
 31
0.0
  0
LINE
  5
3A0
330
A
100
AcDbEntity
  8
1
  6
solid
 62
     7
100
AcDbLine
 10
1.524094581604003
 20
0.3666141927242279
 30
0.0
 11
1.188897728919982
 21
0.3672047555446625
 31
0.0
  0
ARC
  5
3A1
330
A
100
AcDbEntity
  8
1
  6
solid
 62
     7
100
AcDbCircle
 10
1.183936809221435
 20
0.6604149013061265
 30
0.0
 40
0.2932521104812622
100
AcDbArc
 50
265.0246625073577
 51
270.9693138094968
  0
LINE
  5
3A2
330
A
100
AcDbEntity
  8
1
  6
solid
 62
     7
100
AcDbLine
 10
1.158504009246826
 20
0.3682677149772644
 30
0.0
 11
1.154842615127563
 21
0.3699606359004974
 31
0.0
  0
ARC
  5
3A3
330
A
100
AcDbEntity
  8
1
  6
solid
 62
     7
100
AcDbCircle
 10
1.140265444920072
 20
0.3993796128175584
 30
0.0
 40
0.0328324548900128
100
AcDbArc
 50
273.661600210492
 51
296.358520313025
  0
ARC
  5
3A4
330
A
100
AcDbEntity
  8
1
  6
solid
 62
     7
100
AcDbCircle
 10
1.142265515851815
 20
0.3797537216620054
 30
0.0
 40
0.0131398849189282
100
AcDbArc
 50
233.9219476947137
 51
270.4217512041152
  0
ARC
  5
3A5
330
A
100
AcDbEntity
  8
1
  6
solid
 62
     7
100
AcDbCircle
 10
1.132881506217028
 20
0.3639262273427045
 30
0.0
 40
0.0054616522975266
100
AcDbArc
 50
72.45790471572935
 51
139.9470653763279
  0
ARC
  5
3A6
330
A
100
AcDbEntity
  8
1
  6
solid
 62
     7
100
AcDbCircle
 10
1.124118635639615
 20
0.3794086812614739
 30
0.0
 40
0.0128149464726448
100
AcDbArc
 50
244.9904058485028
 51
290.9509229433425
  0
ARC
  5
3A7
330
A
100
AcDbEntity
  8
1
  6
solid
 62
     7
100
AcDbCircle
 10
1.116508384269375
 20
0.3866165400465602
 30
0.0
 40
0.0189485214650631
100
AcDbArc
 50
246.7079798587076
 51
276.6444087078337
  0
ARC
  5
3A8
330
A
100
AcDbEntity
  8
1
  6
solid
 62
     7
100
AcDbCircle
 10
1.104522966246003
 20
0.3765534803269113
 30
0.0
 40
0.008606618270278
100
AcDbArc
 50
237.0566254482507
 51
301.4680755480847
  0
ARC
  5
3A9
330
A
100
AcDbEntity
  8
1
  6
solid
 62
     7
100
AcDbCircle
 10
1.092462087392321
 20
0.3823638209657557
 30
0.0
 40
0.0149777354672551
100
AcDbArc
 50
237.8336004474746
 51
299.5222912573315
  0
ARC
  5
3AA
330
A
100
AcDbEntity
  8
1
  6
solid
 62
     7
100
AcDbCircle
 10
1.081915980101532
 20
0.3581795744671847
 30
0.0
 40
0.0117895184084773
100
AcDbArc
 50
77.39756582537428
 51
125.681139539962
  0
ARC
  5
3AB
330
A
100
AcDbEntity
  8
1
  6
solid
 62
     7
100
AcDbCircle
 10
1.071521351151824
 20
0.3930489788121508
 30
0.0
 40
0.0255365669727326
100
AcDbArc
 50
248.9818591164315
 51
277.9187854031747
  0
ARC
  5
3AC
330
A
100
AcDbEntity
  8
1
  6
solid
 62
     7
100
AcDbCircle
 10
1.058582908326987
 20
0.3741901685819352
 30
0.0
 40
0.0062497854232788
100
AcDbArc
 50
237.1960705903457
 51
307.2090954322906
  0
LINE
  5
3AD
330
A
100
AcDbEntity
  8
1
  6
solid
 62
     7
100
AcDbLine
 10
1.05519700050354
 20
0.3689370155334473
 30
0.0
 11
0.9968898296356201
 21
0.3698819279670715
 31
0.0
  0
LINE
  5
3AE
330
A
100
AcDbEntity
  8
1
  6
solid
 62
     7
100
AcDbLine
 10
0.9968898296356201
 20
0.3698819279670715
 30
0.0
 11
0.6885827779769898
 21
0.3706299364566803
 31
0.0
  0
LINE
  5
3AF
330
A
100
AcDbEntity
  8
1
  6
solid
 62
     7
100
AcDbLine
 10
0.6885827779769898
 20
0.3706299364566803
 30
0.0
 11
0.6849213242530823
 21
0.3699606359004974
 31
0.0
  0
ARC
  5
3B0
330
A
100
AcDbEntity
  8
1
  6
solid
 62
     7
100
AcDbCircle
 10
0.6774958049980329
 20
0.3479863649811276
 30
0.0
 40
0.0231949761509895
100
AcDbArc
 50
71.32892225725043
 51
103.3857696738287
  0
ARC
  5
3B1
330
A
100
AcDbEntity
  8
1
  6
solid
 62
     7
100
AcDbCircle
 10
0.6668421886628091
 20
0.365464397218732
 30
0.0
 40
0.0073344502598047
100
AcDbArc
 50
43.9117130608351
 51
100.4502807270569
  0
ARC
  5
3B2
330
A
100
AcDbEntity
  8
1
  6
solid
 62
     7
100
AcDbCircle
 10
0.6879358106450823
 20
0.3558058071937886
 30
0.0
 40
0.0280620437115431
100
AcDbArc
 50
143.0428349572578
 51
183.3348960976338
  0
ARC
  5
3B3
330
A
100
AcDbEntity
  8
1
  6
solid
 62
     7
100
AcDbCircle
 10
0.6212296322133615
 20
0.352519592578432
 30
0.0
 40
0.0387269780039787
100
AcDbArc
 50
336.8956375556912
 51
362.4472864482497
  0
ARC
  5
3B4
330
A
100
AcDbEntity
  8
1
  6
solid
 62
     7
100
AcDbCircle
 10
0.5929203515369878
 20
0.3311028603751343
 30
0.0
 40
0.0642319172620773
100
AcDbArc
 50
340.0743813418756
 51
365.5570367860804
  0
ARC
  5
3B5
330
A
100
AcDbEntity
  8
1
  6
solid
 62
     7
100
AcDbCircle
 10
0.6064744619926971
 20
0.3027016069545375
 30
0.0
 40
0.0472830571234226
100
AcDbArc
 50
339.4478071081753
 51
367.9149495687104
  0
ARC
  5
3B6
330
A
100
AcDbEntity
  8
1
  6
solid
 62
     7
100
AcDbCircle
 10
0.8041285678585756
 20
0.2669960777639534
 30
0.0
 40
0.1545659303665161
100
AcDbArc
 50
172.8993540081894
 51
178.6381434087444
  0
LINE
  5
3B7
330
A
100
AcDbEntity
  8
1
  6
solid
 62
     7
100
AcDbLine
 10
0.6496062874794007
 20
0.2706693112850189
 30
0.0
 11
0.6468504071235657
 21
0.2606693208217621
 31
0.0
  0
LINE
  5
3B8
330
A
100
AcDbEntity
  8
1
  6
solid
 62
     7
100
AcDbLine
 10
0.6468504071235657
 20
0.2606693208217621
 30
0.0
 11
0.646062970161438
 21
0.2396456897258758
 31
0.0
  0
LINE
  5
3B9
330
A
100
AcDbEntity
  8
1
  6
solid
 62
     7
100
AcDbLine
 10
0.646062970161438
 20
0.2396456897258758
 30
0.0
 11
0.6440945267677308
 21
0.2327952831983566
 31
0.0
  0
ARC
  5
3BA
330
A
100
AcDbEntity
  8
1
  6
solid
 62
     7
100
AcDbCircle
 10
0.5732696028564274
 20
0.2338652139708901
 30
0.0
 40
0.0708330050110817
100
AcDbArc
 50
340.884540587811
 51
359.1345157670454
  0
ARC
  5
3BB
330
A
100
AcDbEntity
  8
1
  6
solid
 62
     7
100
AcDbCircle
 10
0.6602392496597116
 20
0.2072637886801376
 30
0.0
 40
0.0203295983374119
100
AcDbArc
 50
170.356611183977
 51
181.9421795447332
  0
LINE
  5
3BC
330
A
100
AcDbEntity
  8
1
  6
solid
 62
     7
100
AcDbLine
 10
0.6399213075637818
 20
0.2065748125314712
 30
0.0
 11
0.6390945911407471
 21
0.1884645819664001
 31
0.0
  0
LINE
  5
3BD
330
A
100
AcDbEntity
  8
1
  6
solid
 62
     7
100
AcDbLine
 10
0.6390945911407471
 20
0.1884645819664001
 30
0.0
 11
0.6374015808105469
 21
0.1827952861785889
 31
0.0
  0
ARC
  5
3BE
330
A
100
AcDbEntity
  8
1
  6
solid
 62
     7
100
AcDbCircle
 10
0.7749326847070663
 20
0.1652157910801581
 30
0.0
 40
0.1386500746011734
100
AcDbArc
 50
172.7158404855695
 51
179.1130874428704
  0
ARC
  5
3BF
330
A
100
AcDbEntity
  8
1
  6
solid
 62
     7
100
AcDbCircle
 10
0.7092799656433798
 20
0.1421828498711771
 30
0.0
 40
0.0772022381424904
100
AcDbArc
 50
160.9648415280211
 51
185.2504636314989
  0
ARC
  5
3C0
330
A
100
AcDbEntity
  8
1
  6
solid
 62
     7
100
AcDbCircle
 10
0.6440921161782868
 20
0.1271083659466045
 30
0.0
 40
0.014171208254993
100
AcDbArc
 50
145.5829413284505
 51
180.4078185288248
  0
LINE
  5
3C1
330
A
100
AcDbEntity
  8
1
  6
solid
 62
     7
100
AcDbLine
 10
0.6299212574958802
 20
0.1270078718662262
 30
0.0
 11
0.6316536068916321
 21
0.1233070939779282
 31
0.0
  0
LINE
  5
3C2
330
A
100
AcDbEntity
  8
1
  6
solid
 62
     7
100
AcDbLine
 10
0.6316536068916321
 20
0.1233070939779282
 30
0.0
 11
2.114409446716308
 21
0.1228346526622772
 31
0.0
  0
LINE
  5
3C3
330
A
100
AcDbEntity
  8
1
  6
solid
 62
     7
100
AcDbLine
 10
2.114409446716308
 20
0.1228346526622772
 30
0.0
 11
2.126063108444213
 21
0.1220078840851784
 31
0.0
  0
LINE
  5
3C4
330
A
100
AcDbEntity
  8
1
  6
solid
 62
     7
100
AcDbLine
 10
2.126063108444213
 20
0.1220078840851784
 30
0.0
 11
2.127362489700317
 21
0.1233070939779282
 31
0.0
  0
LINE
  5
3C5
330
A
100
AcDbEntity
  8
1
  6
solid
 62
     7
100
AcDbLine
 10
2.127362489700317
 20
0.1233070939779282
 30
0.0
 11
2.160078763961791
 21
0.1227165386080742
 31
0.0
  0
LINE
  5
3C6
330
A
100
AcDbEntity
  8
1
  6
solid
 62
     7
100
AcDbLine
 10
2.160078763961791
 20
0.1227165386080742
 30
0.0
 11
2.162755966186523
 21
0.1222441047430038
 31
0.0
  0
ARC
  5
3C7
330
A
100
AcDbEntity
  8
1
  6
solid
 62
     7
100
AcDbCircle
 10
2.167038638737411
 20
0.1276205381662772
 30
0.0
 40
0.0068736686371267
100
AcDbArc
 50
231.4604397253949
 51
307.4734852248726
  0
ARC
  5
3C8
330
A
100
AcDbEntity
  8
1
  6
solid
 62
     7
100
AcDbCircle
 10
2.172869264494174
 20
0.1640106757792397
 30
0.0
 40
0.0418777838349342
100
AcDbArc
 50
267.7436886720666
 51
283.6001470000751
  0
ARC
  5
3C9
330
A
100
AcDbEntity
  8
1
  6
solid
 62
     7
100
AcDbCircle
 10
2.184907051838908
 20
0.0453730581089096
 30
0.0
 40
0.0779648125171661
100
AcDbArc
 50
79.72117910553969
 51
91.60995322393103
  0
ARC
  5
3CA
330
A
100
AcDbEntity
  8
1
  6
solid
 62
     7
100
AcDbCircle
 10
2.206038010628253
 20
0.1032089479623413
 30
0.0
 40
0.0202109329402447
100
AcDbArc
 50
59.09955392570723
 51
110.9275586874246
  0
ARC
  5
3CB
330
A
100
AcDbEntity
  8
1
  6
solid
 62
     7
100
AcDbCircle
 10
2.225424805618071
 20
0.1055955145389249
 30
0.0
 40
0.0174587219953537
100
AcDbArc
 50
70.0630320719532
 51
121.0596935286533
  0
ARC
  5
3CC
330
A
100
AcDbEntity
  8
1
  6
solid
 62
     7
100
AcDbCircle
 10
2.237508476830677
 20
0.1027871402825788
 30
0.0
 40
0.0201747063547373
100
AcDbArc
 50
58.56025584922137
 51
107.6899260774335
  0
ARC
  5
3CD
330
A
100
AcDbEntity
  8
1
  6
solid
 62
     7
100
AcDbCircle
 10
2.254923754025161
 20
0.1091850277503781
 30
0.0
 40
0.0128244021907449
100
AcDbArc
 50
63.97151761539357
 51
122.5084312931264
  0
ARC
  5
3CE
330
A
100
AcDbEntity
  8
1
  6
solid
 62
     7
100
AcDbCircle
 10
2.264322596861779
 20
0.1159473525126426
 30
0.0
 40
0.0060738548636436
100
AcDbArc
 50
56.02590391240438
 51
128.3805361678831
  0
ARC
  5
3CF
330
A
100
AcDbEntity
  8
1
  6
solid
 62
     7
100
AcDbCircle
 10
2.298588764284201
 20
0.4872473162824867
 30
0.0
 40
0.3675618469715118
100
AcDbArc
 50
265.1819579219617
 51
274.108260431265
  0
LINE
  5
3D0
330
A
100
AcDbEntity
  8
1
  6
solid
 62
     7
100
AcDbLine
 10
2.324921369552612
 20
0.1206299290060997
 30
0.0
 11
2.330433368682861
 21
0.1212598532438278
 31
0.0
  0
LINE
  5
3D1
330
A
100
AcDbEntity
  8
1
  6
solid
 62
     7
100
AcDbLine
 10
2.330433368682861
 20
0.1212598532438278
 30
0.0
 11
2.398937225341796
 21
0.1200787499547005
 31
0.0
  0
LINE
  5
3D2
330
A
100
AcDbEntity
  8
1
  6
solid
 62
     7
100
AcDbLine
 10
2.398937225341796
 20
0.1200787499547005
 30
0.0
 11
2.940945148468017
 21
0.1200000047683716
 31
0.0
  0
LINE
  5
3D3
330
A
100
AcDbEntity
  8
1
  6
solid
 62
     7
100
AcDbLine
 10
2.940945148468017
 20
0.1200000047683716
 30
0.0
 11
3.000236272811889
 21
0.1213385909795761
 31
0.0
  0
LINE
  5
3D4
330
A
100
AcDbEntity
  8
1
  6
solid
 62
     7
100
AcDbLine
 10
3.000236272811889
 20
0.1213385909795761
 30
0.0
 11
3.006063222885131
 21
0.1221259981393814
 31
0.0
  0
LINE
  5
3D5
330
A
100
AcDbEntity
  8
1
  6
solid
 62
     7
100
AcDbLine
 10
3.006063222885131
 20
0.1221259981393814
 30
0.0
 11
3.00889778137207
 21
0.1272834688425064
 31
0.0
  0
ARC
  5
3D6
330
A
100
AcDbEntity
  8
1
  6
solid
 62
     7
100
AcDbCircle
 10
2.970800370329999
 20
0.133454654789978
 30
0.0
 40
0.0385939925909042
100
AcDbArc
 50
350.7988982624484
 51
382.1911204614603
  0
ARC
  5
3D7
330
A
100
AcDbEntity
  8
1
  6
solid
 62
     7
100
AcDbCircle
 10
2.990165610230347
 20
0.1486817297202061
 30
0.0
 40
0.0163830667734146
100
AcDbArc
 50
357.7253930997583
 51
393.7988015596543
  0
ARC
  5
3D8
330
A
100
AcDbEntity
  8
1
  6
solid
 62
     7
100
AcDbCircle
 10
2.980235696532136
 20
0.1554763207218091
 30
0.0
 40
0.0236581191420555
100
AcDbArc
 50
5.625178168335128
 51
31.37970075471593
  0
ARC
  5
3D9
330
A
100
AcDbEntity
  8
1
  6
solid
 62
     7
100
AcDbCircle
 10
2.970083472785772
 20
0.1630745835097451
 30
0.0
 40
0.030714912340045
100
AcDbArc
 50
8.841068578650789
 51
29.81585210461334
  0
ARC
  5
3DA
330
A
100
AcDbEntity
  8
1
  6
solid
 62
     7
100
AcDbCircle
 10
3.031712648970667
 20
0.2035161678628006
 30
0.0
 40
0.0430943891406059
100
AcDbArc
 50
188.5274313009201
 51
215.7365929352169
  0
ARC
  5
3DB
330
A
100
AcDbEntity
  8
1
  6
solid
 62
     7
100
AcDbCircle
 10
3.009452001340481
 20
0.2094983298138604
 30
0.0
 40
0.023822108283639
100
AcDbArc
 50
185.7153194762208
 51
211.28955238927
  0
ARC
  5
3DC
330
A
100
AcDbEntity
  8
1
  6
solid
 62
     7
100
AcDbCircle
 10
3.012548191719733
 20
0.2221738983512111
 30
0.0
 40
0.0307355523109436
100
AcDbArc
 50
188.1903068238666
 51
209.3138245491954
  0
ARC
  5
3DD
330
A
100
AcDbEntity
  8
1
  6
solid
 62
     7
100
AcDbCircle
 10
3.014248452192564
 20
0.2319375599595685
 30
0.0
 40
0.0350978076457977
100
AcDbArc
 50
167.9712393333364
 51
203.7620418861339
  0
ARC
  5
3DE
330
A
100
AcDbEntity
  8
1
  6
solid
 62
     7
100
AcDbCircle
 10
2.927247580246194
 20
0.259023742706149
 30
0.0
 40
0.0562623143196106
100
AcDbArc
 50
339.4257317094067
 51
357.706032928556
  0
ARC
  5
3DF
330
A
100
AcDbEntity
  8
1
  6
solid
 62
     7
100
AcDbCircle
 10
3.032413232062027
 20
0.2402100436962718
 30
0.0
 40
0.0516741871833801
100
AcDbArc
 50
140.3982301068585
 51
161.3067607978719
  0
ARC
  5
3E0
330
A
100
AcDbEntity
  8
1
  6
solid
 62
     7
100
AcDbCircle
 10
2.9351095471669
 20
0.3188594692340427
 30
0.0
 40
0.0734464079141617
100
AcDbArc
 50
321.5115661958106
 51
333.4096840129866
  0
ARC
  5
3E1
330
A
100
AcDbEntity
  8
1
  6
solid
 62
     7
100
AcDbCircle
 10
2.93929608870603
 20
0.3536453263542172
 30
0.0
 40
0.0914287194609642
100
AcDbArc
 50
312.2650473427441
 51
340.4111470066265
  0
ARC
  5
3E2
330
A
100
AcDbEntity
  8
1
  6
solid
 62
     7
100
AcDbCircle
 10
3.06081092498798
 20
0.3213909617684299
 30
0.0
 40
0.0354140773415566
100
AcDbArc
 50
154.7526239684489
 51
177.4085902567184
  0
ARC
  5
3E3
330
A
100
AcDbEntity
  8
1
  6
solid
 62
     7
100
AcDbCircle
 10
2.945142055184166
 20
0.3519282349726938
 30
0.0
 40
0.0850494876503945
100
AcDbArc
 50
349.5458044365612
 51
364.5674172800554
  0
ARC
  5
3E4
330
A
100
AcDbEntity
  8
1
  6
solid
 62
     7
100
AcDbCircle
 10
2.963619991426117
 20
0.3800493892765796
 30
0.0
 40
0.0696538388729096
100
AcDbArc
 50
342.1518241316989
 51
362.064784741744
  0
ARC
  5
3E5
330
A
100
AcDbEntity
  8
1
  6
solid
 62
     7
100
AcDbCircle
 10
3.093681072850338
 20
0.3766652467799825
 30
0.0
 40
0.060739066451788
100
AcDbArc
 50
148.0806083192353
 51
174.4315430239416
  0
ARC
  5
3E6
330
A
100
AcDbEntity
  8
1
  6
solid
 62
     7
100
AcDbCircle
 10
3.061113158534551
 20
0.4074768979935567
 30
0.0
 40
0.0190316140651703
100
AcDbArc
 50
131.492756259429
 51
176.0751870665702
  0
ARC
  5
3E7
330
A
100
AcDbEntity
  8
1
  6
solid
 62
     7
100
AcDbCircle
 10
3.097761105306531
 20
0.4036365160497741
 30
0.0
 40
0.0524755790829659
100
AcDbArc
 50
137.7819671264201
 51
159.8278062765107
  0
ARC
  5
3E8
330
A
100
AcDbEntity
  8
1
  6
solid
 62
     7
100
AcDbCircle
 10
3.07791048444771
 20
0.437751192176421
 30
0.0
 40
0.0190470479428768
100
AcDbArc
 50
130.456288713258
 51
176.5491748742124
  0
ARC
  5
3E9
330
A
100
AcDbEntity
  8
1
  6
solid
 62
     7
100
AcDbCircle
 10
3.106193066005768
 20
0.4461436014375923
 30
0.0
 40
0.0410968586802483
100
AcDbArc
 50
155.5559225167342
 51
171.4633067351942
  0
ARC
  5
3EA
330
A
100
AcDbEntity
  8
1
  6
solid
 62
     7
100
AcDbCircle
 10
3.017330549199631
 20
0.4749202136979789
 30
0.0
 40
0.0527784265577793
100
AcDbArc
 50
347.1136013938763
 51
380.1148146707626
  0
ARC
  5
3EB
330
A
100
AcDbEntity
  8
1
  6
solid
 62
     7
100
AcDbCircle
 10
3.037008304821239
 20
0.4917997404596787
 30
0.0
 40
0.0299087204039097
100
AcDbArc
 50
2.435822616058143
 51
28.91262404678945
  0
ARC
  5
3EC
330
A
100
AcDbEntity
  8
1
  6
solid
 62
     7
100
AcDbCircle
 10
3.046949533749234
 20
0.5053090740662494
 30
0.0
 40
0.0162673052400351
100
AcDbArc
 50
3.350708953021603
 51
34.01641076020837
  0
ARC
  5
3ED
330
A
100
AcDbEntity
  8
1
  6
solid
 62
     7
100
AcDbCircle
 10
3.050155694199761
 20
0.5157604366204601
 30
0.0
 40
0.0103658651933074
100
AcDbArc
 50
352.5114998949374
 51
438.1545930297561
  0
ARC
  5
3EE
330
A
100
AcDbEntity
  8
1
  6
solid
 62
     7
100
AcDbCircle
 10
3.043644588236194
 20
0.4742550372067667
 30
0.0
 40
0.0523679926991463
100
AcDbArc
 50
80.50474182221813
 51
105.9521517827584
  0
LINE
  5
3EF
330
A
100
AcDbEntity
  8
1
  6
solid
 62
     7
100
AcDbLine
 10
3.029252052307128
 20
0.5246063470840454
 30
0.0
 11
3.027244329452514
 21
0.5266141891479493
 31
0.0
  0
LINE
  5
3F0
330
A
100
AcDbEntity
  8
1
  6
solid
 62
     7
100
AcDbLine
 10
3.027244329452514
 20
0.5266141891479493
 30
0.0
 11
2.618976593017578
 21
0.527086615562439
 31
0.0
  0
ARC
  5
3F1
330
A
100
AcDbEntity
  8
1
  6
solid
 62
     7
100
AcDbCircle
 10
2.581972387574225
 20
1.261248829536754
 30
0.0
 40
0.7350941896438599
100
AcDbArc
 50
266.3117160337982
 51
272.8854550792522
  0
LINE
  5
3F2
330
A
100
AcDbEntity
  8
1
  6
solid
 62
     7
100
AcDbLine
 10
2.534685134887695
 20
0.5276771783828736
 30
0.0
 11
2.532323122024536
 21
0.5282677412033081
 31
0.0
  0
LINE
  5
3F3
330
A
100
AcDbEntity
  8
1
  6
solid
 62
     7
100
AcDbLine
 10
2.532323122024536
 20
0.5282677412033081
 30
0.0
 11
2.474488258361816
 21
0.5298031568527222
 31
0.0
  0
LINE
  5
3F4
330
A
100
AcDbEntity
  8
1
  6
solid
 62
     7
100
AcDbLine
 10
2.474488258361816
 20
0.5298031568527222
 30
0.0
 11
2.17854356765747
 21
0.5304331183433533
 31
0.0
  0
LINE
  5
3F5
330
A
100
AcDbEntity
  8
1
  6
solid
 62
     7
100
AcDbLine
 10
2.17854356765747
 20
0.5304331183433533
 30
0.0
 11
2.169724702835083
 21
0.5326378345489502
 31
0.0
  0
LINE
  5
3F6
330
A
100
AcDbEntity
  8
1
  6
solid
 62
     7
100
AcDbLine
 10
2.169724702835083
 20
0.5326378345489502
 30
0.0
 11
2.168385982513427
 21
0.5324409604072571
 31
0.0
  0
ARC
  5
3F7
330
A
100
AcDbEntity
  8
1
  6
solid
 62
     7
100
AcDbCircle
 10
2.161375799249763
 20
0.5409157821028371
 30
0.0
 40
0.0109984213486314
100
AcDbArc
 50
230.4346750856533
 51
309.5967929623437
  0
ARC
  5
3F8
330
A
100
AcDbEntity
  8
1
  6
solid
 62
     7
100
AcDbCircle
 10
2.153061596539934
 20
0.5256057062187244
 30
0.0
 40
0.0069594127126038
100
AcDbArc
 50
79.1610455369907
 51
132.2086488769056
  0
ARC
  5
3F9
330
A
100
AcDbEntity
  8
1
  6
solid
 62
     7
100
AcDbCircle
 10
2.146365712288062
 20
0.5433671699294852
 30
0.0
 40
0.0127797992900014
100
AcDbArc
 50
232.926352000536
 51
279.0957362801946
  0
ARC
  5
3FA
330
A
100
AcDbEntity
  8
1
  6
solid
 62
     7
100
AcDbCircle
 10
2.139918971557865
 20
0.5192162805266821
 30
0.0
 40
0.0140291759744287
100
AcDbArc
 50
95.1419669871497
 51
124.7157401121048
  0
ARC
  5
3FB
330
A
100
AcDbEntity
  8
1
  6
solid
 62
     7
100
AcDbCircle
 10
2.128066553156001
 20
0.5393128159068729
 30
0.0
 40
0.0093954568728805
100
AcDbArc
 50
245.7833908111413
 51
294.2748481633075
  0
ARC
  5
3FC
330
A
100
AcDbEntity
  8
1
  6
solid
 62
     7
100
AcDbCircle
 10
2.115720084248549
 20
0.5177012416712405
 30
0.0
 40
0.0155674321576953
100
AcDbArc
 50
56.93842401570726
 51
119.4293888454738
  0
ARC
  5
3FD
330
A
100
AcDbEntity
  8
1
  6
solid
 62
     7
100
AcDbCircle
 10
2.098357127751962
 20
0.5087867473385028
 30
0.0
 40
0.0244827158749104
100
AcDbArc
 50
66.6237073908662
 51
112.4292884745732
  0
ARC
  5
3FE
330
A
100
AcDbEntity
  8
1
  6
solid
 62
     7
100
AcDbCircle
 10
2.087366991695143
 20
0.5345706900085001
 30
0.0
 40
0.0035583339631557
100
AcDbArc
 50
201.4497837954637
 51
297.6030627420713
  0
LINE
  5
3FF
330
A
100
AcDbEntity
  8
1
  6
solid
 62
     7
100
AcDbLine
 10
2.084055185317993
 20
0.5332677364349366
 30
0.0
 11
1.607244133949279
 21
0.5337008237838746
 31
0.0
  0
ARC
  5
400
330
A
100
AcDbEntity
  8
1
  6
solid
 62
     7
100
AcDbCircle
 10
1.603378678462247
 20
0.5569898892895628
 30
0.0
 40
0.0236076749861241
100
AcDbArc
 50
239.6683497679855
 51
279.4238858886787
  0
ARC
  5
401
330
A
100
AcDbEntity
  8
1
  6
solid
 62
     7
100
AcDbCircle
 10
1.578126360767303
 20
0.5614581714883819
 30
0.0
 40
0.0281943399459124
100
AcDbArc
 50
241.8004616192967
 51
298.2164956918085
  0
ARC
  5
402
330
A
100
AcDbEntity
  8
1
  6
solid
 62
     7
100
AcDbCircle
 10
1.55688639759441
 20
0.5504776985384697
 30
0.0
 40
0.0159647092223168
100
AcDbArc
 50
240.2996539076861
 51
299.7288908193461
  0
ARC
  5
403
330
A
100
AcDbEntity
  8
1
  6
solid
 62
     7
100
AcDbCircle
 10
1.551344688241039
 20
0.5184316122386967
 30
0.0
 40
0.0183362103998661
100
AcDbArc
 50
97.42093473580531
 51
121.3276999064009
  0
ARC
  5
404
330
A
100
AcDbEntity
  8
1
  6
solid
 62
     7
100
AcDbCircle
 10
1.538667589716516
 20
0.5478441312160197
 30
0.0
 40
0.0141043867915869
100
AcDbArc
 50
251.2503015435762
 51
282.8779671934675
  0
ARC
  5
405
330
A
100
AcDbEntity
  8
1
  6
solid
 62
     7
100
AcDbCircle
 10
1.529068438875323
 20
0.5511194553355204
 30
0.0
 40
0.0173855926841498
100
AcDbArc
 50
253.1051896768549
 51
286.9398260513607
  0
ARC
  5
406
330
A
100
AcDbEntity
  8
1
  6
solid
 62
     7
100
AcDbCircle
 10
1.515001049806012
 20
0.5670102608155176
 30
0.0
 40
0.0337483622133732
100
AcDbArc
 50
255.5417093990952
 51
285.4929460983419
  0
ARC
  5
407
330
A
100
AcDbEntity
  8
1
  6
solid
 62
     7
100
AcDbCircle
 10
1.498157913159479
 20
0.5806876702824419
 30
0.0
 40
0.0471148751676083
100
AcDbArc
 50
259.980430774633
 51
280.2909920641901
  0
ARC
  5
408
330
A
100
AcDbEntity
  8
1
  6
solid
 62
     7
100
AcDbCircle
 10
1.486939549399977
 20
0.5416190971187244
 30
0.0
 40
0.0079260654747486
100
AcDbArc
 50
227.7887144427037
 51
292.4057259157985
  0
ARC
  5
409
330
A
100
AcDbEntity
  8
1
  6
solid
 62
     7
100
AcDbCircle
 10
1.381443399557651
 20
-2.839856431808041
 30
0.0
 40
3.377090454101562
100
AcDbArc
 50
88.30024845781796
 51
90.66306681037584
  0
LINE
  5
40A
330
A
100
AcDbEntity
  8
1
  6
solid
 62
     7
100
AcDbLine
 10
1.342362284660339
 20
0.5370078682899475
 30
0.0
 11
1.164448857307434
 21
0.5368504524230957
 31
0.0
  0
LINE
  5
40B
330
A
100
AcDbEntity
  8
1
  6
solid
 62
     7
100
AcDbLine
 10
1.164448857307434
 20
0.5368504524230957
 30
0.0
 11
1.129645705223083
 21
0.5376771688461304
 31
0.0
  0
LINE
  5
40C
330
A
100
AcDbEntity
  8
1
  6
solid
 62
     7
100
AcDbLine
 10
1.129645705223083
 20
0.5376771688461304
 30
0.0
 11
1.124330759048461
 21
0.538267731666565
 31
0.0
  0
ARC
  5
40D
330
A
100
AcDbEntity
  8
1
  6
solid
 62
     7
100
AcDbCircle
 10
1.117908701640814
 20
0.5266471718122034
 30
0.0
 40
0.0132770566269756
100
AcDbArc
 50
61.0729355958019
 51
107.7619606675151
  0
LINE
  5
40E
330
A
100
AcDbEntity
  8
1
  6
solid
 62
     7
100
AcDbLine
 10
1.113858342170715
 20
0.5392913818359375
 30
0.0
 11
1.108188986778259
 21
0.5379134416580201
 31
0.0
  0
ARC
  5
40F
330
A
100
AcDbEntity
  8
1
  6
solid
 62
     7
100
AcDbCircle
 10
1.096521872329263
 20
0.5018677069723127
 30
0.0
 40
0.0378868915140629
100
AcDbArc
 50
72.0645131402933
 51
107.9548178889196
  0
ARC
  5
410
330
A
100
AcDbEntity
  8
1
  6
solid
 62
     7
100
AcDbCircle
 10
1.080305519780273
 20
0.5318439054729892
 30
0.0
 40
0.0075779356993735
100
AcDbArc
 50
53.22077254103682
 51
132.3869065689591
  0
ARC
  5
411
330
A
100
AcDbEntity
  8
1
  6
solid
 62
     7
100
AcDbCircle
 10
1.072864264951889
 20
0.5475587489009275
 30
0.0
 40
0.0103831375017762
100
AcDbArc
 50
234.6060867627389
 51
282.9824417670121
  0
ARC
  5
412
330
A
100
AcDbEntity
  8
1
  6
solid
 62
     7
100
AcDbCircle
 10
1.062613931451166
 20
0.5270605643342902
 30
0.0
 40
0.0127578862011433
100
AcDbArc
 50
70.6056257147136
 51
125.5468580208795
  0
ARC
  5
413
330
A
100
AcDbEntity
  8
1
  6
solid
 62
     7
100
AcDbCircle
 10
1.052867329684322
 20
0.5475201892167986
 30
0.0
 40
0.0103449076414108
100
AcDbArc
 50
231.9846328385313
 51
283.0146256183811
  0
ARC
  5
414
330
A
100
AcDbEntity
  8
1
  6
solid
 62
     7
100
AcDbCircle
 10
1.039370026534388
 20
0.5499217363306315
 30
0.0
 40
0.0127325681969524
100
AcDbArc
 50
267.1647789134893
 51
304.0334672795848
  0
ARC
  5
415
330
A
100
AcDbEntity
  8
1
  6
solid
 62
     7
100
AcDbCircle
 10
1.027571580159682
 20
0.5116625283538339
 30
0.0
 40
0.0278772637248039
100
AcDbArc
 50
66.38218507162538
 51
109.6678908044613
  0
LINE
  5
416
330
A
100
AcDbEntity
  8
1
  6
solid
 62
     7
100
AcDbLine
 10
1.018189072608947
 20
0.5379134416580201
 30
0.0
 11
1.015196919441223
 21
0.5389370322227478
 31
0.0
  0
ARC
  5
417
330
A
100
AcDbEntity
  8
1
  6
solid
 62
     7
100
AcDbCircle
 10
0.8131976598647506
 20
-10.04211324217774
 30
0.0
 40
10.58297824859619
100
AcDbArc
 50
88.90631846362987
 51
90.21939138227015
  0
ARC
  5
418
330
A
100
AcDbEntity
  8
1
  6
solid
 62
     7
100
AcDbCircle
 10
0.7676993629859888
 20
0.5544970150779632
 30
0.0
 40
0.0145853087306023
100
AcDbArc
 50
245.1712965784814
 51
289.9557370605149
  0
ARC
  5
419
330
A
100
AcDbEntity
  8
1
  6
solid
 62
     7
100
AcDbCircle
 10
0.7525118822935723
 20
0.5695318223195103
 30
0.0
 40
0.0296890567988157
100
AcDbArc
 50
242.534624992803
 51
287.7740107150728
  0
ARC
  5
41A
330
A
100
AcDbEntity
  8
1
  6
solid
 62
     7
100
AcDbCircle
 10
0.7322882261407261
 20
0.5531468725423468
 30
0.0
 40
0.0119083384051919
100
AcDbArc
 50
241.5447700726227
 51
303.2583774125718
  0
LINE
  5
41B
330
A
100
AcDbEntity
  8
1
  6
solid
 62
     7
100
AcDbLine
 10
0.7266142368316651
 20
0.5426771640777588
 30
0.0
 11
0.7253544330596924
 21
0.5425590872764588
 31
0.0
  0
LINE
  5
41C
330
A
100
AcDbEntity
  8
1
  6
solid
 62
     7
100
AcDbLine
 10
0.7253544330596924
 20
0.5425590872764588
 30
0.0
 11
0.7199212908744812
 21
0.5375590920448304
 31
0.0
  0
ARC
  5
41D
330
A
100
AcDbEntity
  8
1
  6
solid
 62
     7
100
AcDbCircle
 10
0.2111799893377577
 20
0.4817071454337448
 30
0.0
 40
0.0415632985532284
100
AcDbArc
 50
75.40465664444254
 51
89.34715936323
  0
LINE
  5
41E
330
A
100
AcDbEntity
  8
1
  6
solid
 62
     7
100
AcDbLine
 10
0.221653550863266
 20
0.5219292044639588
 30
0.0
 11
0.2285433262586594
 21
0.5232677459716797
 31
0.0
  0
LINE
  5
41F
330
A
100
AcDbEntity
  8
1
  6
solid
 62
     7
100
AcDbLine
 10
0.2285433262586594
 20
0.5232677459716797
 30
0.0
 11
0.2314173430204391
 21
0.5219292044639588
 31
0.0
  0
ARC
  5
420
330
A
100
AcDbEntity
  8
1
  6
solid
 62
     7
100
AcDbCircle
 10
0.2224336556538595
 20
0.5155816010438784
 30
0.0
 40
0.0109999412670732
100
AcDbArc
 50
319.4146949328932
 51
395.2438785701033
  0
ARC
  5
421
330
A
100
AcDbEntity
  8
1
  6
solid
 62
     7
100
AcDbCircle
 10
0.5785083092215795
 20
0.4789605855620252
 30
0.0
 40
0.3489670157432556
100
AcDbArc
 50
175.1565266232035
 51
185.6885792856202
  0
ARC
  5
422
330
A
100
AcDbEntity
  8
1
  6
solid
 62
     7
100
AcDbCircle
 10
0.2677369185149159
 20
0.4345391323416246
 30
0.0
 40
0.037778627127409
100
AcDbArc
 50
164.9165157742236
 51
191.1336607334677
  0
ARC
  5
423
330
A
100
AcDbEntity
  8
1
  6
solid
 62
     7
100
AcDbCircle
 10
0.2406068541375689
 20
0.430254516299411
 30
0.0
 40
0.010383521206677
100
AcDbArc
 50
196.8533328614227
 51
277.535331752981
  0
ARC
  5
424
330
A
100
AcDbEntity
  8
1
  6
solid
 62
     7
100
AcDbCircle
 10
0.2480050650167182
 20
0.4711206893232414
 30
0.0
 40
0.0515149161219597
100
AcDbArc
 50
263.2705977846253
 51
289.495037385903
  0
LINE
  5
425
330
A
100
AcDbEntity
  8
1
  6
solid
 62
     7
100
AcDbLine
 10
0.2651968896389008
 20
0.4225590825080872
 30
0.0
 11
0.2666141986846924
 21
0.4192519783973694
 31
0.0
  0
LINE
  5
426
330
A
100
AcDbEntity
  8
1
  6
solid
 62
     7
100
AcDbLine
 10
0.2666141986846924
 20
0.4192519783973694
 30
0.0
 11
0.2666141986846924
 21
0.4066141843795777
 31
0.0
  0
LINE
  5
427
330
A
100
AcDbEntity
  8
1
  6
solid
 62
     7
100
AcDbLine
 10
0.2666141986846924
 20
0.4066141843795777
 30
0.0
 11
0.2135039567947388
 21
0.4068897664546967
 31
0.0
  0
ARC
  5
428
330
A
100
AcDbEntity
  8
1
  6
solid
 62
     7
100
AcDbCircle
 10
0.2143680075937067
 20
0.4211606767490206
 30
0.0
 40
0.0142970439046621
100
AcDbArc
 50
236.4027543635324
 51
266.5351823210813
  0
ARC
  5
429
330
A
100
AcDbEntity
  8
1
  6
solid
 62
     7
100
AcDbCircle
 10
0.2081628254542351
 20
0.4123913410770916
 30
0.0
 40
0.0035730074159801
100
AcDbArc
 50
114.9869859979733
 51
241.4775951621356
  0
LINE
  5
42A
330
A
100
AcDbEntity
  8
1
  6
solid
 62
     7
100
AcDbLine
 10
0.2066535502672195
 20
0.4156299233436585
 30
0.0
 11
0.2058661431074142
 21
0.5175197124481202
 31
0.0
  0
LINE
  5
42B
330
A
100
AcDbEntity
  8
1
  6
solid
 62
     7
100
AcDbLine
 10
0.2058661431074142
 20
0.5175197124481202
 30
0.0
 11
0.2082677334547043
 21
0.5224803686141968
 31
0.0
  0
LINE
  5
42C
330
A
100
AcDbEntity
  8
1
  6
solid
 62
     7
100
AcDbLine
 10
0.2082677334547043
 20
0.5224803686141968
 30
0.0
 11
0.2116535604000091
 21
0.5232677459716797
 31
0.0
  0
ARC
  5
42D
330
A
100
AcDbEntity
  8
1
  6
solid
 62
     7
100
AcDbCircle
 10
0.3659715384247418
 20
0.4645209687340144
 30
0.0
 40
0.0559334047138691
100
AcDbArc
 50
65.53697989768757
 51
97.91662205444065
  0
ARC
  5
42E
330
A
100
AcDbEntity
  8
1
  6
solid
 62
     7
100
AcDbCircle
 10
0.3735605493055376
 20
0.487655830152818
 30
0.0
 40
0.0318450592458248
100
AcDbArc
 50
26.39151968875453
 51
60.72282009894705
  0
ARC
  5
42F
330
A
100
AcDbEntity
  8
1
  6
solid
 62
     7
100
AcDbCircle
 10
0.3575614668640645
 20
0.4893137611712694
 30
0.0
 40
0.0462457910180092
100
AcDbArc
 50
349.2266709051526
 51
375.6782962586032
  0
ARC
  5
430
330
A
100
AcDbEntity
  8
1
  6
solid
 62
     7
100
AcDbCircle
 10
0.3649459707187256
 20
0.4906879010786495
 30
0.0
 40
0.0393431335687637
100
AcDbArc
 50
317.5509751376466
 51
345.2473751465754
  0
LINE
  5
431
330
A
100
AcDbEntity
  8
1
  6
solid
 62
     7
100
AcDbLine
 10
0.3939764201641083
 20
0.4641338884830475
 30
0.0
 11
0.3932677209377289
 21
0.4617323279380799
 31
0.0
  0
ARC
  5
432
330
A
100
AcDbEntity
  8
1
  6
solid
 62
     7
100
AcDbCircle
 10
-0.0115024113242863
 20
0.8285900254627257
 30
0.0
 40
0.5462814569473267
100
AcDbArc
 50
314.0596833891464
 51
317.8128548357087
  0
ARC
  5
433
330
A
100
AcDbEntity
  8
1
  6
solid
 62
     7
100
AcDbCircle
 10
0.3874581013848522
 20
0.4165135790276477
 30
0.0
 40
0.0272835791110993
100
AcDbArc
 50
134.3498482949075
 51
154.2974260112135
  0
LINE
  5
434
330
A
100
AcDbEntity
  8
1
  6
solid
 62
     7
100
AcDbLine
 10
0.3628740310668945
 20
0.4283464550971985
 30
0.0
 11
0.3631496131420135
 21
0.4274409711360932
 31
0.0
  0
ARC
  5
435
330
A
100
AcDbEntity
  8
1
  6
solid
 62
     7
100
AcDbCircle
 10
0.3789928608504883
 20
0.5503116972392668
 30
0.0
 40
0.1238879486918449
100
AcDbArc
 50
262.6526842307926
 51
276.1035772538792
  0
ARC
  5
436
330
A
100
AcDbEntity
  8
1
  6
solid
 62
     7
100
AcDbCircle
 10
0.398633076935781
 20
0.4175350231324203
 30
0.0
 40
0.011567996814847
100
AcDbArc
 50
77.27532934489315
 51
123.9938608338208
  0
ARC
  5
437
330
A
100
AcDbEntity
  8
1
  6
solid
 62
     7
100
AcDbCircle
 10
0.3981270834414866
 20
0.4244284049785197
 30
0.0
 40
0.0053482479415834
100
AcDbArc
 50
343.983544490684
 51
415.1774202476649
  0
LINE
  5
438
330
A
100
AcDbEntity
  8
1
  6
solid
 62
     7
100
AcDbLine
 10
0.4032677114009858
 20
0.422952800989151
 30
0.0
 11
0.4032677114009858
 21
0.4066141843795777
 31
0.0
  0
LINE
  5
439
330
A
100
AcDbEntity
  8
1
  6
solid
 62
     7
100
AcDbLine
 10
0.4032677114009858
 20
0.4066141843795777
 30
0.0
 11
0.3474409878253937
 21
0.4066141843795777
 31
0.0
  0
LINE
  5
43A
330
A
100
AcDbEntity
  8
1
  6
solid
 62
     7
100
AcDbLine
 10
0.3474409878253937
 20
0.4066141843795777
 30
0.0
 11
0.3355512022972107
 21
0.4078740477561951
 31
0.0
  0
LINE
  5
43B
330
A
100
AcDbEntity
  8
1
  6
solid
 62
     7
100
AcDbLine
 10
0.3355512022972107
 20
0.4078740477561951
 30
0.0
 11
0.3313386142253876
 21
0.4088582694530487
 31
0.0
  0
LINE
  5
43C
330
A
100
AcDbEntity
  8
1
  6
solid
 62
     7
100
AcDbLine
 10
0.3313386142253876
 20
0.4088582694530487
 30
0.0
 11
0.3299606442451477
 21
0.4101181328296662
 31
0.0
  0
ARC
  5
43D
330
A
100
AcDbEntity
  8
1
  6
solid
 62
     7
100
AcDbCircle
 10
0.3443290624476814
 20
0.4096842198344551
 30
0.0
 40
0.0143749685958028
100
AcDbArc
 50
118.4528083979454
 51
178.2702459412722
  0
ARC
  5
43E
330
A
100
AcDbEntity
  8
1
  6
solid
 62
     7
100
AcDbCircle
 10
0.3323665753158886
 20
0.4378625494333705
 30
0.0
 40
0.0163594968616963
100
AcDbArc
 50
288.2151862939423
 51
339.7667323188142
  0
ARC
  5
43F
330
A
100
AcDbEntity
  8
1
  6
solid
 62
     7
100
AcDbCircle
 10
0.3410070937524319
 20
0.4473291638855478
 30
0.0
 40
0.0165458414703608
100
AcDbArc
 50
293.9229841380251
 51
343.2438450214843
  0
LINE
  5
440
330
A
100
AcDbEntity
  8
1
  6
solid
 62
     7
100
AcDbLine
 10
0.3568504154682159
 20
0.4425590634346009
 30
0.0
 11
0.3650787770748138
 21
0.4515748322010041
 31
0.0
  0
ARC
  5
441
330
A
100
AcDbEntity
  8
1
  6
solid
 62
     7
100
AcDbCircle
 10
0.2960928340676204
 20
0.4985291304810872
 30
0.0
 40
0.0834491848945618
100
AcDbArc
 50
325.759397444425
 51
342.7475634763912
  0
LINE
  5
442
330
A
100
AcDbEntity
  8
1
  6
solid
 62
     7
100
AcDbLine
 10
0.3757874071598053
 20
0.4737795591354371
 30
0.0
 11
0.3779527842998505
 21
0.4916141927242279
 31
0.0
  0
LINE
  5
443
330
A
100
AcDbEntity
  8
1
  6
solid
 62
     7
100
AcDbLine
 10
0.3779527842998505
 20
0.4916141927242279
 30
0.0
 11
0.3750787675380707
 21
0.5018110275268555
 31
0.0
  0
LINE
  5
444
330
A
100
AcDbEntity
  8
1
  6
solid
 62
     7
100
AcDbLine
 10
0.3750787675380707
 20
0.5018110275268555
 30
0.0
 11
0.371259868144989
 21
0.5062598586082459
 31
0.0
  0
LINE
  5
445
330
A
100
AcDbEntity
  8
1
  6
solid
 62
     7
100
AcDbLine
 10
0.371259868144989
 20
0.5062598586082459
 30
0.0
 11
0.3668110370635986
 21
0.5092126727104187
 31
0.0
  0
LINE
  5
446
330
A
100
AcDbEntity
  8
1
  6
solid
 62
     7
100
AcDbLine
 10
0.3668110370635986
 20
0.5092126727104187
 30
0.0
 11
0.3616141974925995
 21
0.5099213123321534
 31
0.0
  0
ARC
  5
447
330
A
100
AcDbEntity
  8
1
  6
solid
 62
     7
100
AcDbCircle
 10
0.360111897466651
 20
0.4994594675772218
 30
0.0
 40
0.0105691580101848
100
AcDbArc
 50
81.82830270977239
 51
157.961668821669
  0
ARC
  5
448
330
A
100
AcDbEntity
  8
1
  6
solid
 62
     7
100
AcDbCircle
 10
0.3830396269186875
 20
0.4850632929718247
 30
0.0
 40
0.0375241525471211
100
AcDbArc
 50
150.7030013944538
 51
175.5234273099437
  0
LINE
  5
449
330
A
100
AcDbEntity
  8
1
  6
solid
 62
     7
100
AcDbLine
 10
0.3456299304962158
 20
0.487992137670517
 30
0.0
 11
0.3450787663459778
 21
0.4876378178596497
 31
0.0
  0
ARC
  5
44A
330
A
100
AcDbEntity
  8
1
  6
solid
 62
     7
100
AcDbCircle
 10
0.3488103393392972
 20
0.5008053569222318
 30
0.0
 40
0.0136860776692629
100
AcDbArc
 50
219.3586456671692
 51
254.1777035463707
  0
ARC
  5
44B
330
A
100
AcDbEntity
  8
1
  6
solid
 62
     7
100
AcDbCircle
 10
0.3410524918984354
 20
0.5024418452525782
 30
0.0
 40
0.0106954164803028
100
AcDbArc
 50
209.8030470937813
 51
254.6895306020148
  0
ARC
  5
44C
330
A
100
AcDbEntity
  8
1
  6
solid
 62
     7
100
AcDbCircle
 10
0.3464715099820162
 20
0.49814746243423
 30
0.0
 40
0.0147352842614055
100
AcDbArc
 50
127.2170031974877
 51
183.9749292190936
  0
ARC
  5
44D
330
A
100
AcDbEntity
  8
1
  6
solid
 62
     7
100
AcDbCircle
 10
0.3529409031111484
 20
0.4982349214149224
 30
0.0
 40
0.019293861463666
100
AcDbArc
 50
95.46804363322069
 51
142.8672990955885
  0
ARC
  5
44E
330
A
100
AcDbEntity
  8
1
  6
solid
 62
     7
100
AcDbCircle
 10
0.3583663384105475
 20
0.5080462693157959
 30
0.0
 40
0.0118754180148244
100
AcDbArc
 50
90.47569444431829
 51
127.7110820065735
  0
ARC
  5
44F
330
A
100
AcDbEntity
  8
1
  6
solid
 62
     7
100
AcDbCircle
 10
0.476386301331771
 20
0.4923575609512155
 30
0.0
 40
0.0279737859964371
100
AcDbArc
 50
71.30148880244909
 51
99.82221068192837
  0
ARC
  5
450
330
A
100
AcDbEntity
  8
1
  6
solid
 62
     7
100
AcDbCircle
 10
0.4769923296795266
 20
0.509818232181594
 30
0.0
 40
0.0123144909739494
100
AcDbArc
 50
7.091621490684159
 51
47.23131477105552
  0
LINE
  5
451
330
A
100
AcDbEntity
  8
1
  6
solid
 62
     7
100
AcDbLine
 10
0.4892126321792603
 20
0.5113386511802674
 30
0.0
 11
0.4866141974925995
 21
0.5100393891334534
 31
0.0
  0
LINE
  5
452
330
A
100
AcDbEntity
  8
1
  6
solid
 62
     7
100
AcDbLine
 10
0.4866141974925995
 20
0.5100393891334534
 30
0.0
 11
0.4705905914306641
 21
0.5092126727104187
 31
0.0
  0
LINE
  5
453
330
A
100
AcDbEntity
  8
1
  6
solid
 62
     7
100
AcDbLine
 10
0.4705905914306641
 20
0.5092126727104187
 30
0.0
 11
0.4668110311031342
 21
0.5075984597206116
 31
0.0
  0
ARC
  5
454
330
A
100
AcDbEntity
  8
1
  6
solid
 62
     7
100
AcDbCircle
 10
0.4838975704026915
 20
0.4857001818269335
 30
0.0
 40
0.0277756080031395
100
AcDbArc
 50
127.963799005864
 51
145.4392580539755
  0
ARC
  5
455
330
A
100
AcDbEntity
  8
1
  6
solid
 62
     7
100
AcDbCircle
 10
0.5001053452467002
 20
0.4738997895184597
 30
0.0
 40
0.0478201173245907
100
AcDbArc
 50
144.8118949334261
 51
175.3746248086858
  0
ARC
  5
456
330
A
100
AcDbEntity
  8
1
  6
solid
 62
     7
100
AcDbCircle
 10
0.456614878909221
 20
0.473194629088165
 30
0.0
 40
0.0061827953904867
100
AcDbArc
 50
132.4606179704819
 51
189.2135442936154
  0
ARC
  5
457
330
A
100
AcDbEntity
  8
1
  6
solid
 62
     7
100
AcDbCircle
 10
0.4547418391474598
 20
0.4749704753314538
 30
0.0
 40
0.005053922533989
100
AcDbArc
 50
213.1781679966702
 51
272.4815108615485
  0
ARC
  5
458
330
A
100
AcDbEntity
  8
1
  6
solid
 62
     7
100
AcDbCircle
 10
0.4687767113833952
 20
0.4431500011044621
 30
0.0
 40
0.0301261488348246
100
AcDbArc
 50
88.64670638837228
 51
117.2972018620818
  0
ARC
  5
459
330
A
100
AcDbEntity
  8
1
  6
solid
 62
     7
100
AcDbCircle
 10
0.4755732834339065
 20
0.4461483445876806
 30
0.0
 40
0.0277937240898609
100
AcDbArc
 50
44.16174921087634
 51
102.6466168471337
  0
ARC
  5
45A
330
A
100
AcDbEntity
  8
1
  6
solid
 62
     7
100
AcDbCircle
 10
0.4645356986520418
 20
0.4416620841964816
 30
0.0
 40
0.0390938743948937
100
AcDbArc
 50
343.8490717263048
 51
397.5940920219914
  0
ARC
  5
45B
330
A
100
AcDbEntity
  8
1
  6
solid
 62
     7
100
AcDbCircle
 10
0.4663761941850381
 20
0.4434266806611156
 30
0.0
 40
0.0378812216222286
100
AcDbArc
 50
316.7690824022202
 51
340.5092182778242
  0
ARC
  5
45C
330
A
100
AcDbEntity
  8
1
  6
solid
 62
     7
100
AcDbCircle
 10
0.4786642343057012
 20
0.4237920675385542
 30
0.0
 40
0.0165620353072882
100
AcDbArc
 50
279.1545783598943
 51
337.5983282573482
  0
ARC
  5
45D
330
A
100
AcDbEntity
  8
1
  6
solid
 62
     7
100
AcDbCircle
 10
0.4809775244335553
 20
0.3685273600361729
 30
0.0
 40
0.0389149598777294
100
AcDbArc
 50
89.52634937610529
 51
113.7967264973557
  0
LINE
  5
45E
330
A
100
AcDbEntity
  8
1
  6
solid
 62
     7
100
AcDbLine
 10
0.4652756154537201
 20
0.4041338860988617
 30
0.0
 11
0.4621653854846955
 21
0.4038976728916169
 31
0.0
  0
ARC
  5
45F
330
A
100
AcDbEntity
  8
1
  6
solid
 62
     7
100
AcDbCircle
 10
0.4671261353282738
 20
0.4551422383140921
 30
0.0
 40
0.0514841191470623
100
AcDbArc
 50
239.2302341138643
 51
264.4706893425532
  0
ARC
  5
460
330
A
100
AcDbEntity
  8
1
  6
solid
 62
     7
100
AcDbCircle
 10
0.4563631578580065
 20
0.4334062852407281
 30
0.0
 40
0.0273658111691475
100
AcDbArc
 50
184.82919805406
 51
235.3077486810797
  0
LINE
  5
461
330
A
100
AcDbEntity
  8
1
  6
solid
 62
     7
100
AcDbLine
 10
0.4290944933891297
 20
0.4311023950576783
 30
0.0
 11
0.4274409711360932
 21
0.43342524766922
 31
0.0
  0
ARC
  5
462
330
A
100
AcDbEntity
  8
1
  6
solid
 62
     7
100
AcDbCircle
 10
0.6368870874792286
 20
0.4545335715062088
 30
0.0
 40
0.2105070948600769
100
AcDbArc
 50
174.9264209651604
 51
185.7549311583123
  0
ARC
  5
463
330
A
100
AcDbEntity
  8
1
  6
solid
 62
     7
100
AcDbCircle
 10
0.4526553220791535
 20
0.4700363949078266
 30
0.0
 40
0.025640269741416
100
AcDbArc
 50
152.2660799407275
 51
173.0259583946447
  0
ARC
  5
464
330
A
100
AcDbEntity
  8
1
  6
solid
 62
     7
100
AcDbCircle
 10
0.4811235299324789
 20
0.4692620093361147
 30
0.0
 40
0.0527171120047569
100
AcDbArc
 50
126.1844698402785
 51
166.0525401577368
  0
LINE
  5
465
330
A
100
AcDbEntity
  8
1
  6
solid
 62
     7
100
AcDbLine
 10
0.4500000178813935
 20
0.5118110775947571
 30
0.0
 11
0.4507874250411988
 21
0.5123228430747986
 31
0.0
  0
ARC
  5
466
330
A
100
AcDbEntity
  8
1
  6
solid
 62
     7
100
AcDbCircle
 10
0.47011337496397
 20
0.481573006695106
 30
0.0
 40
0.0363186560571194
100
AcDbArc
 50
99.03580660655519
 51
122.1489311163519
  0
ARC
  5
467
330
A
100
AcDbEntity
  8
1
  6
solid
 62
     7
100
AcDbCircle
 10
0.4717238534427705
 20
0.5078985619827191
 30
0.0
 40
0.012023220770061
100
AcDbArc
 50
90.52246757975453
 51
127.4706320270324
  0
LINE
  5
468
330
A
100
AcDbEntity
  8
1
  6
solid
 62
     7
100
AcDbLine
 10
0.5832677483558655
 20
0.5149213075637818
 30
0.0
 11
0.5832677483558655
 21
0.4966141879558564
 31
0.0
  0
LINE
  5
469
330
A
100
AcDbEntity
  8
1
  6
solid
 62
     7
100
AcDbLine
 10
0.5832677483558655
 20
0.4966141879558564
 30
0.0
 11
0.5486220717430115
 21
0.4966141879558564
 31
0.0
  0
LINE
  5
46A
330
A
100
AcDbEntity
  8
1
  6
solid
 62
     7
100
AcDbLine
 10
0.5486220717430115
 20
0.4966141879558564
 30
0.0
 11
0.5416142344474793
 21
0.4953543543815613
 31
0.0
  0
LINE
  5
46B
330
A
100
AcDbEntity
  8
1
  6
solid
 62
     7
100
AcDbLine
 10
0.5416142344474793
 20
0.4953543543815613
 30
0.0
 11
0.5389764308929444
 21
0.4943701028823853
 31
0.0
  0
LINE
  5
46C
330
A
100
AcDbEntity
  8
1
  6
solid
 62
     7
100
AcDbLine
 10
0.5389764308929444
 20
0.4943701028823853
 30
0.0
 11
0.5377953052520752
 21
0.4931102693080902
 31
0.0
  0
ARC
  5
46D
330
A
100
AcDbEntity
  8
1
  6
solid
 62
     7
100
AcDbCircle
 10
0.5868690202276579
 20
0.4807642817962781
 30
0.0
 40
0.0506028942763806
100
AcDbArc
 50
165.8785615791983
 51
183.8101133393266
  0
LINE
  5
46E
330
A
100
AcDbEntity
  8
1
  6
solid
 62
     7
100
AcDbLine
 10
0.5363779664039612
 20
0.4774015843868256
 30
0.0
 11
0.5350394248962403
 21
0.4718504250049591
 31
0.0
  0
LINE
  5
46F
330
A
100
AcDbEntity
  8
1
  6
solid
 62
     7
100
AcDbLine
 10
0.5350394248962403
 20
0.4718504250049591
 30
0.0
 11
0.5355511903762818
 21
0.4709842801094056
 31
0.0
  0
ARC
  5
470
330
A
100
AcDbEntity
  8
1
  6
solid
 62
     7
100
AcDbCircle
 10
0.5407736857046553
 20
0.4832818349722533
 30
0.0
 40
0.0133605506271124
100
AcDbArc
 50
246.9901588789829
 51
305.766484347503
  0
ARC
  5
471
330
A
100
AcDbEntity
  8
1
  6
solid
 62
     7
100
AcDbCircle
 10
0.5541518149481579
 20
0.4453558121911465
 30
0.0
 40
0.0276517886668444
100
AcDbArc
 50
63.02905054767478
 51
101.6188646223435
  0
ARC
  5
472
330
A
100
AcDbEntity
  8
1
  6
solid
 62
     7
100
AcDbCircle
 10
0.5674255884970652
 20
0.4584091689380285
 30
0.0
 40
0.011613991111517
100
AcDbArc
 50
42.52942620679709
 51
93.61676525491834
  0
ARC
  5
473
330
A
100
AcDbEntity
  8
1
  6
solid
 62
     7
100
AcDbCircle
 10
0.5535809108520727
 20
0.4414082048986083
 30
0.0
 40
0.0334591828286648
100
AcDbArc
 50
325.2214212369145
 51
407.9658298993041
  0
LINE
  5
474
330
A
100
AcDbEntity
  8
1
  6
solid
 62
     7
100
AcDbLine
 10
0.5810630321502686
 20
0.4223228394985199
 30
0.0
 11
0.5755118727684021
 21
0.4143701195716858
 31
0.0
  0
ARC
  5
475
330
A
100
AcDbEntity
  8
1
  6
solid
 62
     7
100
AcDbCircle
 10
0.5411284590808581
 20
0.4643987122739491
 30
0.0
 40
0.0607048533856869
100
AcDbArc
 50
279.9467676054945
 51
304.4997779546
  0
ARC
  5
476
330
A
100
AcDbEntity
  8
1
  6
solid
 62
     7
100
AcDbCircle
 10
0.5466176474173575
 20
0.3959085389491246
 30
0.0
 40
0.0100308051332832
100
AcDbArc
 50
60.12408571630373
 51
119.9209234090938
  0
ARC
  5
477
330
A
100
AcDbEntity
  8
1
  6
solid
 62
     7
100
AcDbCircle
 10
0.5177111331717969
 20
0.3152315233509677
 30
0.0
 40
0.0925160050392151
100
AcDbArc
 50
75.02680033427369
 51
85.33449494283379
  0
ARC
  5
478
330
A
100
AcDbEntity
  8
1
  6
solid
 62
     7
100
AcDbCircle
 10
0.5340843946552776
 20
0.4371126503516322
 30
0.0
 40
0.0309628341346979
100
AcDbArc
 50
236.8775891146317
 51
253.3953190373241
  0
ARC
  5
479
330
A
100
AcDbEntity
  8
1
  6
solid
 62
     7
100
AcDbCircle
 10
0.5202291729121493
 20
0.4157785082548546
 30
0.0
 40
0.0055247526615858
100
AcDbArc
 50
147.0984715128171
 51
236.3195455839687
  0
ARC
  5
47A
330
A
100
AcDbEntity
  8
1
  6
solid
 62
     7
100
AcDbCircle
 10
0.5343267431239741
 20
0.4144212270358561
 30
0.0
 40
0.0192363653331995
100
AcDbArc
 50
131.3653732314083
 51
166.9049614265328
  0
LINE
  5
47B
330
A
100
AcDbEntity
  8
1
  6
solid
 62
     7
100
AcDbLine
 10
0.5216141939163208
 20
0.4288583099842072
 30
0.0
 11
0.5242125988006592
 21
0.4290551543235779
 31
0.0
  0
ARC
  5
47C
330
A
100
AcDbEntity
  8
1
  6
solid
 62
     7
100
AcDbCircle
 10
0.5192578103579891
 20
0.422676875681449
 30
0.0
 40
0.0080766556784511
100
AcDbArc
 50
356.927190099965
 51
412.1591459930579
  0
ARC
  5
47D
330
A
100
AcDbEntity
  8
1
  6
solid
 62
     7
100
AcDbCircle
 10
0.5451058360743306
 20
0.4357154640444376
 30
0.0
 40
0.0223094336688519
100
AcDbArc
 50
217.1455243572071
 51
282.9835824086034
  0
ARC
  5
47E
330
A
100
AcDbEntity
  8
1
  6
solid
 62
     7
100
AcDbCircle
 10
0.544665723940943
 20
0.4291098991852897
 30
0.0
 40
0.0160857606679201
100
AcDbArc
 50
289.8135052012386
 51
358.8229840088119
  0
ARC
  5
47F
330
A
100
AcDbEntity
  8
1
  6
solid
 62
     7
100
AcDbCircle
 10
0.544744846328888
 20
0.4381080879549114
 30
0.0
 40
0.0185236427932978
100
AcDbArc
 50
329.7615058074589
 51
377.1905340644189
  0
LINE
  5
480
330
A
100
AcDbEntity
  8
1
  6
solid
 62
     7
100
AcDbLine
 10
0.5624409914016724
 20
0.443582683801651
 30
0.0
 11
0.55602365732193
 21
0.4573228359222412
 31
0.0
  0
LINE
  5
481
330
A
100
AcDbEntity
  8
1
  6
solid
 62
     7
100
AcDbLine
 10
0.55602365732193
 20
0.4573228359222412
 30
0.0
 11
0.5545669794082642
 21
0.4590157568454743
 31
0.0
  0
ARC
  5
482
330
A
100
AcDbEntity
  8
1
  6
solid
 62
     7
100
AcDbCircle
 10
0.538820049873607
 20
0.4335245305892302
 30
0.0
 40
0.0299627836793661
100
AcDbArc
 50
58.29474932071004
 51
83.05892179819567
  0
ARC
  5
483
330
A
100
AcDbEntity
  8
1
  6
solid
 62
     7
100
AcDbCircle
 10
0.5434171005437413
 20
0.4491743888869052
 30
0.0
 40
0.0141271157190204
100
AcDbArc
 50
93.96191520424659
 51
143.592893996781
  0
ARC
  5
484
330
A
100
AcDbEntity
  8
1
  6
solid
 62
     7
100
AcDbCircle
 10
0.5301059803229247
 20
0.4623529068992595
 30
0.0
 40
0.0051719821058214
100
AcDbArc
 50
160.3157276700597
 51
292.0458022672955
  0
LINE
  5
485
330
A
100
AcDbEntity
  8
1
  6
solid
 62
     7
100
AcDbLine
 10
0.5252362489700318
 20
0.464094489812851
 30
0.0
 11
0.526535451412201
 21
0.472795307636261
 31
0.0
  0
LINE
  5
486
330
A
100
AcDbEntity
  8
1
  6
solid
 62
     7
100
AcDbLine
 10
0.526535451412201
 20
0.472795307636261
 30
0.0
 11
0.5264567136764527
 21
0.5016535520553589
 31
0.0
  0
LINE
  5
487
330
A
100
AcDbEntity
  8
1
  6
solid
 62
     7
100
AcDbLine
 10
0.5264567136764527
 20
0.5016535520553589
 30
0.0
 11
0.5253937244415284
 21
0.5082677602767945
 31
0.0
  0
LINE
  5
488
330
A
100
AcDbEntity
  8
1
  6
solid
 62
     7
100
AcDbLine
 10
0.5253937244415284
 20
0.5082677602767945
 30
0.0
 11
0.5232677459716797
 21
0.5137401819229126
 31
0.0
  0
LINE
  5
489
330
A
100
AcDbEntity
  8
1
  6
solid
 62
     7
100
AcDbLine
 10
0.5232677459716797
 20
0.5137401819229126
 30
0.0
 11
0.5232677459716797
 21
0.5166141986846924
 31
0.0
  0
ARC
  5
48A
330
A
100
AcDbEntity
  8
1
  6
solid
 62
     7
100
AcDbCircle
 10
0.5439642274780764
 20
1.006893208496659
 30
0.0
 40
0.4907156527042389
100
AcDbArc
 50
267.5827694152212
 51
274.4741122570808
  0
ARC
  5
48B
330
A
100
AcDbEntity
  8
1
  6
solid
 62
     7
100
AcDbCircle
 10
0.5800127254341786
 20
0.515280349084459
 30
0.0
 40
0.0032747306395322
100
AcDbArc
 50
353.7065919817639
 51
407.0475451163416
  0
ARC
  5
48C
330
A
100
AcDbEntity
  8
1
  6
solid
 62
     7
100
AcDbCircle
 10
0.482231610853325
 20
0.4381474669448055
 30
0.0
 40
0.0322711691260338
100
AcDbArc
 50
144.0643443891466
 51
204.1950690493236
  0
LINE
  5
48D
330
A
100
AcDbEntity
  8
1
  6
solid
 62
     7
100
AcDbLine
 10
0.452795296907425
 20
0.4249212741851807
 30
0.0
 11
0.4572047591209412
 21
0.4158661663532257
 31
0.0
  0
LINE
  5
48E
330
A
100
AcDbEntity
  8
1
  6
solid
 62
     7
100
AcDbLine
 10
0.4572047591209412
 20
0.4158661663532257
 30
0.0
 11
0.4598819315433503
 21
0.4138582646846772
 31
0.0
  0
ARC
  5
48F
330
A
100
AcDbEntity
  8
1
  6
solid
 62
     7
100
AcDbCircle
 10
0.4635985188464752
 20
0.4245120092417454
 30
0.0
 40
0.0112834079191089
100
AcDbArc
 50
250.7685375655639
 51
332.6661188840877
  0
ARC
  5
490
330
A
100
AcDbEntity
  8
1
  6
solid
 62
     7
100
AcDbCircle
 10
0.4630201154579416
 20
0.4281105568097016
 30
0.0
 40
0.0137654207646847
100
AcDbArc
 50
320.3708153213918
 51
369.0489144228178
  0
LINE
  5
491
330
A
100
AcDbEntity
  8
1
  6
solid
 62
     7
100
AcDbLine
 10
0.4766142070293427
 20
0.4302756190299988
 30
0.0
 11
0.4762992262840271
 21
0.4475197196006775
 31
0.0
  0
LINE
  5
492
330
A
100
AcDbEntity
  8
1
  6
solid
 62
     7
100
AcDbLine
 10
0.4762992262840271
 20
0.4475197196006775
 30
0.0
 11
0.4744882285594941
 21
0.4534645974636078
 31
0.0
  0
ARC
  5
493
330
A
100
AcDbEntity
  8
1
  6
solid
 62
     7
100
AcDbCircle
 10
0.4601112879184936
 20
0.4497624633140513
 30
0.0
 40
0.0148459495976567
100
AcDbArc
 50
14.44023397153192
 51
59.53749711755199
  0
ARC
  5
494
330
A
100
AcDbEntity
  8
1
  6
solid
 62
     7
100
AcDbCircle
 10
0.4649444657158936
 20
0.457764908535852
 30
0.0
 40
0.0054989191703498
100
AcDbArc
 50
60.67291190668177
 51
119.4110429573632
  0
LINE
  5
495
330
A
100
AcDbEntity
  8
1
  6
solid
 62
     7
100
AcDbLine
 10
0.4622441232204438
 20
0.4625590741634369
 30
0.0
 11
0.4561024010181427
 21
0.4570866525173188
 31
0.0
  0
ARC
  5
496
330
A
100
AcDbEntity
  8
1
  6
solid
 62
     7
100
AcDbCircle
 10
1.488701691620119
 20
0.2721147188890314
 30
0.0
 40
0.0245056971907616
100
AcDbArc
 50
356.0677030004727
 51
451.2905530877737
  0
ARC
  5
497
330
A
100
AcDbEntity
  8
1
  6
solid
 62
     7
100
AcDbCircle
 10
1.46566051282331
 20
0.2650380942085564
 30
0.0
 40
0.0477946922183037
100
AcDbArc
 50
334.0109752481847
 51
366.4812881661696
  0
ARC
  5
498
330
A
100
AcDbEntity
  8
1
  6
solid
 62
     7
100
AcDbCircle
 10
1.479160876760979
 20
0.2599702765948206
 30
0.0
 40
0.0334664136171341
100
AcDbArc
 50
275.4215213935509
 51
331.6810621717993
  0
ARC
  5
499
330
A
100
AcDbEntity
  8
1
  6
solid
 62
     7
100
AcDbCircle
 10
1.480743287622835
 20
0.2331057312355214
 30
0.0
 40
0.0066427234560251
100
AcDbArc
 50
158.3989853436574
 51
283.756766652838
  0
ARC
  5
49A
330
A
100
AcDbEntity
  8
1
  6
solid
 62
     7
100
AcDbCircle
 10
1.474177625901659
 20
0.2226570658586886
 30
0.0
 40
0.0129000069573522
100
AcDbArc
 50
55.64798613053299
 51
88.27007268206484
  0
ARC
  5
49B
330
A
100
AcDbEntity
  8
1
  6
solid
 62
     7
100
AcDbCircle
 10
1.47715756284074
 20
0.2568311052939079
 30
0.0
 40
0.0239136405289173
100
AcDbArc
 50
280.3569443708158
 51
313.5117856776087
  0
ARC
  5
49C
330
A
100
AcDbEntity
  8
1
  6
solid
 62
     7
100
AcDbCircle
 10
1.481041944840594
 20
0.2493067305484514
 30
0.0
 40
0.0159582570195198
100
AcDbArc
 50
322.0289393650608
 51
366.7447091251789
  0
ARC
  5
49D
330
A
100
AcDbEntity
  8
1
  6
solid
 62
     7
100
AcDbCircle
 10
1.494680308803613
 20
0.2538487744654623
 30
0.0
 40
0.0034638838842511
100
AcDbArc
 50
309.6334574178083
 51
403.2109695755665
  0
ARC
  5
49E
330
A
100
AcDbEntity
  8
1
  6
solid
 62
     7
100
AcDbCircle
 10
1.495299353762846
 20
0.2415488486125763
 30
0.0
 40
0.0147948693484068
100
AcDbArc
 50
82.59987502936288
 51
125.5710095697847
  0
ARC
  5
49F
330
A
100
AcDbEntity
  8
1
  6
solid
 62
     7
100
AcDbCircle
 10
1.485732138246576
 20
0.2709666110789503
 30
0.0
 40
0.0174104608595371
100
AcDbArc
 50
226.6454466435757
 51
273.1637716275519
  0
LINE
  5
4A0
330
A
100
AcDbEntity
  8
1
  6
solid
 62
     7
100
AcDbLine
 10
1.473779678344726
 20
0.2583070993423462
 30
0.0
 11
1.467322826385498
 21
0.2712992131710052
 31
0.0
  0
LINE
  5
4A1
330
A
100
AcDbEntity
  8
1
  6
solid
 62
     7
100
AcDbLine
 10
1.467322826385498
 20
0.2712992131710052
 30
0.0
 11
1.467086672782897
 21
0.2744094729423523
 31
0.0
  0
ARC
  5
4A2
330
A
100
AcDbEntity
  8
1
  6
solid
 62
     7
100
AcDbCircle
 10
1.42789696648824
 20
0.293433117260728
 30
0.0
 40
0.0435629673302174
100
AcDbArc
 50
334.1069267989344
 51
349.6286512160989
  0
ARC
  5
4A3
330
A
100
AcDbEntity
  8
1
  6
solid
 62
     7
100
AcDbCircle
 10
1.491299190784141
 20
0.2723959120544255
 30
0.0
 40
0.0244221724569798
100
AcDbArc
 50
97.40925169723002
 51
147.2977559422306
  0
ARC
  5
4A4
330
A
100
AcDbEntity
  8
1
  6
solid
 62
     7
100
AcDbCircle
 10
1.799155684011826
 20
0.2833918676070144
 30
0.0
 40
0.0099701900035143
100
AcDbArc
 50
58.4662246349178
 51
96.01888814449846
  0
LINE
  5
4A5
330
A
100
AcDbEntity
  8
1
  6
solid
 62
     7
100
AcDbLine
 10
1.804370164871215
 20
0.2918897867202759
 30
0.0
 11
1.805748105049133
 21
0.2891338765621185
 31
0.0
  0
LINE
  5
4A6
330
A
100
AcDbEntity
  8
1
  6
solid
 62
     7
100
AcDbLine
 10
1.805748105049133
 20
0.2891338765621185
 30
0.0
 11
1.803937196731567
 21
0.2851181328296661
 31
0.0
  0
ARC
  5
4A7
330
A
100
AcDbEntity
  8
1
  6
solid
 62
     7
100
AcDbCircle
 10
2.054379730103607
 20
0.2619869817980595
 30
0.0
 40
0.2515084743499756
100
AcDbArc
 50
174.7230691580962
 51
184.6552126453323
  0
LINE
  5
4A8
330
A
100
AcDbEntity
  8
1
  6
solid
 62
     7
100
AcDbLine
 10
1.803700923919677
 20
0.2415748089551926
 30
0.0
 11
1.805630087852478
 21
0.2320866286754608
 31
0.0
  0
LINE
  5
4A9
330
A
100
AcDbEntity
  8
1
  6
solid
 62
     7
100
AcDbLine
 10
1.805630087852478
 20
0.2320866286754608
 30
0.0
 11
1.805354475975036
 21
0.2310630083084106
 31
0.0
  0
LINE
  5
4AA
330
A
100
AcDbEntity
  8
1
  6
solid
 62
     7
100
AcDbLine
 10
1.805354475975036
 20
0.2310630083084106
 30
0.0
 11
1.800078868865966
 21
0.2273228466510773
 31
0.0
  0
LINE
  5
4AB
330
A
100
AcDbEntity
  8
1
  6
solid
 62
     7
100
AcDbLine
 10
1.800078868865966
 20
0.2273228466510773
 30
0.0
 11
1.789763927459716
 21
0.2266535609960556
 31
0.0
  0
LINE
  5
4AC
330
A
100
AcDbEntity
  8
1
  6
solid
 62
     7
100
AcDbLine
 10
1.789763927459716
 20
0.2266535609960556
 30
0.0
 11
1.789173364639282
 21
0.2744094729423523
 31
0.0
  0
LINE
  5
4AD
330
A
100
AcDbEntity
  8
1
  6
solid
 62
     7
100
AcDbLine
 10
1.789173364639282
 20
0.2744094729423523
 30
0.0
 11
1.788110375404357
 21
0.278779536485672
 31
0.0
  0
LINE
  5
4AE
330
A
100
AcDbEntity
  8
1
  6
solid
 62
     7
100
AcDbLine
 10
1.788110375404357
 20
0.278779536485672
 30
0.0
 11
1.785630106925964
 21
0.27921262383461
 31
0.0
  0
ARC
  5
4AF
330
A
100
AcDbEntity
  8
1
  6
solid
 62
     7
100
AcDbCircle
 10
1.782406387386779
 20
0.2832051963195057
 30
0.0
 40
0.0051315692253411
100
AcDbArc
 50
157.1544702353677
 51
308.918418573978
  0
ARC
  5
4B0
330
A
100
AcDbEntity
  8
1
  6
solid
 62
     7
100
AcDbCircle
 10
1.784849379519399
 20
0.2751533476624867
 30
0.0
 40
0.0123414387926459
100
AcDbArc
 50
92.77402577927089
 51
125.5306397366953
  0
LINE
  5
4B1
330
A
100
AcDbEntity
  8
1
  6
solid
 62
     7
100
AcDbLine
 10
1.784252166748046
 20
0.287480354309082
 30
0.0
 11
1.795748233795166
 21
0.2929921448230743
 31
0.0
  0
LINE
  5
4B2
330
A
100
AcDbEntity
  8
1
  6
solid
 62
     7
100
AcDbLine
 10
1.795748233795166
 20
0.2929921448230743
 30
0.0
 11
1.798110246658325
 21
0.2933070957660675
 31
0.0
  0
LINE
  5
4B3
330
A
100
AcDbEntity
  8
1
  6
solid
 62
     7
100
AcDbLine
 10
1.483149647712707
 20
0.2842913568019867
 30
0.0
 11
1.483858346939086
 21
0.2664566934108734
 31
0.0
  0
LINE
  5
4B4
330
A
100
AcDbEntity
  8
1
  6
solid
 62
     7
100
AcDbLine
 10
1.483858346939086
 20
0.2664566934108734
 30
0.0
 11
1.485984444618225
 21
0.2627952992916107
 31
0.0
  0
LINE
  5
4B5
330
A
100
AcDbEntity
  8
1
  6
solid
 62
     7
100
AcDbLine
 10
1.485984444618225
 20
0.2627952992916107
 30
0.0
 11
1.488622069358825
 21
0.2606693208217621
 31
0.0
  0
LINE
  5
4B6
330
A
100
AcDbEntity
  8
1
  6
solid
 62
     7
100
AcDbLine
 10
1.488622069358825
 20
0.2606693208217621
 30
0.0
 11
1.491023659706115
 21
0.2606693208217621
 31
0.0
  0
ARC
  5
4B7
330
A
100
AcDbEntity
  8
1
  6
solid
 62
     7
100
AcDbCircle
 10
1.476381079498998
 20
0.2794235342008538
 30
0.0
 40
0.0237933956086636
100
AcDbArc
 50
307.9813712613656
 51
341.7404657436512
  0
ARC
  5
4B8
330
A
100
AcDbEntity
  8
1
  6
solid
 62
     7
100
AcDbCircle
 10
1.490070352769443
 20
0.2732874217603544
 30
0.0
 40
0.0090032452717423
100
AcDbArc
 50
351.5762830730226
 51
396.3364183268946
  0
LINE
  5
4B9
330
A
100
AcDbEntity
  8
1
  6
solid
 62
     7
100
AcDbLine
 10
1.497322916984558
 20
0.2786220610141754
 30
0.0
 11
1.495866298675537
 21
0.2875196933746338
 31
0.0
  0
LINE
  5
4BA
330
A
100
AcDbEntity
  8
1
  6
solid
 62
     7
100
AcDbLine
 10
1.495866298675537
 20
0.2875196933746338
 30
0.0
 11
1.494055151939392
 21
0.2893700897693634
 31
0.0
  0
ARC
  5
4BB
330
A
100
AcDbEntity
  8
1
  6
solid
 62
     7
100
AcDbCircle
 10
1.491617950429168
 20
0.2803530050891886
 30
0.0
 40
0.0093406513333321
100
AcDbArc
 50
74.87509500261854
 51
155.0410048004907
  0
ARC
  5
4BC
330
A
100
AcDbEntity
  8
1
  6
solid
 62
     7
100
AcDbCircle
 10
1.522355608381913
 20
0.268475714620524
 30
0.0
 40
0.0275107007473707
100
AcDbArc
 50
331.5133024805001
 51
356.1201073995086
  0
LINE
  5
4BD
330
A
100
AcDbEntity
  8
1
  6
solid
 62
     7
100
AcDbLine
 10
1.546535491943359
 20
0.2553543448448181
 30
0.0
 11
1.545630097389221
 21
0.2511023879051208
 31
0.0
  0
ARC
  5
4BE
330
A
100
AcDbEntity
  8
1
  6
solid
 62
     7
100
AcDbCircle
 10
1.592496962351697
 20
0.2171950083106429
 30
0.0
 40
0.0578464642167091
100
AcDbArc
 50
144.114901449383
 51
169.4409526087505
  0
ARC
  5
4BF
330
A
100
AcDbEntity
  8
1
  6
solid
 62
     7
100
AcDbCircle
 10
1.55747633699241
 20
0.2149246439244333
 30
0.0
 40
0.0253557972609997
100
AcDbArc
 50
149.4957927794108
 51
173.4993007494104
  0
LINE
  5
4C0
330
A
100
AcDbEntity
  8
1
  6
solid
 62
     7
100
AcDbLine
 10
1.532283544540405
 20
0.2177952826023102
 30
0.0
 11
1.522952914237976
 21
0.1990157663822174
 31
0.0
  0
ARC
  5
4C1
330
A
100
AcDbEntity
  8
1
  6
solid
 62
     7
100
AcDbCircle
 10
1.518042617001982
 20
0.20288869656364
 30
0.0
 40
0.006253847386688
100
AcDbArc
 50
230.3874101765968
 51
321.7358696081539
  0
LINE
  5
4C2
330
A
100
AcDbEntity
  8
1
  6
solid
 62
     7
100
AcDbLine
 10
1.514055132865905
 20
0.1980708688497543
 30
0.0
 11
1.514567017555236
 21
0.2008267939090729
 31
0.0
  0
ARC
  5
4C3
330
A
100
AcDbEntity
  8
1
  6
solid
 62
     7
100
AcDbCircle
 10
1.476566026677701
 20
0.2303277764403921
 30
0.0
 40
0.0481080375611782
100
AcDbArc
 50
322.1770451870233
 51
350.2315110330008
  0
ARC
  5
4C4
330
A
100
AcDbEntity
  8
1
  6
solid
 62
     7
100
AcDbCircle
 10
1.490077267689408
 20
0.2453648173592676
 30
0.0
 40
0.041077695786953
100
AcDbArc
 50
325.6136685282936
 51
350.8306279062377
  0
ARC
  5
4C5
330
A
100
AcDbEntity
  8
1
  6
solid
 62
     7
100
AcDbCircle
 10
1.500036865806158
 20
0.2606974885695157
 30
0.0
 40
0.0376113206148148
100
AcDbArc
 50
324.4296688960502
 51
352.0144909346977
  0
ARC
  5
4C6
330
A
100
AcDbEntity
  8
1
  6
solid
 62
     7
100
AcDbCircle
 10
1.551715410375377
 20
0.2526252852539758
 30
0.0
 40
0.0147100389003754
100
AcDbArc
 50
115.1124463277427
 51
168.839817414614
  0
LINE
  5
4C7
330
A
100
AcDbEntity
  8
1
  6
solid
 62
     7
100
AcDbLine
 10
1.545472502708435
 20
0.2659448981285095
 30
0.0
 11
1.549803256988525
 21
0.2666141986846924
 31
0.0
  0
ARC
  5
4C8
330
A
100
AcDbEntity
  8
1
  6
solid
 62
     7
100
AcDbCircle
 10
1.829564888898871
 20
0.2642131670157488
 30
0.0
 40
0.023667648434639
100
AcDbArc
 50
328.9562549062158
 51
365.8225492910073
  0
LINE
  5
4C9
330
A
100
AcDbEntity
  8
1
  6
solid
 62
     7
100
AcDbLine
 10
1.84984266757965
 20
0.2520079016685486
 30
0.0
 11
1.848937034606933
 21
0.2477952837944031
 31
0.0
  0
ARC
  5
4CA
330
A
100
AcDbEntity
  8
1
  6
solid
 62
     7
100
AcDbCircle
 10
1.896123786998062
 20
0.213769082846325
 30
0.0
 40
0.0581753551959992
100
AcDbArc
 50
144.2047594181037
 51
169.4217461168045
  0
ARC
  5
4CB
330
A
100
AcDbEntity
  8
1
  6
solid
 62
     7
100
AcDbCircle
 10
1.863634927084957
 20
0.2106235779999836
 30
0.0
 40
0.0283040124922991
100
AcDbArc
 50
150.7608804174805
 51
172.2327924319933
  0
ARC
  5
4CC
330
A
100
AcDbEntity
  8
1
  6
solid
 62
     7
100
AcDbCircle
 10
1.878848964179013
 20
0.1867480586844856
 30
0.0
 40
0.0513674840331078
100
AcDbArc
 50
147.3662763999842
 51
167.4908926195769
  0
ARC
  5
4CD
330
A
100
AcDbEntity
  8
1
  6
solid
 62
     7
100
AcDbCircle
 10
1.820361280932113
 20
0.2054490515008558
 30
0.0
 40
0.0112663339823485
100
AcDbArc
 50
274.1738917189997
 51
317.7505635104782
  0
ARC
  5
4CE
330
A
100
AcDbEntity
  8
1
  6
solid
 62
     7
100
AcDbCircle
 10
1.826060655518641
 20
0.1985732010639969
 30
0.0
 40
0.0065439264290035
100
AcDbArc
 50
146.7067465035386
 51
221.7866242378524
  0
ARC
  5
4CF
330
A
100
AcDbEntity
  8
1
  6
solid
 62
     7
100
AcDbCircle
 10
1.788889543003223
 20
0.2245773011493667
 30
0.0
 40
0.038823451846838
100
AcDbArc
 50
324.7406610693392
 51
351.4702614616311
  0
ARC
  5
4D0
330
A
100
AcDbEntity
  8
1
  6
solid
 62
     7
100
AcDbCircle
 10
1.79338432411641
 20
0.2420183592818368
 30
0.0
 40
0.041077695786953
100
AcDbArc
 50
325.6136685282936
 51
350.8306279062377
  0
LINE
  5
4D1
330
A
100
AcDbEntity
  8
1
  6
solid
 62
     7
100
AcDbLine
 10
1.833937048912048
 20
0.2354724556207657
 30
0.0
 11
1.842834711074829
 21
0.2537795305252075
 31
0.0
  0
LINE
  5
4D2
330
A
100
AcDbEntity
  8
1
  6
solid
 62
     7
100
AcDbLine
 10
1.842834711074829
 20
0.2537795305252075
 30
0.0
 11
1.843622207641601
 21
0.2580315172672272
 31
0.0
  0
ARC
  5
4D3
330
A
100
AcDbEntity
  8
1
  6
solid
 62
     7
100
AcDbCircle
 10
1.857010594098686
 20
0.2549022647786796
 30
0.0
 40
0.0137492222711444
100
AcDbArc
 50
126.5683811131466
 51
166.8444869316215
  0
LINE
  5
4D4
330
A
100
AcDbEntity
  8
1
  6
solid
 62
     7
100
AcDbLine
 10
1.848819017410278
 20
0.2659448981285095
 30
0.0
 11
1.853110432624816
 21
0.2666141986846924
 31
0.0
  0
ARC
  5
4D5
330
A
100
AcDbEntity
  8
1
  6
solid
 62
     7
100
AcDbCircle
 10
1.701869739964831
 20
0.2280661635750469
 30
0.0
 40
0.0156977158039808
100
AcDbArc
 50
17.38287924900664
 51
103.8558130472252
  0
LINE
  5
4D6
330
A
100
AcDbEntity
  8
1
  6
solid
 62
     7
100
AcDbLine
 10
1.716850519180297
 20
0.2327559143304825
 30
0.0
 11
1.718385934829711
 21
0.2322047352790832
 31
0.0
  0
ARC
  5
4D7
330
A
100
AcDbEntity
  8
1
  6
solid
 62
     7
100
AcDbCircle
 10
1.708865709818869
 20
0.2503348173205912
 30
0.0
 40
0.0204776600003243
100
AcDbArc
 50
297.7042588248142
 51
336.7278445532921
  0
ARC
  5
4D8
330
A
100
AcDbEntity
  8
1
  6
solid
 62
     7
100
AcDbCircle
 10
1.731442031350115
 20
0.236281486496967
 30
0.0
 40
0.0070516476407647
100
AcDbArc
 50
58.9524897075931
 51
122.2675305211
  0
LINE
  5
4D9
330
A
100
AcDbEntity
  8
1
  6
solid
 62
     7
100
AcDbLine
 10
1.735078930854797
 20
0.2423228472471237
 30
0.0
 11
1.735433220863342
 21
0.2417716681957245
 31
0.0
  0
ARC
  5
4DA
330
A
100
AcDbEntity
  8
1
  6
solid
 62
     7
100
AcDbCircle
 10
1.71184547649696
 20
0.2517520418739346
 30
0.0
 40
0.0256122928112745
100
AcDbArc
 50
307.7332065831569
 51
337.0659559926807
  0
LINE
  5
4DB
330
A
100
AcDbEntity
  8
1
  6
solid
 62
     7
100
AcDbLine
 10
1.727519750595092
 20
0.2314960658550262
 30
0.0
 11
1.723110318183898
 21
0.221653550863266
 31
0.0
  0
LINE
  5
4DC
330
A
100
AcDbEntity
  8
1
  6
solid
 62
     7
100
AcDbLine
 10
1.723110318183898
 20
0.221653550863266
 30
0.0
 11
1.723819017410278
 21
0.218937024474144
 31
0.0
  0
ARC
  5
4DD
330
A
100
AcDbEntity
  8
1
  6
solid
 62
     7
100
AcDbCircle
 10
1.640037151304623
 20
0.1492786897025223
 30
0.0
 40
0.1089572608470917
100
AcDbArc
 50
28.84870414832871
 51
39.74098098757187
  0
ARC
  5
4DE
330
A
100
AcDbEntity
  8
1
  6
solid
 62
     7
100
AcDbCircle
 10
1.732256499726585
 20
0.2007379007535221
 30
0.0
 40
0.0034030470997095
100
AcDbArc
 50
308.3980130281074
 51
379.0817487861693
  0
ARC
  5
4DF
330
A
100
AcDbEntity
  8
1
  6
solid
 62
     7
100
AcDbCircle
 10
1.727680276314981
 20
0.2130852704870366
 30
0.0
 40
0.0164373405277729
100
AcDbArc
 50
249.2265984547715
 51
294.015902031494
  0
ARC
  5
4E0
330
A
100
AcDbEntity
  8
1
  6
solid
 62
     7
100
AcDbCircle
 10
1.735108719131005
 20
0.2135399044835675
 30
0.0
 40
0.0206436850130558
100
AcDbArc
 50
194.0070325248329
 51
230.0404980384627
  0
ARC
  5
4E1
330
A
100
AcDbEntity
  8
1
  6
solid
 62
     7
100
AcDbCircle
 10
1.712747929606762
 20
0.2055367031001976
 30
0.0
 40
0.0038044005632401
100
AcDbArc
 50
52.21379092151267
 51
155.3064054610698
  0
ARC
  5
4E2
330
A
100
AcDbEntity
  8
1
  6
solid
 62
     7
100
AcDbCircle
 10
1.725228962089901
 20
0.1929321625222996
 30
0.0
 40
0.0213418044149876
100
AcDbArc
 50
138.3121776362153
 51
158.6306346244529
  0
ARC
  5
4E3
330
A
100
AcDbEntity
  8
1
  6
solid
 62
     7
100
AcDbCircle
 10
1.698145274492883
 20
0.2049978209005896
 30
0.0
 40
0.0083886254578829
100
AcDbArc
 50
238.6398359771029
 51
329.2491869781946
  0
LINE
  5
4E4
330
A
100
AcDbEntity
  8
1
  6
solid
 62
     7
100
AcDbLine
 10
1.693779706954956
 20
0.1978346556425094
 30
0.0
 11
1.694685101509094
 21
0.200433075428009
 31
0.0
  0
ARC
  5
4E5
330
A
100
AcDbEntity
  8
1
  6
solid
 62
     7
100
AcDbCircle
 10
1.667611557814037
 20
0.2354945883497228
 30
0.0
 40
0.0442977026104927
100
AcDbArc
 50
307.6743405977952
 51
333.1285534267489
  0
ARC
  5
4E6
330
A
100
AcDbEntity
  8
1
  6
solid
 62
     7
100
AcDbCircle
 10
1.697622737912937
 20
0.2184267512981104
 30
0.0
 40
0.0099520143121481
100
AcDbArc
 50
342.7311880978561
 51
395.269177363418
  0
ARC
  5
4E7
330
A
100
AcDbEntity
  8
1
  6
solid
 62
     7
100
AcDbCircle
 10
1.750062847370943
 20
0.2626800071001195
 30
0.0
 40
0.0587074868381024
100
AcDbArc
 50
207.0040765530451
 51
220.9885985956065
  0
ARC
  5
4E8
330
A
100
AcDbEntity
  8
1
  6
solid
 62
     7
100
AcDbCircle
 10
1.705013619659905
 20
0.2439177304605707
 30
0.0
 40
0.0107233747839928
100
AcDbArc
 50
188.5533177178745
 51
227.4051378491049
  0
ARC
  5
4E9
330
A
100
AcDbEntity
  8
1
  6
solid
 62
     7
100
AcDbCircle
 10
1.697349328361689
 20
0.2387192346726738
 30
0.0
 40
0.0046505886130035
100
AcDbArc
 50
80.58033494085725
 51
129.2065382649695
  0
ARC
  5
4EA
330
A
100
AcDbEntity
  8
1
  6
solid
 62
     7
100
AcDbCircle
 10
1.579046549999686
 20
0.225957361945806
 30
0.0
 40
0.0041024829261005
100
AcDbArc
 50
38.78846671158399
 51
102.6261262796236
  0
ARC
  5
4EB
330
A
100
AcDbEntity
  8
1
  6
solid
 62
     7
100
AcDbCircle
 10
1.610559093884996
 20
0.2167160049026866
 30
0.0
 40
0.0306857358664274
100
AcDbArc
 50
157.32932307812
 51
183.2054503524837
  0
LINE
  5
4EC
330
A
100
AcDbEntity
  8
1
  6
solid
 62
     7
100
AcDbLine
 10
1.57992136478424
 20
0.2150000184774399
 30
0.0
 11
1.579803228378295
 21
0.1791338622570038
 31
0.0
  0
LINE
  5
4ED
330
A
100
AcDbEntity
  8
1
  6
solid
 62
     7
100
AcDbLine
 10
1.579803228378295
 20
0.1791338622570038
 30
0.0
 11
1.577834844589233
 21
0.168385848402977
 31
0.0
  0
LINE
  5
4EE
330
A
100
AcDbEntity
  8
1
  6
solid
 62
     7
100
AcDbLine
 10
1.577834844589233
 20
0.168385848402977
 30
0.0
 11
1.576338648796081
 21
0.1645669490098953
 31
0.0
  0
LINE
  5
4EF
330
A
100
AcDbEntity
  8
1
  6
solid
 62
     7
100
AcDbLine
 10
1.576338648796081
 20
0.1645669490098953
 30
0.0
 11
1.574370145797729
 21
0.1633071005344391
 31
0.0
  0
LINE
  5
4F0
330
A
100
AcDbEntity
  8
1
  6
solid
 62
     7
100
AcDbLine
 10
1.574370145797729
 20
0.1633071005344391
 30
0.0
 11
1.567716717720031
 21
0.1643700897693634
 31
0.0
  0
LINE
  5
4F1
330
A
100
AcDbEntity
  8
1
  6
solid
 62
     7
100
AcDbLine
 10
1.567716717720031
 20
0.1643700897693634
 30
0.0
 11
1.565472483634948
 21
0.1675590574741363
 31
0.0
  0
ARC
  5
4F2
330
A
100
AcDbEntity
  8
1
  6
solid
 62
     7
100
AcDbCircle
 10
1.570945673252921
 20
0.1711023704299543
 30
0.0
 40
0.0065200361423194
100
AcDbArc
 50
147.0812047945954
 51
212.9187983931281
  0
ARC
  5
4F3
330
A
100
AcDbEntity
  8
1
  6
solid
 62
     7
100
AcDbCircle
 10
1.404865171686439
 20
0.1948429005968191
 30
0.0
 40
0.1618722826242447
100
AcDbArc
 50
352.8323821821446
 51
365.9470565820165
  0
LINE
  5
4F4
330
A
100
AcDbEntity
  8
1
  6
solid
 62
     7
100
AcDbLine
 10
1.565866231918334
 20
0.211614191532135
 30
0.0
 11
1.56480324268341
 21
0.2154724448919296
 31
0.0
  0
ARC
  5
4F5
330
A
100
AcDbEntity
  8
1
  6
solid
 62
     7
100
AcDbCircle
 10
1.562473273691959
 20
0.2108281821499623
 30
0.0
 40
0.0051959534175694
100
AcDbArc
 50
63.35764753354951
 51
140.4871830755141
  0
ARC
  5
4F6
330
A
100
AcDbEntity
  8
1
  6
solid
 62
     7
100
AcDbCircle
 10
1.556521103610492
 20
0.2197066361200818
 30
0.0
 40
0.0059019522741437
100
AcDbArc
 50
193.7174632398756
 51
289.2266007062377
  0
LINE
  5
4F7
330
A
100
AcDbEntity
  8
1
  6
solid
 62
     7
100
AcDbLine
 10
1.550787568092346
 20
0.2183070927858353
 30
0.0
 11
1.552362203598022
 21
0.2203543335199356
 31
0.0
  0
ARC
  5
4F8
330
A
100
AcDbEntity
  8
1
  6
solid
 62
     7
100
AcDbCircle
 10
1.574114988322166
 20
0.1724124649142165
 30
0.0
 40
0.0526460483670235
100
AcDbArc
 50
100.754268541352
 51
114.4053407486334
  0
LINE
  5
4F9
330
A
100
AcDbEntity
  8
1
  6
solid
 62
     7
100
AcDbLine
 10
1.564291477203369
 20
0.2241338789463043
 30
0.0
 11
1.576535582542419
 21
0.2298425287008285
 31
0.0
  0
LINE
  5
4FA
330
A
100
AcDbEntity
  8
1
  6
solid
 62
     7
100
AcDbLine
 10
1.576535582542419
 20
0.2298425287008285
 30
0.0
 11
1.578149795532226
 21
0.229960635304451
 31
0.0
  0
LINE
  5
4FB
330
A
100
AcDbEntity
  8
1
  6
solid
 62
     7
100
AcDbLine
 10
1.624803185462951
 20
0.229960635304451
 30
0.0
 11
1.631023645401
 21
0.229960635304451
 31
0.0
  0
LINE
  5
4FC
330
A
100
AcDbEntity
  8
1
  6
solid
 62
     7
100
AcDbLine
 10
1.631023645401
 20
0.229960635304451
 30
0.0
 11
1.634527683258056
 21
0.2288976460695267
 31
0.0
  0
LINE
  5
4FD
330
A
100
AcDbEntity
  8
1
  6
solid
 62
     7
100
AcDbLine
 10
1.634527683258056
 20
0.2288976460695267
 30
0.0
 11
1.635196924209594
 21
0.2283070981502533
 31
0.0
  0
LINE
  5
4FE
330
A
100
AcDbEntity
  8
1
  6
solid
 62
     7
100
AcDbLine
 10
1.635196924209594
 20
0.2283070981502533
 30
0.0
 11
1.635039448738098
 21
0.2257086783647537
 31
0.0
  0
LINE
  5
4FF
330
A
100
AcDbEntity
  8
1
  6
solid
 62
     7
100
AcDbLine
 10
1.635039448738098
 20
0.2257086783647537
 30
0.0
 11
1.63437008857727
 21
0.2249606400728226
 31
0.0
  0
ARC
  5
500
330
A
100
AcDbEntity
  8
1
  6
solid
 62
     7
100
AcDbCircle
 10
1.617522193255903
 20
0.2600025980932796
 30
0.0
 40
0.0388817489147186
100
AcDbArc
 50
280.4978819092444
 51
295.6778783018549
  0
ARC
  5
501
330
A
100
AcDbEntity
  8
1
  6
solid
 62
     7
100
AcDbCircle
 10
1.633555257864475
 20
0.2053817084708759
 30
0.0
 40
0.0186738148331642
100
AcDbArc
 50
118.6341294298417
 51
180.44805858832
  0
LINE
  5
502
330
A
100
AcDbEntity
  8
1
  6
solid
 62
     7
100
AcDbLine
 10
1.614881992340087
 20
0.2052362412214279
 30
0.0
 11
1.616417407989501
 21
0.2039763927459717
 31
0.0
  0
ARC
  5
503
330
A
100
AcDbEntity
  8
1
  6
solid
 62
     7
100
AcDbCircle
 10
1.636082447075032
 20
0.3858821058947354
 30
0.0
 40
0.1829655766487121
100
AcDbArc
 50
263.8299629568926
 51
268.8595874763036
  0
ARC
  5
504
330
A
100
AcDbEntity
  8
1
  6
solid
 62
     7
100
AcDbCircle
 10
1.630395374467721
 20
0.1904030936462756
 30
0.0
 40
0.0127153135836125
100
AcDbArc
 50
359.5706611389621
 51
440.7418859902009
  0
ARC
  5
505
330
A
100
AcDbEntity
  8
1
  6
solid
 62
     7
100
AcDbCircle
 10
1.611422755449285
 20
0.1845832129266458
 30
0.0
 40
0.0322017371654511
100
AcDbArc
 50
342.6865462088119
 51
370.2530001612339
  0
ARC
  5
506
330
A
100
AcDbEntity
  8
1
  6
solid
 62
     7
100
AcDbCircle
 10
1.622269073013253
 20
0.1860528936664874
 30
0.0
 40
0.0227602925151587
100
AcDbArc
 50
267.9545707626908
 51
330.946816836023
  0
ARC
  5
507
330
A
100
AcDbEntity
  8
1
  6
solid
 62
     7
100
AcDbCircle
 10
1.621469210997847
 20
0.1821466177418804
 30
0.0
 40
0.0188395213335753
100
AcDbArc
 50
211.4291273049591
 51
269.9620794729734
  0
ARC
  5
508
330
A
100
AcDbEntity
  8
1
  6
solid
 62
     7
100
AcDbCircle
 10
1.625426785613068
 20
0.1883479431781438
 30
0.0
 40
0.0256539527326822
100
AcDbArc
 50
184.2274857089386
 51
218.6574960130162
  0
ARC
  5
509
330
A
100
AcDbEntity
  8
1
  6
solid
 62
     7
100
AcDbCircle
 10
1.650628185035681
 20
0.1937860197443727
 30
0.0
 40
0.0513117909431458
100
AcDbArc
 50
154.5612557282835
 51
188.2121600141161
  0
ARC
  5
50A
330
A
100
AcDbEntity
  8
1
  6
solid
 62
     7
100
AcDbCircle
 10
1.630354682209695
 20
0.1999532596284017
 30
0.0
 40
0.0305165816098452
100
AcDbArc
 50
100.4813478424967
 51
148.6569499266848
  0
LINE
  5
50B
330
A
100
AcDbEntity
  8
1
  6
solid
 62
     7
100
AcDbLine
 10
1.868110299110412
 20
0.229960635304451
 30
0.0
 11
1.88318920135498
 21
0.2294488251209259
 31
0.0
  0
LINE
  5
50C
330
A
100
AcDbEntity
  8
1
  6
solid
 62
     7
100
AcDbLine
 10
1.88318920135498
 20
0.2294488251209259
 30
0.0
 11
1.890708804130554
 21
0.226535439491272
 31
0.0
  0
LINE
  5
50D
330
A
100
AcDbEntity
  8
1
  6
solid
 62
     7
100
AcDbLine
 10
1.890708804130554
 20
0.226535439491272
 30
0.0
 11
1.892008066177368
 21
0.2255511879920959
 31
0.0
  0
ARC
  5
50E
330
A
100
AcDbEntity
  8
1
  6
solid
 62
     7
100
AcDbCircle
 10
1.876723294431947
 20
0.2131157075905299
 30
0.0
 40
0.0197044517844916
100
AcDbArc
 50
321.4157764351668
 51
399.1313285475403
  0
ARC
  5
50F
330
A
100
AcDbEntity
  8
1
  6
solid
 62
     7
100
AcDbCircle
 10
1.915441695365052
 20
0.1781003214987033
 30
0.0
 40
0.032559335231781
100
AcDbArc
 50
135.7330982056184
 51
156.9913619028932
  0
ARC
  5
510
330
A
100
AcDbEntity
  8
1
  6
solid
 62
     7
100
AcDbCircle
 10
1.86298354031507
 20
0.2067409642588965
 30
0.0
 40
0.0275502521544695
100
AcDbArc
 50
293.6058072284426
 51
324.7151161618434
  0
LINE
  5
511
330
A
100
AcDbEntity
  8
1
  6
solid
 62
     7
100
AcDbLine
 10
1.874015808105468
 20
0.1814960688352585
 30
0.0
 11
1.873700976371765
 21
0.1788976490497589
 31
0.0
  0
LINE
  5
512
330
A
100
AcDbEntity
  8
1
  6
solid
 62
     7
100
AcDbLine
 10
1.873700976371765
 20
0.1788976490497589
 30
0.0
 11
1.877204895019531
 21
0.1772441118955612
 31
0.0
  0
LINE
  5
513
330
A
100
AcDbEntity
  8
1
  6
solid
 62
     7
100
AcDbLine
 10
1.877204895019531
 20
0.1772441118955612
 30
0.0
 11
1.890590667724609
 21
0.1766535490751266
 31
0.0
  0
LINE
  5
514
330
A
100
AcDbEntity
  8
1
  6
solid
 62
     7
100
AcDbLine
 10
1.890590667724609
 20
0.1766535490751266
 30
0.0
 11
1.893937110900878
 21
0.1753149628639221
 31
0.0
  0
LINE
  5
515
330
A
100
AcDbEntity
  8
1
  6
solid
 62
     7
100
AcDbLine
 10
1.893937110900878
 20
0.1753149628639221
 30
0.0
 11
1.894763946533203
 21
0.1745669394731522
 31
0.0
  0
ARC
  5
516
330
A
100
AcDbEntity
  8
1
  6
solid
 62
     7
100
AcDbCircle
 10
1.88889261690192
 20
0.1698118589411015
 30
0.0
 40
0.0075553492642939
100
AcDbArc
 50
316.0364048222294
 51
399.0033683685346
  0
ARC
  5
517
330
A
100
AcDbEntity
  8
1
  6
solid
 62
     7
100
AcDbCircle
 10
1.886332642754366
 20
0.1877153666232792
 30
0.0
 40
0.02449119836092
100
AcDbArc
 50
250.3833046510914
 51
289.0607363924331
  0
ARC
  5
518
330
A
100
AcDbEntity
  8
1
  6
solid
 62
     7
100
AcDbCircle
 10
1.871432435140398
 20
0.180583108469707
 30
0.0
 40
0.0172799658030272
100
AcDbArc
 50
247.2997474483975
 51
292.7342580148761
  0
ARC
  5
519
330
A
100
AcDbEntity
  8
1
  6
solid
 62
     7
100
AcDbCircle
 10
1.859608005729986
 20
0.1727313459866905
 30
0.0
 40
0.0095896255224943
100
AcDbArc
 50
236.6121986993363
 51
302.5237222654453
  0
ARC
  5
51A
330
A
100
AcDbEntity
  8
1
  6
solid
 62
     7
100
AcDbCircle
 10
1.860824174318216
 20
0.1671006158821329
 30
0.0
 40
0.0069145173765719
100
AcDbArc
 50
121.5644786592631
 51
200.0996944531731
  0
ARC
  5
51B
330
A
100
AcDbEntity
  8
1
  6
solid
 62
     7
100
AcDbCircle
 10
1.818806864814807
 20
0.2231358707124766
 30
0.0
 40
0.0631569176912308
100
AcDbArc
 50
307.4433436000654
 51
342.1903293231448
  0
ARC
  5
51C
330
A
100
AcDbEntity
  8
1
  6
solid
 62
     7
100
AcDbCircle
 10
1.837489987363091
 20
0.2121536435505203
 30
0.0
 40
0.0422768630087376
100
AcDbArc
 50
348.6298487481058
 51
369.6116963972174
  0
ARC
  5
51D
330
A
100
AcDbEntity
  8
1
  6
solid
 62
     7
100
AcDbCircle
 10
1.874144906396166
 20
0.2182350491862704
 30
0.0
 40
0.0051226336508989
100
AcDbArc
 50
11.00145485180488
 51
100.7532073007097
  0
ARC
  5
51E
330
A
100
AcDbEntity
  8
1
  6
solid
 62
     7
100
AcDbCircle
 10
1.873398900697453
 20
0.2119394717886851
 30
0.0
 40
0.0113302050158382
100
AcDbArc
 50
91.06104507128296
 51
183.2278431276776
  0
LINE
  5
51F
330
A
100
AcDbEntity
  8
1
  6
solid
 62
     7
100
AcDbLine
 10
1.862086653709411
 20
0.2112992256879806
 30
0.0
 11
1.861535549163818
 21
0.2109842598438263
 31
0.0
  0
ARC
  5
520
330
A
100
AcDbEntity
  8
1
  6
solid
 62
     7
100
AcDbCircle
 10
1.864242333990485
 20
0.2206275027288093
 30
0.0
 40
0.0100159281864762
100
AcDbArc
 50
194.0907467383952
 51
254.3209735944009
  0
ARC
  5
521
330
A
100
AcDbEntity
  8
1
  6
solid
 62
     7
100
AcDbCircle
 10
1.864137144291305
 20
0.2185726488999548
 30
0.0
 40
0.0096170883625746
100
AcDbArc
 50
112.1448964730068
 51
182.2863561921047
  0
ARC
  5
522
330
A
100
AcDbEntity
  8
1
  6
solid
 62
     7
100
AcDbCircle
 10
1.86827898078568
 20
0.2165652706323838
 30
0.0
 40
0.0133964316919446
100
AcDbArc
 50
90.72136268838532
 51
125.4349624468018
  0
ARC
  5
523
330
A
100
AcDbEntity
  8
1
  6
solid
 62
     7
100
AcDbCircle
 10
1.587043747511342
 20
0.1892888190273732
 30
0.0
 40
0.0294597037136555
100
AcDbArc
 50
343.9455959596553
 51
363.2225788730603
  0
LINE
  5
524
330
A
100
AcDbEntity
  8
1
  6
solid
 62
     7
100
AcDbLine
 10
1.615354418754577
 20
0.1811417490243912
 30
0.0
 11
1.617047309875488
 21
0.1724015921354294
 31
0.0
  0
LINE
  5
525
330
A
100
AcDbEntity
  8
1
  6
solid
 62
     7
100
AcDbLine
 10
1.617047309875488
 20
0.1724015921354294
 30
0.0
 11
1.618897795677185
 21
0.1705511957406998
 31
0.0
  0
ARC
  5
526
330
A
100
AcDbEntity
  8
1
  6
solid
 62
     7
100
AcDbCircle
 10
1.621132996893564
 20
0.1782536747601664
 30
0.0
 40
0.0080202436074615
100
AcDbArc
 50
253.817670614841
 51
353.0672382367555
  0
ARC
  5
527
330
A
100
AcDbEntity
  8
1
  6
solid
 62
     7
100
AcDbCircle
 10
1.600337342338668
 20
0.1837204861417608
 30
0.0
 40
0.0294688809663057
100
AcDbArc
 50
347.3829294132283
 51
372.6170581791985
  0
ARC
  5
528
330
A
100
AcDbEntity
  8
1
  6
solid
 62
     7
100
AcDbCircle
 10
1.621598269890567
 20
0.1887517727814028
 30
0.0
 40
0.0076269949786365
100
AcDbArc
 50
10.62089634804563
 51
114.9088486338684
  0
LINE
  5
529
330
A
100
AcDbEntity
  8
1
  6
solid
 62
     7
100
AcDbLine
 10
1.618385910987854
 20
0.1956693083047867
 30
0.0
 11
1.616456866264343
 21
0.1909448951482773
 31
0.0
  0
LINE
  5
52A
330
A
100
AcDbEntity
  8
1
  6
solid
 62
     7
100
AcDbLine
 10
1.472165465354919
 20
0.1166535466909409
 30
0.0
 11
1.474448800086975
 21
0.1183070912957191
 31
0.0
  0
LINE
  5
52B
330
A
100
AcDbEntity
  8
1
  6
solid
 62
     7
100
AcDbLine
 10
1.474448800086975
 20
0.1183070912957191
 30
0.0
 11
1.473700881004333
 21
0.119724415242672
 31
0.0
  0
LINE
  5
52C
330
A
100
AcDbEntity
  8
1
  6
solid
 62
     7
100
AcDbLine
 10
1.473700881004333
 20
0.119724415242672
 30
0.0
 11
1.472165465354919
 21
0.1200000047683716
 31
0.0
  0
LINE
  5
52D
330
A
100
AcDbEntity
  8
1
  6
solid
 62
     7
100
AcDbLine
 10
1.472165465354919
 20
0.1200000047683716
 30
0.0
 11
1.472165465354919
 21
0.1166535466909409
 31
0.0
  0
ARC
  5
52F
330
A
100
AcDbEntity
  8
0
  6
solid
 62
     7
100
AcDbCircle
 10
0.6659081679588157
 20
0.5813610767761554
 30
0.0
 40
0.0518472005358764
100
AcDbArc
 50
276.0559398457039
 51
442.1030283533874
  0
LINE
  5
530
330
A
100
AcDbEntity
  8
0
  6
solid
 62
     7
100
AcDbLine
 10
0.6730315089225769
 20
0.6327165961265564
 30
0.0
 11
0.1799606382846832
 21
0.6282677650451661
 31
0.0
  0
LINE
  5
531
330
A
100
AcDbEntity
  8
0
  6
solid
 62
     7
100
AcDbLine
 10
0.1856693029403686
 20
0.6332677602767945
 30
0.0
 11
0.1826378107070923
 21
0.3277952969074249
 31
0.0
  0
LINE
  5
532
330
A
100
AcDbEntity
  8
0
  6
solid
 62
     7
100
AcDbLine
 10
0.1826378107070923
 20
0.3277952969074249
 30
0.0
 11
0.5299213528633118
 21
0.3066142201423645
 31
0.0
  0
LINE
  5
533
330
A
100
AcDbEntity
  8
0
  6
solid
 62
     7
100
AcDbLine
 10
0.5299213528633118
 20
0.3066142201423645
 30
0.0
 11
0.5288583040237427
 21
0.1268503963947296
 31
0.0
  0
LINE
  5
534
330
A
100
AcDbEntity
  8
0
  6
solid
 62
     7
100
AcDbLine
 10
0.5288583040237427
 20
0.1268503963947296
 30
0.0
 11
0.6134252548217774
 21
0.1255511939525604
 31
0.0
  0
LINE
  5
535
330
A
100
AcDbEntity
  8
0
  6
solid
 62
     7
100
AcDbLine
 10
0.6134252548217774
 20
0.1255511939525604
 30
0.0
 11
0.6665748953819275
 21
0.5240945219993592
 31
0.0
  0
ARC
  5
536
330
A
100
AcDbEntity
  8
0
  6
solid
 62
     7
100
AcDbCircle
 10
-0.9073404970822133
 20
0.6039639574409139
 30
0.0
 40
0.0518472005358764
100
AcDbArc
 50
6.055939845703869
 51
172.1030283533874
  0
LINE
  5
537
330
A
100
AcDbEntity
  8
0
  6
solid
 62
     7
100
AcDbLine
 10
-0.9586960164326143
 20
0.6110872984046752
 30
0.0
 11
-0.9542471853512244
 21
0.1180164277667814
 31
0.0
  0
LINE
  5
538
330
A
100
AcDbEntity
  8
0
  6
solid
 62
     7
100
AcDbLine
 10
-0.9592471805828528
 20
0.1237250924224669
 30
0.0
 11
-0.6537747172134834
 21
0.1206936001891901
 31
0.0
  0
LINE
  5
539
330
A
100
AcDbEntity
  8
0
  6
solid
 62
     7
100
AcDbLine
 10
-0.6537747172134834
 20
0.1206936001891901
 30
0.0
 11
-0.6325936404484225
 21
0.4679771423454096
 31
0.0
  0
LINE
  5
53A
330
A
100
AcDbEntity
  8
0
  6
solid
 62
     7
100
AcDbLine
 10
-0.6325936404484225
 20
0.4679771423454096
 30
0.0
 11
-0.4528298167007878
 21
0.4669140935058403
 31
0.0
  0
LINE
  5
53B
330
A
100
AcDbEntity
  8
0
  6
solid
 62
     7
100
AcDbLine
 10
-0.4528298167007878
 20
0.4669140935058403
 30
0.0
 11
-0.4515306142586184
 21
0.551481044303875
 31
0.0
  0
LINE
  5
53C
330
A
100
AcDbEntity
  8
0
  6
solid
 62
     7
100
AcDbLine
 10
-0.4515306142586184
 20
0.551481044303875
 30
0.0
 11
-0.850073942305417
 21
0.6046306848640255
 31
0.0
  0
LINE
  5
5B0
330
A
100
AcDbEntity
  8
0
  6
solid
 62
     7
370
     0
100
AcDbLine
 10
-1.084247171878814
 20
0.1237250939011575
 30
0.0
 11
-1.32021799498082
 21
0.1237250939011576
 31
0.0
  0
LINE
  5
5B1
330
A
100
AcDbEntity
  8
0
  6
solid
 62
     7
370
     0
100
AcDbLine
 10
-1.031507551670074
 20
0.6558044552803041
 30
0.0
 11
-1.32021799498082
 21
0.6558044552803042
 31
0.0
  0
LINE
  5
5B2
330
A
100
AcDbEntity
  8
0
  6
solid
 62
     7
370
     0
100
AcDbLine
 10
-1.25771799498082
 20
0.1237250939011576
 30
0.0
 11
-1.25771799498082
 21
0.2598585245907308
 31
0.0
  0
LINE
  5
5B3
330
A
100
AcDbEntity
  8
0
  6
solid
 62
     7
370
     0
100
AcDbLine
 10
-1.25771799498082
 20
0.6558044552803042
 30
0.0
 11
-1.25771799498082
 21
0.519671024590731
 31
0.0
  0
MTEXT
  5
5B4
330
A
100
AcDbEntity
  8
0
  6
solid
 62
     7
370
     0
100
AcDbMText
 10
-1.25771799498082
 20
0.3897647745907309
 30
0.0
 40
0.1
 41
0.0
 71
     5
 72
     1
  1
9/16
 73
     1
 44
1.0
  0
SOLID
  5
5B5
330
A
100
AcDbEntity
  8
0
  6
solid
 62
     7
370
     0
100
AcDbTrace
 10
-1.27853299498082
 20
0.2487250939011576
 30
0.0
 11
-1.23690299498082
 21
0.2487250939011576
 31
0.0
 12
-1.25771799498082
 22
0.1237250939011576
 32
0.0
 13
-1.25771799498082
 23
0.1237250939011576
 33
0.0
  0
SOLID
  5
5B6
330
A
100
AcDbEntity
  8
0
  6
solid
 62
     7
370
     0
100
AcDbTrace
 10
-1.23690299498082
 20
0.5308044552803042
 30
0.0
 11
-1.27853299498082
 21
0.5308044552803042
 31
0.0
 12
-1.25771799498082
 22
0.6558044552803042
 32
0.0
 13
-1.25771799498082
 23
0.6558044552803042
 33
0.0
  0
LINE
  5
5B9
330
A
100
AcDbEntity
  8
0
  6
solid
 62
     7
370
     0
100
AcDbLine
 10
-0.9542471766471862
 20
-0.006983570754528
 30
0.0
 11
-0.9542471766471862
 21
-0.2614419884822209
 31
0.0
  0
LINE
  5
5BA
330
A
100
AcDbEntity
  8
0
  6
solid
 62
     7
370
     0
100
AcDbLine
 10
-0.4528298079967499
 20
0.3419140875339508
 30
0.0
 11
-0.4528298079967499
 21
-0.2614419884822209
 31
0.0
  0
LINE
  5
5BB
330
A
100
AcDbEntity
  8
0
  6
solid
 62
     7
370
     0
100
AcDbLine
 10
-0.9542471766471862
 20
-0.1989419884822209
 30
0.0
 11
-0.9238096461681218
 21
-0.1989419884822209
 31
0.0
  0
LINE
  5
5BC
330
A
100
AcDbEntity
  8
0
  6
solid
 62
     7
370
     0
100
AcDbLine
 10
-0.4528298079967499
 20
-0.1989419884822209
 30
0.0
 11
-0.4832673384758143
 21
-0.1989419884822209
 31
0.0
  0
MTEXT
  5
5BD
330
A
100
AcDbEntity
  8
0
  6
solid
 62
     7
370
     0
100
AcDbMText
 10
-0.7035384923219681
 20
-0.1989419884822209
 30
0.0
 40
0.1
 41
0.0
 71
     5
 72
     1
  1
1/2
 73
     1
 44
1.0
  0
SOLID
  5
5BE
330
A
100
AcDbEntity
  8
0
  6
solid
 62
     7
370
     0
100
AcDbTrace
 10
-0.8292471766471862
 20
-0.178126988482221
 30
0.0
 11
-0.8292471766471862
 21
-0.219756988482221
 31
0.0
 12
-0.9542471766471862
 22
-0.1989419884822209
 32
0.0
 13
-0.9542471766471862
 23
-0.1989419884822209
 33
0.0
  0
SOLID
  5
5BF
330
A
100
AcDbEntity
  8
0
  6
solid
 62
     7
370
     0
100
AcDbTrace
 10
-0.5778298079967499
 20
-0.2197569884822207
 30
0.0
 11
-0.5778298079967499
 21
-0.1781269884822207
 31
0.0
 12
-0.4528298079967499
 22
-0.1989419884822209
 32
0.0
 13
-0.4528298079967499
 23
-0.1989419884822209
 33
0.0
  0
VIEWPORT
  5
570
330
B
100
AcDbEntity
 67
     1
  8
0
  6
Continuous
370
     0
100
AcDbViewport
 10
5.169387968333035
 20
3.968749971919159
 30
0.0
 40
16.99659283974028
 41
8.992999745766949
 68
     1
 69
     1
 12
5.169387968333035
 22
3.968749971919159
 13
0.0
 23
0.0
 14
0.5
 24
0.5
 15
0.5
 25
0.5
 16
0.0
 26
0.0
 36
1.0
 17
0.0
 27
0.0
 37
0.0
 42
50.0
 43
0.0
 44
0.0
 45
8.992999745766949
 50
0.0
 51
0.0
 72
   100
 90
   819232
  1

281
     0
 71
     1
 74
     0
110
0.0
120
0.0
130
0.0
111
1.0
121
0.0
131
0.0
112
0.0
122
1.0
132
0.0
 79
     0
146
0.0
170
     0
  0
VIEWPORT
  5
573
330
B
100
AcDbEntity
 67
     1
  8
0
  6
Continuous
370
     0
100
AcDbViewport
 10
5.134088679403085
 20
3.968749964187422
 30
0.0
 40
10.55447823563295
 41
8.023166439919354
 68
     2
 69
     2
 12
0.5435111832479267
 22
0.0402166332764884
 13
0.0
 23
0.0
 14
0.5
 24
0.5
 15
0.5
 25
0.5
 16
0.0
 26
0.0
 36
1.0
 17
0.0
 27
0.0
 37
0.0
 42
50.0
 43
0.0
 44
0.0
 45
4.463773641109159
 50
0.0
 51
0.0
 72
   100
 90
   819232
  1

281
     0
 71
     1
 74
     0
110
0.0
120
0.0
130
0.0
111
1.0
121
0.0
131
0.0
112
0.0
122
1.0
132
0.0
 79
     0
146
0.0
170
     0
  0
ENDSEC
  0
SECTION
  2
OBJECTS
  0
DICTIONARY
  5
19
330
0
100
AcDbDictionary
281
     1
  3
ACAD_COLOR
350
569
  3
ACAD_GROUP
350
1A
  3
ACAD_LAYOUT
350
1E
  3
ACAD_MATERIAL
350
554
  3
ACAD_MLEADERSTYLE
350
599
  3
ACAD_MLINESTYLE
350
1B
  3
ACAD_PLOTSETTINGS
350
22
  3
ACAD_PLOTSTYLENAME
350
1F
  3
ACAD_SCALELIST
350
577
  3
ACAD_TABLESTYLE
350
56A
  3
ACAD_VISUALSTYLE
350
558
  3
ACAD_WIPEOUT_VARS
350
23
  3
ACDB_RECOMPOSE_DATA
350
5D8
  3
AcDbVariableDictionary
350
574
  0
DICTIONARY
  5
5A2
330
14
100
AcDbDictionary
280
     1
281
     1
  3
ADSK_XREC_LAYER_RECONCILED
360
5A3
  0
DICTIONARY
  5
5A4
330
27
100
AcDbDictionary
280
     1
281
     1
  3
ADSK_XREC_LAYER_RECONCILED
360
5A5
  0
DICTIONARY
  5
5A6
330
52E
100
AcDbDictionary
280
     1
281
     1
  3
ADSK_XREC_LAYER_RECONCILED
360
5A7
  0
DICTIONARY
  5
5B7
330
A
100
AcDbDictionary
280
     1
281
     1
  3
ACAD_SORTENTS
360
5B8
  0
DICTIONARY
  5
569
102
{ACAD_REACTORS
330
19
102
}
330
19
100
AcDbDictionary
281
     1
  0
DICTIONARY
  5
1A
102
{ACAD_REACTORS
330
19
102
}
330
19
100
AcDbDictionary
281
     1
  0
DICTIONARY
  5
1E
102
{ACAD_REACTORS
330
19
102
}
330
19
100
AcDbDictionary
281
     1
  3
Layout1
350
21
  3
Model
350
20
  0
DICTIONARY
  5
554
102
{ACAD_REACTORS
330
19
102
}
330
19
100
AcDbDictionary
281
     1
  3
ByBlock
350
556
  3
ByLayer
350
555
  3
Global
350
557
  0
DICTIONARY
  5
599
102
{ACAD_REACTORS
330
19
102
}
330
19
100
AcDbDictionary
281
     1
  3
Standard
350
59A
  0
DICTIONARY
  5
1B
102
{ACAD_REACTORS
330
19
102
}
330
19
100
AcDbDictionary
281
     1
  3
Standard
350
1C
  0
DICTIONARY
  5
22
102
{ACAD_REACTORS
330
19
102
}
330
19
100
AcDbDictionary
281
     1
  0
ACDBDICTIONARYWDFLT
  5
1F
102
{ACAD_REACTORS
330
19
102
}
330
19
100
AcDbDictionary
281
     1
  3
Normal
350
1D
100
AcDbDictionaryWithDefault
340
1D
  0
DICTIONARY
  5
577
102
{ACAD_REACTORS
330
19
102
}
330
19
100
AcDbDictionary
281
     1
  3
A0
350
578
  3
A1
350
579
  3
A2
350
57A
  3
A3
350
57B
  3
A4
350
57C
  3
A5
350
57D
  3
A6
350
57E
  3
A7
350
57F
  3
A8
350
580
  3
A9
350
581
  3
B0
350
582
  3
B1
350
583
  3
B2
350
584
  3
B3
350
585
  3
B4
350
586
  3
B5
350
587
  3
B6
350
588
  3
B7
350
589
  3
B8
350
58A
  3
B9
350
58B
  3
C0
350
58C
  3
C1
350
58D
  3
C2
350
58E
  3
C3
350
58F
  3
C4
350
590
  3
C5
350
591
  3
C6
350
592
  3
C7
350
593
  3
C8
350
594
  3
C9
350
595
  3
D0
350
596
  3
D1
350
597
  3
D2
350
598
  0
DICTIONARY
  5
56A
102
{ACAD_REACTORS
330
19
102
}
330
19
100
AcDbDictionary
281
     1
  3
Standard
350
56B
  0
DICTIONARY
  5
558
102
{ACAD_REACTORS
330
19
102
}
330
19
100
AcDbDictionary
281
     1
  3
2dWireframe
350
55E
  3
3D Hidden
350
560
  3
3dWireframe
350
55F
  3
Basic
350
55D
  3
Brighten
350
564
  3
ColorChange
350
568
  3
Conceptual
350
561
  3
Dim
350
563
  3
Facepattern
350
567
  3
Flat
350
559
  3
FlatWithEdges
350
55A
  3
Gouraud
350
55B
  3
GouraudWithEdges
350
55C
  3
Linepattern
350
566
  3
Realistic
350
562
  3
Thicken
350
565
  0
WIPEOUTVARIABLES
  5
23
330
19
100
AcDbWipeoutVariables
 70
     1
  0
XRECORD
  5
5D8
102
{ACAD_REACTORS
330
19
102
}
330
19
100
AcDbXrecord
280
     1
 90
        1
330
56B
  0
DICTIONARY
  5
574
102
{ACAD_REACTORS
330
19
102
}
330
19
100
AcDbDictionary
281
     1
  3
CANNOSCALE
350
5D5
  3
CMLEADERSTYLE
350
5D4
  3
CTABLESTYLE
350
575
  0
XRECORD
  5
5A3
102
{ACAD_REACTORS
330
5A2
102
}
330
5A2
100
AcDbXrecord
280
     1
290
     1
  0
XRECORD
  5
5A5
102
{ACAD_REACTORS
330
5A4
102
}
330
5A4
100
AcDbXrecord
280
     1
290
     1
  0
XRECORD
  5
5A7
102
{ACAD_REACTORS
330
5A6
102
}
330
5A6
100
AcDbXrecord
280
     1
290
     1
  0
SORTENTSTABLE
  5
5B8
102
{ACAD_REACTORS
330
5B7
102
}
330
5B7
100
AcDbSortentsTable
330
A
331
3A8
  5
3A8
331
2B9
  5
2B9
331
200
  5
200
331
511
  5
511
331
3C2
  5
3C2
331
2D3
  5
2D3
331
222
  5
222
331
52B
  5
52B
331
3E4
  5
3E4
331
43C
  5
43C
331
2F5
  5
2F5
331
244
  5
244
331
45E
  5
45E
331
406
  5
406
331
317
  5
317
331
16F
  5
16F
331
155
  5
155
331
133
  5
133
331
111
  5
111
331
428
  5
428
331
480
  5
480
331
339
  5
339
331
191
  5
191
331
80
  5
80
331
4A2
  5
4A2
331
353
  5
353
331
1B3
  5
1B3
331
A2
  5
A2
331
264
  5
264
331
4BC
  5
4BC
331
375
  5
375
331
286
  5
286
331
1D5
  5
1D5
331
4DE
  5
4DE
331
397
  5
397
331
2A8
  5
2A8
331
1EF
  5
1EF
331
500
  5
500
331
3B9
  5
3B9
331
2CA
  5
2CA
331
211
  5
211
331
522
  5
522
331
3D3
  5
3D3
331
2E4
  5
2E4
331
233
  5
233
331
53C
  5
53C
331
3F5
  5
3F5
331
44D
  5
44D
331
306
  5
306
331
255
  5
255
331
46F
  5
46F
331
417
  5
417
331
328
  5
328
331
180
  5
180
331
166
  5
166
331
144
  5
144
331
122
  5
122
331
100
  5
100
331
E6
  5
E6
331
C4
  5
C4
331
6C
  5
6C
331
4A
  5
4A
331
491
  5
491
331
1A2
  5
1A2
331
91
  5
91
331
364
  5
364
331
5BC
  5
5BC
331
275
  5
275
331
1C4
  5
1C4
331
4CD
  5
4CD
331
386
  5
386
331
4EF
  5
4EF
331
297
  5
297
331
D5
  5
D5
331
B3
  5
B3
331
5B
  5
5B
331
39
  5
39
331
28
  5
28
331
3C0
  5
3C0
331
2D1
  5
2D1
331
220
  5
220
331
529
  5
529
331
3E2
  5
3E2
331
43A
  5
43A
331
2F3
  5
2F3
331
242
  5
242
331
45C
  5
45C
331
404
  5
404
331
315
  5
315
331
426
  5
426
331
16D
  5
16D
331
153
  5
153
331
131
  5
131
331
47E
  5
47E
331
337
  5
337
331
18F
  5
18F
331
7E
  5
7E
331
4A0
  5
4A0
331
351
  5
351
331
1B1
  5
1B1
331
A0
  5
A0
331
262
  5
262
331
4BA
  5
4BA
331
373
  5
373
331
284
  5
284
331
1D3
  5
1D3
331
4DC
  5
4DC
331
395
  5
395
331
2A6
  5
2A6
331
1ED
  5
1ED
331
4FE
  5
4FE
331
3B7
  5
3B7
331
2C8
  5
2C8
331
20F
  5
20F
331
520
  5
520
331
3D1
  5
3D1
331
2E2
  5
2E2
331
231
  5
231
331
53A
  5
53A
331
3F3
  5
3F3
331
44B
  5
44B
331
304
  5
304
331
253
  5
253
331
46D
  5
46D
331
415
  5
415
331
326
  5
326
331
17E
  5
17E
331
164
  5
164
331
142
  5
142
331
120
  5
120
331
FE
  5
FE
331
E4
  5
E4
331
C2
  5
C2
331
6A
  5
6A
331
48
  5
48
331
437
  5
437
331
48F
  5
48F
331
1A0
  5
1A0
331
8F
  5
8F
331
362
  5
362
331
5BA
  5
5BA
331
273
  5
273
331
1C2
  5
1C2
331
4CB
  5
4CB
331
384
  5
384
331
4ED
  5
4ED
331
3A6
  5
3A6
331
295
  5
295
331
2B7
  5
2B7
331
1FE
  5
1FE
331
50F
  5
50F
331
10F
  5
10F
331
D3
  5
D3
331
B1
  5
B1
331
59
  5
59
331
37
  5
37
331
3E0
  5
3E0
331
438
  5
438
331
2F1
  5
2F1
331
240
  5
240
331
45A
  5
45A
331
402
  5
402
331
313
  5
313
331
424
  5
424
331
16B
  5
16B
331
151
  5
151
331
47C
  5
47C
331
335
  5
335
331
18D
  5
18D
331
7C
  5
7C
331
49E
  5
49E
331
34F
  5
34F
331
1AF
  5
1AF
331
9E
  5
9E
331
260
  5
260
331
4B8
  5
4B8
331
371
  5
371
331
282
  5
282
331
1D1
  5
1D1
331
4DA
  5
4DA
331
393
  5
393
331
2A4
  5
2A4
331
1EB
  5
1EB
331
4FC
  5
4FC
331
3B5
  5
3B5
331
2C6
  5
2C6
331
20D
  5
20D
331
51E
  5
51E
331
3CF
  5
3CF
331
2E0
  5
2E0
331
22F
  5
22F
331
538
  5
538
331
3F1
  5
3F1
331
449
  5
449
331
302
  5
302
331
251
  5
251
331
46B
  5
46B
331
413
  5
413
331
324
  5
324
331
17C
  5
17C
331
162
  5
162
331
140
  5
140
331
11E
  5
11E
331
FC
  5
FC
331
E2
  5
E2
331
C0
  5
C0
331
68
  5
68
331
46
  5
46
331
435
  5
435
331
48D
  5
48D
331
346
  5
346
331
19E
  5
19E
331
8D
  5
8D
331
4AF
  5
4AF
331
360
  5
360
331
271
  5
271
331
1C0
  5
1C0
331
4C9
  5
4C9
331
382
  5
382
331
4EB
  5
4EB
331
3A4
  5
3A4
331
293
  5
293
331
2B5
  5
2B5
331
1FC
  5
1FC
331
50D
  5
50D
331
21E
  5
21E
331
12F
  5
12F
331
10D
  5
10D
331
D1
  5
D1
331
AF
  5
AF
331
57
  5
57
331
35
  5
35
331
458
  5
458
331
400
  5
400
331
311
  5
311
331
422
  5
422
331
169
  5
169
331
47A
  5
47A
331
333
  5
333
331
18B
  5
18B
331
7A
  5
7A
331
49C
  5
49C
331
34D
  5
34D
331
1AD
  5
1AD
331
9C
  5
9C
331
25E
  5
25E
331
4B6
  5
4B6
331
36F
  5
36F
331
280
  5
280
331
1CF
  5
1CF
331
4D8
  5
4D8
331
391
  5
391
331
2A2
  5
2A2
331
1E9
  5
1E9
331
4FA
  5
4FA
331
3B3
  5
3B3
331
2C4
  5
2C4
331
20B
  5
20B
331
51C
  5
51C
331
3CD
  5
3CD
331
2DE
  5
2DE
331
22D
  5
22D
331
536
  5
536
331
3EF
  5
3EF
331
447
  5
447
331
300
  5
300
331
24F
  5
24F
331
469
  5
469
331
411
  5
411
331
322
  5
322
331
17A
  5
17A
331
160
  5
160
331
13E
  5
13E
331
11C
  5
11C
331
FA
  5
FA
331
E0
  5
E0
331
BE
  5
BE
331
66
  5
66
331
44
  5
44
331
433
  5
433
331
48B
  5
48B
331
344
  5
344
331
19C
  5
19C
331
8B
  5
8B
331
4AD
  5
4AD
331
35E
  5
35E
331
5B6
  5
5B5
331
1BE
  5
1BE
331
AD
  5
AD
331
26F
  5
26F
331
4C7
  5
4C7
331
380
  5
380
331
4E9
  5
4E9
331
3A2
  5
3A2
331
291
  5
291
331
2B3
  5
2B3
331
1FA
  5
1FA
331
50B
  5
50B
331
21C
  5
21C
331
3DE
  5
3DE
331
2EF
  5
2EF
331
23E
  5
23E
331
14F
  5
14F
331
12D
  5
12D
331
10B
  5
10B
331
CF
  5
CF
331
77
  5
77
331
55
  5
55
331
33
  5
33
331
420
  5
420
331
478
  5
478
331
331
  5
331
331
189
  5
189
331
78
  5
78
331
49A
  5
49A
331
34B
  5
34B
331
1AB
  5
1AB
331
9A
  5
9A
331
25C
  5
25C
331
4B4
  5
4B4
331
36D
  5
36D
331
27E
  5
27E
331
1CD
  5
1CD
331
4D6
  5
4D6
331
38F
  5
38F
331
2A0
  5
2A0
331
1E7
  5
1E7
331
4F8
  5
4F8
331
3B1
  5
3B1
331
2C2
  5
2C2
331
209
  5
209
331
51A
  5
51A
331
3CB
  5
3CB
331
2DC
  5
2DC
331
22B
  5
22B
331
534
  5
534
331
3ED
  5
3ED
331
445
  5
445
331
2FE
  5
2FE
331
24D
  5
24D
331
467
  5
467
331
40F
  5
40F
331
320
  5
320
331
178
  5
178
331
15E
  5
15E
331
13C
  5
13C
331
11A
  5
11A
331
F8
  5
F8
331
DE
  5
DE
331
BC
  5
BC
331
64
  5
64
331
42
  5
42
331
431
  5
431
331
489
  5
489
331
342
  5
342
331
19A
  5
19A
331
89
  5
89
331
4AB
  5
4AB
331
35C
  5
35C
331
5B4
  5
5B3
331
1BC
  5
1BC
331
AB
  5
AB
331
26D
  5
26D
331
4C5
  5
4C5
331
37E
  5
37E
331
28F
  5
28F
331
1DE
  5
1DE
331
4E7
  5
4E7
331
3A0
  5
3A0
331
2B1
  5
2B1
331
1F8
  5
1F8
331
509
  5
509
331
21A
  5
21A
331
3DC
  5
3DC
331
2ED
  5
2ED
331
23C
  5
23C
331
456
  5
456
331
3FE
  5
3FE
331
30F
  5
30F
331
14D
  5
14D
331
12B
  5
12B
331
109
  5
109
331
EF
  5
EF
331
CD
  5
CD
331
75
  5
75
331
53
  5
53
331
31
  5
31
331
498
  5
498
331
349
  5
349
331
1A9
  5
1A9
331
98
  5
98
331
25A
  5
25A
331
4B2
  5
4B2
331
36B
  5
36B
331
27C
  5
27C
331
1CB
  5
1CB
331
4D4
  5
4D4
331
38D
  5
38D
331
29E
  5
29E
331
1E5
  5
1E5
331
4F6
  5
4F6
331
3AF
  5
3AF
331
2C0
  5
2C0
331
207
  5
207
331
518
  5
518
331
3C9
  5
3C9
331
2DA
  5
2DA
331
229
  5
229
331
532
  5
532
331
3EB
  5
3EB
331
443
  5
443
331
2FC
  5
2FC
331
24B
  5
24B
331
465
  5
465
331
40D
  5
40D
331
31E
  5
31E
331
176
  5
176
331
15C
  5
15C
331
13A
  5
13A
331
118
  5
118
331
F6
  5
F6
331
DC
  5
DC
331
BA
  5
BA
331
62
  5
62
331
40
  5
40
331
42F
  5
42F
331
487
  5
487
331
340
  5
340
331
198
  5
198
331
87
  5
87
331
4A9
  5
4A9
331
35A
  5
35A
331
5B2
  5
5B1
331
1BA
  5
1BA
331
A9
  5
A9
331
26B
  5
26B
331
4C3
  5
4C3
331
37C
  5
37C
331
28D
  5
28D
331
1DC
  5
1DC
331
4E5
  5
4E5
331
39E
  5
39E
331
2AF
  5
2AF
331
1F6
  5
1F6
331
507
  5
507
331
218
  5
218
331
3DA
  5
3DA
331
2EB
  5
2EB
331
23A
  5
23A
331
454
  5
454
331
3FC
  5
3FC
331
476
  5
476
331
41E
  5
41E
331
32F
  5
32F
331
30D
  5
30D
331
187
  5
187
331
14B
  5
14B
331
129
  5
129
331
107
  5
107
331
ED
  5
ED
331
CB
  5
CB
331
73
  5
73
331
51
  5
51
331
2F
  5
2F
331
258
  5
258
331
4B0
  5
4B0
331
369
  5
369
331
27A
  5
27A
331
1C9
  5
1C9
331
4D2
  5
4D2
331
38B
  5
38B
331
29C
  5
29C
331
1E3
  5
1E3
331
4F4
  5
4F4
331
3AD
  5
3AD
331
2BE
  5
2BE
331
205
  5
205
331
516
  5
516
331
3C7
  5
3C7
331
2D8
  5
2D8
331
227
  5
227
331
530
  5
530
331
3E9
  5
3E9
331
441
  5
441
331
2FA
  5
2FA
331
249
  5
249
331
463
  5
463
331
40B
  5
40B
331
31C
  5
31C
331
174
  5
174
331
15A
  5
15A
331
138
  5
138
331
116
  5
116
331
F4
  5
F4
331
DA
  5
DA
331
B8
  5
B8
331
60
  5
60
331
42D
  5
42D
331
485
  5
485
331
33E
  5
33E
331
196
  5
196
331
85
  5
85
331
4A7
  5
4A7
331
358
  5
358
331
5B0
  5
552
331
1B8
  5
1B8
331
A7
  5
A7
331
269
  5
269
331
4C1
  5
4C1
331
37A
  5
37A
331
28B
  5
28B
331
1DA
  5
1DA
331
4E3
  5
4E3
331
39C
  5
39C
331
2AD
  5
2AD
331
1F4
  5
1F4
331
505
  5
505
331
3BE
  5
3BE
331
2CF
  5
2CF
331
216
  5
216
331
527
  5
527
331
3D8
  5
3D8
331
2E9
  5
2E9
331
238
  5
238
331
452
  5
452
331
3FA
  5
3FA
331
474
  5
474
331
41C
  5
41C
331
32D
  5
32D
331
30B
  5
30B
331
185
  5
185
331
149
  5
149
331
127
  5
127
331
105
  5
105
331
EB
  5
EB
331
C9
  5
C9
331
71
  5
71
331
4F
  5
4F
331
496
  5
496
331
1A7
  5
1A7
331
96
  5
96
331
3E
  5
3E
331
2D
  5
2D
331
278
  5
278
331
4D0
  5
4D0
331
389
  5
389
331
29A
  5
29A
331
1E1
  5
1E1
331
4F2
  5
4F2
331
3AB
  5
3AB
331
2BC
  5
2BC
331
203
  5
203
331
514
  5
514
331
3C5
  5
3C5
331
2D6
  5
2D6
331
225
  5
225
331
3E7
  5
3E7
331
43F
  5
43F
331
2F8
  5
2F8
331
247
  5
247
331
461
  5
461
331
409
  5
409
331
31A
  5
31A
331
172
  5
172
331
158
  5
158
331
136
  5
136
331
114
  5
114
331
F2
  5
F2
331
D8
  5
D8
331
42B
  5
42B
331
483
  5
483
331
33C
  5
33C
331
194
  5
194
331
83
  5
83
331
4A5
  5
4A5
331
356
  5
356
331
1B6
  5
1B6
331
A5
  5
A5
331
267
  5
267
331
4BF
  5
4BF
331
378
  5
378
331
289
  5
289
331
1D8
  5
1D8
331
4E1
  5
4E1
331
39A
  5
39A
331
2AB
  5
2AB
331
1F2
  5
1F2
331
503
  5
503
331
3BC
  5
3BC
331
2CD
  5
2CD
331
214
  5
214
331
525
  5
525
331
3D6
  5
3D6
331
2E7
  5
2E7
331
236
  5
236
331
450
  5
450
331
3F8
  5
3F8
331
472
  5
472
331
41A
  5
41A
331
32B
  5
32B
331
309
  5
309
331
183
  5
183
331
147
  5
147
331
125
  5
125
331
103
  5
103
331
E9
  5
E9
331
C7
  5
C7
331
6F
  5
6F
331
4D
  5
4D
331
494
  5
494
331
1A5
  5
1A5
331
94
  5
94
331
367
  5
367
331
5BF
  5
5BF
331
1C7
  5
1C7
331
B6
  5
B6
331
5E
  5
5E
331
3C
  5
3C
331
2B
  5
2B
331
298
  5
298
331
4F0
  5
4F0
331
3A9
  5
3A9
331
2BA
  5
2BA
331
201
  5
201
331
512
  5
512
331
3C3
  5
3C3
331
2D4
  5
2D4
331
223
  5
223
331
52C
  5
52C
331
3E5
  5
3E5
331
43D
  5
43D
331
2F6
  5
2F6
331
245
  5
245
331
45F
  5
45F
331
407
  5
407
331
318
  5
318
331
170
  5
170
331
156
  5
156
331
134
  5
134
331
112
  5
112
331
F0
  5
F0
331
429
  5
429
331
481
  5
481
331
33A
  5
33A
331
192
  5
192
331
81
  5
81
331
4A3
  5
4A3
331
354
  5
354
331
1B4
  5
1B4
331
A3
  5
A3
331
265
  5
265
331
4BD
  5
4BD
331
376
  5
376
331
287
  5
287
331
1D6
  5
1D6
331
4DF
  5
4DF
331
398
  5
398
331
2A9
  5
2A9
331
1F0
  5
1F0
331
501
  5
501
331
3BA
  5
3BA
331
2CB
  5
2CB
331
212
  5
212
331
523
  5
523
331
3D4
  5
3D4
331
2E5
  5
2E5
331
234
  5
234
331
3F6
  5
3F6
331
44E
  5
44E
331
307
  5
307
331
256
  5
256
331
470
  5
470
331
418
  5
418
331
329
  5
329
331
181
  5
181
331
167
  5
167
331
145
  5
145
331
123
  5
123
331
101
  5
101
331
E7
  5
E7
331
C5
  5
C5
331
6D
  5
6D
331
4B
  5
4B
331
492
  5
492
331
1A3
  5
1A3
331
92
  5
92
331
365
  5
365
331
5BD
  5
5BD
331
276
  5
276
331
1C5
  5
1C5
331
4CE
  5
4CE
331
387
  5
387
331
D6
  5
D6
331
B4
  5
B4
331
5C
  5
5C
331
3A
  5
3A
331
29
  5
29
331
2B8
  5
2B8
331
510
  5
510
331
3C1
  5
3C1
331
2D2
  5
2D2
331
221
  5
221
331
52A
  5
52A
331
3E3
  5
3E3
331
43B
  5
43B
331
2F4
  5
2F4
331
243
  5
243
331
45D
  5
45D
331
405
  5
405
331
316
  5
316
331
427
  5
427
331
16E
  5
16E
331
154
  5
154
331
132
  5
132
331
110
  5
110
331
47F
  5
47F
331
338
  5
338
331
190
  5
190
331
7F
  5
7F
331
4A1
  5
4A1
331
352
  5
352
331
1B2
  5
1B2
331
A1
  5
A1
331
263
  5
263
331
4BB
  5
4BB
331
374
  5
374
331
285
  5
285
331
1D4
  5
1D4
331
4DD
  5
4DD
331
396
  5
396
331
2A7
  5
2A7
331
1EE
  5
1EE
331
4FF
  5
4FF
331
3B8
  5
3B8
331
2C9
  5
2C9
331
210
  5
210
331
521
  5
521
331
3D2
  5
3D2
331
2E3
  5
2E3
331
232
  5
232
331
53B
  5
53B
331
3F4
  5
3F4
331
44C
  5
44C
331
305
  5
305
331
254
  5
254
331
46E
  5
46E
331
416
  5
416
331
327
  5
327
331
17F
  5
17F
331
165
  5
165
331
143
  5
143
331
121
  5
121
331
FF
  5
FF
331
E5
  5
E5
331
C3
  5
C3
331
6B
  5
6B
331
49
  5
49
331
490
  5
490
331
1A1
  5
1A1
331
90
  5
90
331
363
  5
363
331
5BB
  5
5BB
331
274
  5
274
331
1C3
  5
1C3
331
4CC
  5
4CC
331
385
  5
385
331
4EE
  5
4EE
331
3A7
  5
3A7
331
296
  5
296
331
1FF
  5
1FF
331
D4
  5
D4
331
B2
  5
B2
331
5A
  5
5A
331
38
  5
38
331
2D0
  5
2D0
331
528
  5
528
331
3E1
  5
3E1
331
439
  5
439
331
2F2
  5
2F2
331
241
  5
241
331
45B
  5
45B
331
403
  5
403
331
314
  5
314
331
425
  5
425
331
16C
  5
16C
331
152
  5
152
331
130
  5
130
331
47D
  5
47D
331
336
  5
336
331
18E
  5
18E
331
7D
  5
7D
331
49F
  5
49F
331
350
  5
350
331
1B0
  5
1B0
331
9F
  5
9F
331
261
  5
261
331
4B9
  5
4B9
331
372
  5
372
331
283
  5
283
331
1D2
  5
1D2
331
4DB
  5
4DB
331
394
  5
394
331
2A5
  5
2A5
331
1EC
  5
1EC
331
4FD
  5
4FD
331
3B6
  5
3B6
331
2C7
  5
2C7
331
20E
  5
20E
331
51F
  5
51F
331
3D0
  5
3D0
331
2E1
  5
2E1
331
230
  5
230
331
539
  5
539
331
3F2
  5
3F2
331
44A
  5
44A
331
303
  5
303
331
252
  5
252
331
46C
  5
46C
331
414
  5
414
331
325
  5
325
331
17D
  5
17D
331
163
  5
163
331
141
  5
141
331
11F
  5
11F
331
FD
  5
FD
331
E3
  5
E3
331
C1
  5
C1
331
69
  5
69
331
47
  5
47
331
436
  5
436
331
48E
  5
48E
331
347
  5
347
331
19F
  5
19F
331
8E
  5
8E
331
361
  5
361
331
5B9
  5
5B9
331
272
  5
272
331
1C1
  5
1C1
331
4CA
  5
4CA
331
383
  5
383
331
4EC
  5
4EC
331
3A5
  5
3A5
331
294
  5
294
331
2B6
  5
2B6
331
1FD
  5
1FD
331
50E
  5
50E
331
21F
  5
21F
331
10E
  5
10E
331
D2
  5
D2
331
B0
  5
B0
331
58
  5
58
331
36
  5
36
331
2F0
  5
2F0
331
459
  5
459
331
401
  5
401
331
312
  5
312
331
423
  5
423
331
16A
  5
16A
331
150
  5
150
331
47B
  5
47B
331
334
  5
334
331
18C
  5
18C
331
7B
  5
7B
331
49D
  5
49D
331
34E
  5
34E
331
1AE
  5
1AE
331
9D
  5
9D
331
25F
  5
25F
331
4B7
  5
4B7
331
370
  5
370
331
281
  5
281
331
1D0
  5
1D0
331
4D9
  5
4D9
331
392
  5
392
331
2A3
  5
2A3
331
1EA
  5
1EA
331
4FB
  5
4FB
331
3B4
  5
3B4
331
2C5
  5
2C5
331
20C
  5
20C
331
51D
  5
51D
331
3CE
  5
3CE
331
2DF
  5
2DF
331
22E
  5
22E
331
537
  5
537
331
3F0
  5
3F0
331
448
  5
448
331
301
  5
301
331
250
  5
250
331
46A
  5
46A
331
412
  5
412
331
323
  5
323
331
17B
  5
17B
331
161
  5
161
331
13F
  5
13F
331
11D
  5
11D
331
FB
  5
FB
331
E1
  5
E1
331
BF
  5
BF
331
67
  5
67
331
45
  5
45
331
434
  5
434
331
48C
  5
48C
331
345
  5
345
331
19D
  5
19D
331
8C
  5
8C
331
4AE
  5
4AE
331
35F
  5
35F
331
270
  5
270
331
1BF
  5
1BF
331
4C8
  5
4C8
331
381
  5
381
331
4EA
  5
4EA
331
3A3
  5
3A3
331
292
  5
292
331
2B4
  5
2B4
331
1FB
  5
1FB
331
50C
  5
50C
331
21D
  5
21D
331
3DF
  5
3DF
331
23F
  5
23F
331
12E
  5
12E
331
10C
  5
10C
331
D0
  5
D0
331
AE
  5
AE
331
56
  5
56
331
34
  5
34
331
310
  5
310
331
421
  5
421
331
168
  5
168
331
479
  5
479
331
332
  5
332
331
18A
  5
18A
331
79
  5
79
331
49B
  5
49B
331
34C
  5
34C
331
1AC
  5
1AC
331
9B
  5
9B
331
25D
  5
25D
331
4B5
  5
4B5
331
36E
  5
36E
331
27F
  5
27F
331
1CE
  5
1CE
331
4D7
  5
4D7
331
390
  5
390
331
2A1
  5
2A1
331
1E8
  5
1E8
331
4F9
  5
4F9
331
3B2
  5
3B2
331
2C3
  5
2C3
331
20A
  5
20A
331
51B
  5
51B
331
3CC
  5
3CC
331
2DD
  5
2DD
331
22C
  5
22C
331
535
  5
535
331
3EE
  5
3EE
331
446
  5
446
331
2FF
  5
2FF
331
24E
  5
24E
331
468
  5
468
331
410
  5
410
331
321
  5
321
331
179
  5
179
331
15F
  5
15F
331
13D
  5
13D
331
11B
  5
11B
331
F9
  5
F9
331
DF
  5
DF
331
BD
  5
BD
331
65
  5
65
331
43
  5
43
331
432
  5
432
331
48A
  5
48A
331
343
  5
343
331
19B
  5
19B
331
8A
  5
8A
331
4AC
  5
4AC
331
35D
  5
35D
331
5B5
  5
5B4
331
1BD
  5
1BD
331
AC
  5
AC
331
26E
  5
26E
331
4C6
  5
4C6
331
37F
  5
37F
331
4E8
  5
4E8
331
3A1
  5
3A1
331
290
  5
290
331
2B2
  5
2B2
331
1F9
  5
1F9
331
1DF
  5
1DF
331
50A
  5
50A
331
21B
  5
21B
331
3DD
  5
3DD
331
2EE
  5
2EE
331
23D
  5
23D
331
457
  5
457
331
3FF
  5
3FF
331
14E
  5
14E
331
12C
  5
12C
331
10A
  5
10A
331
CE
  5
CE
331
76
  5
76
331
54
  5
54
331
32
  5
32
331
330
  5
330
331
188
  5
188
331
499
  5
499
331
34A
  5
34A
331
1AA
  5
1AA
331
99
  5
99
331
25B
  5
25B
331
4B3
  5
4B3
331
36C
  5
36C
331
27D
  5
27D
331
1CC
  5
1CC
331
4D5
  5
4D5
331
38E
  5
38E
331
29F
  5
29F
331
1E6
  5
1E6
331
4F7
  5
4F7
331
3B0
  5
3B0
331
2C1
  5
2C1
331
208
  5
208
331
519
  5
519
331
3CA
  5
3CA
331
2DB
  5
2DB
331
22A
  5
22A
331
533
  5
533
331
3EC
  5
3EC
331
444
  5
444
331
2FD
  5
2FD
331
24C
  5
24C
331
466
  5
466
331
40E
  5
40E
331
31F
  5
31F
331
177
  5
177
331
15D
  5
15D
331
13B
  5
13B
331
119
  5
119
331
F7
  5
F7
331
DD
  5
DD
331
BB
  5
BB
331
63
  5
63
331
41
  5
41
331
430
  5
430
331
488
  5
488
331
341
  5
341
331
199
  5
199
331
88
  5
88
331
4AA
  5
4AA
331
35B
  5
35B
331
5B3
  5
5B2
331
1BB
  5
1BB
331
AA
  5
AA
331
26C
  5
26C
331
4C4
  5
4C4
331
37D
  5
37D
331
28E
  5
28E
331
1DD
  5
1DD
331
4E6
  5
4E6
331
39F
  5
39F
331
2B0
  5
2B0
331
1F7
  5
1F7
331
508
  5
508
331
219
  5
219
331
3DB
  5
3DB
331
2EC
  5
2EC
331
23B
  5
23B
331
455
  5
455
331
3FD
  5
3FD
331
477
  5
477
331
41F
  5
41F
331
30E
  5
30E
331
14C
  5
14C
331
12A
  5
12A
331
108
  5
108
331
EE
  5
EE
331
CC
  5
CC
331
74
  5
74
331
52
  5
52
331
30
  5
30
331
348
  5
348
331
1A8
  5
1A8
331
259
  5
259
331
4B1
  5
4B1
331
36A
  5
36A
331
27B
  5
27B
331
1CA
  5
1CA
331
4D3
  5
4D3
331
38C
  5
38C
331
29D
  5
29D
331
1E4
  5
1E4
331
4F5
  5
4F5
331
3AE
  5
3AE
331
2BF
  5
2BF
331
206
  5
206
331
517
  5
517
331
3C8
  5
3C8
331
2D9
  5
2D9
331
228
  5
228
331
531
  5
531
331
3EA
  5
3EA
331
442
  5
442
331
2FB
  5
2FB
331
24A
  5
24A
331
464
  5
464
331
40C
  5
40C
331
31D
  5
31D
331
175
  5
175
331
15B
  5
15B
331
139
  5
139
331
117
  5
117
331
F5
  5
F5
331
DB
  5
DB
331
B9
  5
B9
331
61
  5
61
331
42E
  5
42E
331
486
  5
486
331
33F
  5
33F
331
197
  5
197
331
86
  5
86
331
4A8
  5
4A8
331
359
  5
359
331
5B1
  5
5B0
331
1B9
  5
1B9
331
A8
  5
A8
331
26A
  5
26A
331
4C2
  5
4C2
331
37B
  5
37B
331
28C
  5
28C
331
1DB
  5
1DB
331
4E4
  5
4E4
331
39D
  5
39D
331
2AE
  5
2AE
331
1F5
  5
1F5
331
506
  5
506
331
3BF
  5
3BF
331
217
  5
217
331
3D9
  5
3D9
331
2EA
  5
2EA
331
239
  5
239
331
453
  5
453
331
3FB
  5
3FB
331
475
  5
475
331
41D
  5
41D
331
32E
  5
32E
331
30C
  5
30C
331
186
  5
186
331
14A
  5
14A
331
128
  5
128
331
106
  5
106
331
EC
  5
EC
331
CA
  5
CA
331
72
  5
72
331
50
  5
50
331
497
  5
497
331
97
  5
97
331
3F
  5
3F
331
2E
  5
2E
331
368
  5
368
331
279
  5
279
331
1C8
  5
1C8
331
4D1
  5
4D1
331
38A
  5
38A
331
29B
  5
29B
331
1E2
  5
1E2
331
4F3
  5
4F3
331
3AC
  5
3AC
331
2BD
  5
2BD
331
204
  5
204
331
515
  5
515
331
3C6
  5
3C6
331
2D7
  5
2D7
331
226
  5
226
331
52F
  5
52F
331
3E8
  5
3E8
331
440
  5
440
331
2F9
  5
2F9
331
248
  5
248
331
462
  5
462
331
40A
  5
40A
331
31B
  5
31B
331
173
  5
173
331
159
  5
159
331
137
  5
137
331
115
  5
115
331
F3
  5
F3
331
D9
  5
D9
331
42C
  5
42C
331
484
  5
484
331
33D
  5
33D
331
195
  5
195
331
84
  5
84
331
4A6
  5
4A6
331
357
  5
357
331
1B7
  5
1B7
331
A6
  5
A6
331
268
  5
268
331
4C0
  5
4C0
331
379
  5
379
331
28A
  5
28A
331
1D9
  5
1D9
331
4E2
  5
4E2
331
39B
  5
39B
331
2AC
  5
2AC
331
1F3
  5
1F3
331
504
  5
504
331
3BD
  5
3BD
331
2CE
  5
2CE
331
215
  5
215
331
526
  5
526
331
3D7
  5
3D7
331
2E8
  5
2E8
331
237
  5
237
331
451
  5
451
331
3F9
  5
3F9
331
473
  5
473
331
41B
  5
41B
331
32C
  5
32C
331
30A
  5
30A
331
184
  5
184
331
148
  5
148
331
126
  5
126
331
104
  5
104
331
EA
  5
EA
331
C8
  5
C8
331
70
  5
70
331
4E
  5
4E
331
495
  5
495
331
1A6
  5
1A6
331
95
  5
95
331
B7
  5
B7
331
5F
  5
5F
331
3D
  5
3D
331
2C
  5
2C
331
388
  5
388
331
299
  5
299
331
1E0
  5
1E0
331
4F1
  5
4F1
331
3AA
  5
3AA
331
2BB
  5
2BB
331
202
  5
202
331
513
  5
513
331
3C4
  5
3C4
331
2D5
  5
2D5
331
224
  5
224
331
52D
  5
52D
331
3E6
  5
3E6
331
43E
  5
43E
331
2F7
  5
2F7
331
246
  5
246
331
460
  5
460
331
408
  5
408
331
319
  5
319
331
171
  5
171
331
157
  5
157
331
135
  5
135
331
113
  5
113
331
F1
  5
F1
331
42A
  5
42A
331
482
  5
482
331
33B
  5
33B
331
193
  5
193
331
82
  5
82
331
4A4
  5
4A4
331
355
  5
355
331
1B5
  5
1B5
331
A4
  5
A4
331
266
  5
266
331
4BE
  5
4BE
331
377
  5
377
331
288
  5
288
331
1D7
  5
1D7
331
4E0
  5
4E0
331
399
  5
399
331
2AA
  5
2AA
331
1F1
  5
1F1
331
502
  5
502
331
3BB
  5
3BB
331
2CC
  5
2CC
331
213
  5
213
331
524
  5
524
331
3D5
  5
3D5
331
2E6
  5
2E6
331
235
  5
235
331
3F7
  5
3F7
331
44F
  5
44F
331
471
  5
471
331
419
  5
419
331
32A
  5
32A
331
308
  5
308
331
257
  5
257
331
182
  5
182
331
146
  5
146
331
124
  5
124
331
102
  5
102
331
E8
  5
E8
331
C6
  5
C6
331
6E
  5
6E
331
4C
  5
4C
331
493
  5
493
331
1A4
  5
1A4
331
93
  5
93
331
366
  5
366
331
5BE
  5
5BE
331
277
  5
277
331
1C6
  5
1C6
331
4CF
  5
4CF
331
D7
  5
D7
331
B5
  5
B5
331
5D
  5
5D
331
3B
  5
3B
331
2A
  5
2A
  0
LAYOUT
  5
21
102
{ACAD_REACTORS
330
1E
102
}
330
1E
100
AcDbPlotSettings
  1

  2
Foxit PDF Printer
  4
Letter
  6

 40
3.174999952316284
 41
3.174999952316284
 42
3.17498779296875
 43
3.175003051757812
 44
279.3999938964844
 45
215.8999938964844
 46
31.47715384821894
 47
24.12875752349356
 48
0.0
 49
0.0
140
0.0
141
0.0
142
1.0
143
1.0
 70
     4
 72
     0
 73
     0
 74
     1
  7

 75
    16
147
1.0
 76
     1
 77
     2
 78
   300
148
-26.25461124795212
149
-20.16000981431432
100
AcDbLayout
  1
Layout1
 70
     0
 71
     1
 10
-0.3306119115190196
 20
-0.2812499079328949
 11
10.66938784818509
 21
8.218749851771214
 12
0.0
 22
0.0
 32
0.0
 14
-0.143150438413393
 24
-0.0428332557722548
 34
-0.0015258207003583
 15
10.41132779721956
 25
7.980333184147099
 35
0.0000000349246037
146
0.0
 13
0.0
 23
0.0
 33
0.0
 16
1.0
 26
0.0
 36
0.0
 17
0.0
 27
1.0
 37
0.0
 76
     0
330
B
331
570
1001
ACAD_PSEXT
1000
Foxit PDF Printer
1000
Foxit PDF Printer Driver
1000
FOXIT_PDF
1000

1070
     0
  0
LAYOUT
  5
20
102
{ACAD_REACTORS
330
1E
102
}
330
1E
100
AcDbPlotSettings
  1

  2

  4

  6

 40
0.0
 41
0.0
 42
0.0
 43
0.0
 44
0.0
 45
0.0
 46
0.0
 47
0.0
 48
0.0
 49
0.0
140
0.0
141
0.0
142
1.0
143
1.0
 70
  1024
 72
     0
 73
     0
 74
     0
  7

 75
     0
147
1.0
 76
     0
 77
     2
 78
   300
148
0.0
149
0.0
100
AcDbLayout
  1
Model
 70
     0
 71
     0
 10
0.0
 20
0.0
 11
0.0
 21
0.0
 12
0.0
 22
0.0
 32
0.0
 14
0.0
 24
0.0
 34
0.0
 15
0.0
 25
0.0
 35
0.0
146
0.0
 13
0.0
 23
0.0
 33
0.0
 16
0.0
 26
0.0
 36
0.0
 17
0.0
 27
0.0
 37
0.0
 76
     0
330
A
  0
MATERIAL
  5
556
102
{ACAD_XDICTIONARY
360
5DB
102
}
102
{ACAD_REACTORS
330
554
102
}
330
554
100
AcDbMaterial
  1
ByBlock
 73
     1
 78
     1
172
     1
176
     1
270
     1
274
     1
  0
MATERIAL
  5
555
102
{ACAD_XDICTIONARY
360
5D9
102
}
102
{ACAD_REACTORS
330
554
102
}
330
554
100
AcDbMaterial
  1
ByLayer
 73
     1
 78
     1
172
     1
176
     1
270
     1
274
     1
  0
MATERIAL
  5
557
102
{ACAD_XDICTIONARY
360
5DD
102
}
102
{ACAD_REACTORS
330
554
102
}
330
554
100
AcDbMaterial
  1
Global
 73
     1
 78
     1
172
     1
176
     1
270
     1
274
     1
  0
MLEADERSTYLE
  5
59A
102
{ACAD_REACTORS
330
599
102
}
330
599
100
AcDbMLeaderStyle
170
     2
171
     1
172
     0
 90
        2
 40
0.0
 41
0.0
173
     1
 91
-1056964608
340
11
 92
       -2
290
     1
 42
0.09
291
     1
 43
0.36
  3
Standard
 44
0.18
300

342
17
174
     1
178
     6
175
     1
176
     0
 93
-1056964608
 45
0.18
292
     0
297
     0
 46
0.18
 94
-1056964608
 47
1.0
 49
1.0
140
1.0
293
     1
141
0.0
294
     1
177
     0
142
1.0
295
     0
296
     0
143
0.125
1001
ACAD_MLEADERVER
1070
     2
  0
MLINESTYLE
  5
1C
102
{ACAD_REACTORS
330
1B
102
}
330
1B
100
AcDbMlineStyle
  2
STANDARD
 70
     0
  3

 62
     0
 51
90.0
 52
90.0
 71
     2
 49
0.5
 62
   256
  6
BYLAYER
 49
-0.5
 62
   256
  6
BYLAYER
  0
ACDBPLACEHOLDER
  5
1D
102
{ACAD_REACTORS
330
1F
102
}
330
1F
  0
SCALE
  5
578
102
{ACAD_REACTORS
330
577
102
}
330
577
100
AcDbScale
 70
     0
300
1:1
140
1.0
141
1.0
290
     1
  0
SCALE
  5
579
102
{ACAD_REACTORS
330
577
102
}
330
577
100
AcDbScale
 70
     0
300
1:2
140
1.0
141
2.0
290
     0
  0
SCALE
  5
57A
102
{ACAD_REACTORS
330
577
102
}
330
577
100
AcDbScale
 70
     0
300
1:4
140
1.0
141
4.0
290
     0
  0
SCALE
  5
57B
102
{ACAD_REACTORS
330
577
102
}
330
577
100
AcDbScale
 70
     0
300
1:5
140
1.0
141
5.0
290
     0
  0
SCALE
  5
57C
102
{ACAD_REACTORS
330
577
102
}
330
577
100
AcDbScale
 70
     0
300
1:8
140
1.0
141
8.0
290
     0
  0
SCALE
  5
57D
102
{ACAD_REACTORS
330
577
102
}
330
577
100
AcDbScale
 70
     0
300
1:10
140
1.0
141
10.0
290
     0
  0
SCALE
  5
57E
102
{ACAD_REACTORS
330
577
102
}
330
577
100
AcDbScale
 70
     0
300
1:16
140
1.0
141
16.0
290
     0
  0
SCALE
  5
57F
102
{ACAD_REACTORS
330
577
102
}
330
577
100
AcDbScale
 70
     0
300
1:20
140
1.0
141
20.0
290
     0
  0
SCALE
  5
580
102
{ACAD_REACTORS
330
577
102
}
330
577
100
AcDbScale
 70
     0
300
1:30
140
1.0
141
30.0
290
     0
  0
SCALE
  5
581
102
{ACAD_REACTORS
330
577
102
}
330
577
100
AcDbScale
 70
     0
300
1:40
140
1.0
141
40.0
290
     0
  0
SCALE
  5
582
102
{ACAD_REACTORS
330
577
102
}
330
577
100
AcDbScale
 70
     0
300
1:50
140
1.0
141
50.0
290
     0
  0
SCALE
  5
583
102
{ACAD_REACTORS
330
577
102
}
330
577
100
AcDbScale
 70
     0
300
1:100
140
1.0
141
100.0
290
     0
  0
SCALE
  5
584
102
{ACAD_REACTORS
330
577
102
}
330
577
100
AcDbScale
 70
     0
300
2:1
140
2.0
141
1.0
290
     0
  0
SCALE
  5
585
102
{ACAD_REACTORS
330
577
102
}
330
577
100
AcDbScale
 70
     0
300
4:1
140
4.0
141
1.0
290
     0
  0
SCALE
  5
586
102
{ACAD_REACTORS
330
577
102
}
330
577
100
AcDbScale
 70
     0
300
8:1
140
8.0
141
1.0
290
     0
  0
SCALE
  5
587
102
{ACAD_REACTORS
330
577
102
}
330
577
100
AcDbScale
 70
     0
300
10:1
140
10.0
141
1.0
290
     0
  0
SCALE
  5
588
102
{ACAD_REACTORS
330
577
102
}
330
577
100
AcDbScale
 70
     0
300
100:1
140
100.0
141
1.0
290
     0
  0
SCALE
  5
589
102
{ACAD_REACTORS
330
577
102
}
330
577
100
AcDbScale
 70
     0
300
1/128" = 1'-0"
140
0.0078125
141
12.0
290
     0
  0
SCALE
  5
58A
102
{ACAD_REACTORS
330
577
102
}
330
577
100
AcDbScale
 70
     0
300
1/64" = 1'-0"
140
0.015625
141
12.0
290
     0
  0
SCALE
  5
58B
102
{ACAD_REACTORS
330
577
102
}
330
577
100
AcDbScale
 70
     0
300
1/32" = 1'-0"
140
0.03125
141
12.0
290
     0
  0
SCALE
  5
58C
102
{ACAD_REACTORS
330
577
102
}
330
577
100
AcDbScale
 70
     0
300
1/16" = 1'-0"
140
0.0625
141
12.0
290
     0
  0
SCALE
  5
58D
102
{ACAD_REACTORS
330
577
102
}
330
577
100
AcDbScale
 70
     0
300
3/32" = 1'-0"
140
0.09375
141
12.0
290
     0
  0
SCALE
  5
58E
102
{ACAD_REACTORS
330
577
102
}
330
577
100
AcDbScale
 70
     0
300
1/8" = 1'-0"
140
0.125
141
12.0
290
     0
  0
SCALE
  5
58F
102
{ACAD_REACTORS
330
577
102
}
330
577
100
AcDbScale
 70
     0
300
3/16" = 1'-0"
140
0.1875
141
12.0
290
     0
  0
SCALE
  5
590
102
{ACAD_REACTORS
330
577
102
}
330
577
100
AcDbScale
 70
     0
300
1/4" = 1'-0"
140
0.25
141
12.0
290
     0
  0
SCALE
  5
591
102
{ACAD_REACTORS
330
577
102
}
330
577
100
AcDbScale
 70
     0
300
3/8" = 1'-0"
140
0.375
141
12.0
290
     0
  0
SCALE
  5
592
102
{ACAD_REACTORS
330
577
102
}
330
577
100
AcDbScale
 70
     0
300
1/2" = 1'-0"
140
0.5
141
12.0
290
     0
  0
SCALE
  5
593
102
{ACAD_REACTORS
330
577
102
}
330
577
100
AcDbScale
 70
     0
300
3/4" = 1'-0"
140
0.75
141
12.0
290
     0
  0
SCALE
  5
594
102
{ACAD_REACTORS
330
577
102
}
330
577
100
AcDbScale
 70
     0
300
1" = 1'-0"
140
1.0
141
12.0
290
     0
  0
SCALE
  5
595
102
{ACAD_REACTORS
330
577
102
}
330
577
100
AcDbScale
 70
     0
300
1-1/2" = 1'-0"
140
1.5
141
12.0
290
     0
  0
SCALE
  5
596
102
{ACAD_REACTORS
330
577
102
}
330
577
100
AcDbScale
 70
     0
300
3" = 1'-0"
140
3.0
141
12.0
290
     0
  0
SCALE
  5
597
102
{ACAD_REACTORS
330
577
102
}
330
577
100
AcDbScale
 70
     0
300
6" = 1'-0"
140
6.0
141
12.0
290
     0
  0
SCALE
  5
598
102
{ACAD_REACTORS
330
577
102
}
330
577
100
AcDbScale
 70
     0
300
1'-0" = 1'-0"
140
12.0
141
12.0
290
     0
  0
TABLESTYLE
  5
56B
102
{ACAD_XDICTIONARY
360
5D6
102
}
102
{ACAD_REACTORS
330
56A
102
}
330
56A
100
AcDbTableStyle
  3
Standard
 70
     0
 71
     0
 40
0.06
 41
0.06
280
     0
281
     0
  7
Standard
140
0.18
170
     2
 62
     0
 63
     7
283
     0
274
    -2
284
     1
 64
     0
275
    -2
285
     1
 65
     0
276
    -2
286
     1
 66
     0
277
    -2
287
     1
 67
     0
278
    -2
288
     1
 68
     0
279
    -2
289
     1
 69
     0
  7
Standard
140
0.25
170
     5
 62
     0
 63
     7
283
     0
274
    -2
284
     1
 64
     0
275
    -2
285
     1
 65
     0
276
    -2
286
     1
 66
     0
277
    -2
287
     1
 67
     0
278
    -2
288
     1
 68
     0
279
    -2
289
     1
 69
     0
  7
Standard
140
0.18
170
     5
 62
     0
 63
     7
283
     0
274
    -2
284
     1
 64
     0
275
    -2
285
     1
 65
     0
276
    -2
286
     1
 66
     0
277
    -2
287
     1
 67
     0
278
    -2
288
     1
 68
     0
279
    -2
289
     1
 69
     0
  0
VISUALSTYLE
  5
55E
102
{ACAD_REACTORS
330
558
102
}
330
558
100
AcDbVisualStyle
  2
2dWireframe
 70
     4
 71
     0
 72
     2
 73
     0
 90
        0
 40
-0.6
 41
-30.0
 62
     5
 63
     7
421
 16777215
 74
     1
 91
        4
 64
     7
 65
   257
 75
     1
175
     1
 42
1.0
 92
        0
 66
   257
 43
1.0
 76
     1
 77
     6
 78
     2
 67
     7
 79
     5
170
     0
171
     0
290
     0
174
     0
 93
        1
 44
0.0
173
     0
291
     0
 45
0.0
1001
ACAD
1000
AcDbSavedByObjectVersion
1070
     0
  0
VISUALSTYLE
  5
560
102
{ACAD_REACTORS
330
558
102
}
330
558
100
AcDbVisualStyle
  2
3D Hidden
 70
     6
 71
     1
 72
     2
 73
     2
 90
        0
 40
-0.6
 41
-30.0
 62
     5
 63
     7
421
 16777215
 74
     2
 91
        2
 64
     7
 65
   257
 75
     2
175
     1
 42
40.0
 92
        0
 66
   257
 43
1.0
 76
     1
 77
     6
 78
     2
 67
     7
 79
     3
170
     0
171
     0
290
     0
174
     0
 93
        1
 44
0.0
173
     0
291
     0
 45
0.0
1001
ACAD
1000
AcDbSavedByObjectVersion
1070
     0
  0
VISUALSTYLE
  5
55F
102
{ACAD_REACTORS
330
558
102
}
330
558
100
AcDbVisualStyle
  2
3dWireframe
 70
     5
 71
     0
 72
     2
 73
     0
 90
        0
 40
-0.6
 41
-30.0
 62
     5
 63
     7
421
 16777215
 74
     1
 91
        4
 64
     7
 65
   257
 75
     1
175
     1
 42
1.0
 92
        0
 66
   257
 43
1.0
 76
     1
 77
     6
 78
     2
 67
     7
 79
     5
170
     0
171
     0
290
     0
174
     0
 93
        1
 44
0.0
173
     0
291
     0
 45
0.0
1001
ACAD
1000
AcDbSavedByObjectVersion
1070
     0
  0
VISUALSTYLE
  5
55D
102
{ACAD_REACTORS
330
558
102
}
330
558
100
AcDbVisualStyle
  2
Basic
 70
     7
 71
     1
 72
     0
 73
     1
 90
        0
 40
-0.6
 41
-30.0
 62
     5
 63
     7
421
 16777215
 74
     0
 91
        4
 64
     7
 65
   257
 75
     1
175
     1
 42
1.0
 92
        8
 66
     7
 43
1.0
 76
     1
 77
     6
 78
     2
 67
     7
 79
     5
170
     0
171
     0
290
     0
174
     0
 93
        1
 44
0.0
173
     0
291
     1
 45
0.0
1001
ACAD
1000
AcDbSavedByObjectVersion
1070
     0
  0
VISUALSTYLE
  5
564
102
{ACAD_REACTORS
330
558
102
}
330
558
100
AcDbVisualStyle
  2
Brighten
 70
    12
 71
     2
 72
     2
 73
     0
 90
        0
 40
-0.6
 41
-30.0
 62
     5
 63
     7
421
 16777215
 74
     1
 91
        4
 64
     7
 65
   257
 75
     1
175
     1
 42
1.0
 92
        8
 66
     7
 43
1.0
 76
     1
 77
     6
 78
     2
 67
     7
 79
     5
170
     0
171
     0
290
     0
174
     0
 93
        1
 44
50.0
173
     0
291
     1
 45
0.0
1001
ACAD
1000
AcDbSavedByObjectVersion
1070
     0
  0
VISUALSTYLE
  5
568
102
{ACAD_REACTORS
330
558
102
}
330
558
100
AcDbVisualStyle
  2
ColorChange
 70
    16
 71
     2
 72
     2
 73
     3
 90
        0
 40
-0.6
 41
-30.0
 62
     5
 63
     8
421
  8421504
 74
     1
 91
        4
 64
     7
 65
   257
 75
     1
175
     1
 42
1.0
 92
        8
 66
     8
424
  8421504
 43
1.0
 76
     1
 77
     6
 78
     2
 67
     7
 79
     5
170
     0
171
     0
290
     0
174
     0
 93
        1
 44
0.0
173
     0
291
     1
 45
0.0
1001
ACAD
1000
AcDbSavedByObjectVersion
1070
     0
  0
VISUALSTYLE
  5
561
102
{ACAD_REACTORS
330
558
102
}
330
558
100
AcDbVisualStyle
  2
Conceptual
 70
     9
 71
     3
 72
     2
 73
     0
 90
        0
 40
-0.6
 41
-30.0
 62
     5
 63
     7
421
 16777215
 74
     2
 91
        2
 64
     7
 65
   257
 75
     1
175
     1
 42
40.0
 92
        8
 66
     7
 43
1.0
 76
     1
 77
     6
 78
     2
 67
     7
 79
     3
170
     0
171
     0
290
     0
174
     0
 93
        1
 44
0.0
173
     0
291
     0
 45
0.0
1001
ACAD
1000
AcDbSavedByObjectVersion
1070
     0
  0
VISUALSTYLE
  5
563
102
{ACAD_REACTORS
330
558
102
}
330
558
100
AcDbVisualStyle
  2
Dim
 70
    11
 71
     2
 72
     2
 73
     0
 90
        0
 40
-0.6
 41
-30.0
 62
     5
 63
     7
421
 16777215
 74
     1
 91
        4
 64
     7
 65
   257
 75
     1
175
     1
 42
1.0
 92
        8
 66
     7
 43
1.0
 76
     1
 77
     6
 78
     2
 67
     7
 79
     5
170
     0
171
     0
290
     0
174
     0
 93
        1
 44
-50.0
173
     0
291
     1
 45
0.0
1001
ACAD
1000
AcDbSavedByObjectVersion
1070
     0
  0
VISUALSTYLE
  5
567
102
{ACAD_REACTORS
330
558
102
}
330
558
100
AcDbVisualStyle
  2
Facepattern
 70
    15
 71
     2
 72
     2
 73
     0
 90
        0
 40
-0.6
 41
-30.0
 62
     5
 63
     7
421
 16777215
 74
     1
 91
        4
 64
     7
 65
   257
 75
     1
175
     1
 42
1.0
 92
        8
 66
     7
 43
1.0
 76
     1
 77
     6
 78
     2
 67
     7
 79
     5
170
     0
171
     0
290
     0
174
     0
 93
        1
 44
0.0
173
     0
291
     1
 45
0.0
1001
ACAD
1000
AcDbSavedByObjectVersion
1070
     0
  0
VISUALSTYLE
  5
559
102
{ACAD_REACTORS
330
558
102
}
330
558
100
AcDbVisualStyle
  2
Flat
 70
     0
 71
     2
 72
     1
 73
     1
 90
        2
 40
-0.6
 41
30.0
 62
     5
 63
     7
421
 16777215
 74
     0
 91
        4
 64
     7
 65
   257
 75
     1
175
     1
 42
1.0
 92
        8
 66
     7
 43
1.0
 76
     1
 77
     6
 78
     2
 67
     7
 79
     5
170
     0
171
     0
290
     0
174
     0
 93
       13
 44
0.0
173
     0
291
     1
 45
0.0
1001
ACAD
1000
AcDbSavedByObjectVersion
1070
     0
  0
VISUALSTYLE
  5
55A
102
{ACAD_REACTORS
330
558
102
}
330
558
100
AcDbVisualStyle
  2
FlatWithEdges
 70
     1
 71
     2
 72
     1
 73
     1
 90
        2
 40
-0.6
 41
30.0
 62
     5
 63
     7
421
 16777215
 74
     1
 91
        4
 64
     7
 65
   257
 75
     1
175
     1
 42
1.0
 92
        0
 66
   257
 43
1.0
 76
     1
 77
     6
 78
     2
 67
     7
 79
     5
170
     0
171
     0
290
     0
174
     0
 93
       13
 44
0.0
173
     0
291
     1
 45
0.0
1001
ACAD
1000
AcDbSavedByObjectVersion
1070
     0
  0
VISUALSTYLE
  5
55B
102
{ACAD_REACTORS
330
558
102
}
330
558
100
AcDbVisualStyle
  2
Gouraud
 70
     2
 71
     2
 72
     2
 73
     1
 90
        2
 40
-0.6
 41
30.0
 62
     5
 63
     7
421
 16777215
 74
     0
 91
        4
 64
     7
 65
   257
 75
     1
175
     1
 42
1.0
 92
        0
 66
     7
 43
1.0
 76
     1
 77
     6
 78
     2
 67
     7
 79
     5
170
     0
171
     0
290
     0
174
     0
 93
       13
 44
0.0
173
     0
291
     1
 45
0.0
1001
ACAD
1000
AcDbSavedByObjectVersion
1070
     0
  0
VISUALSTYLE
  5
55C
102
{ACAD_REACTORS
330
558
102
}
330
558
100
AcDbVisualStyle
  2
GouraudWithEdges
 70
     3
 71
     2
 72
     2
 73
     1
 90
        2
 40
-0.6
 41
30.0
 62
     5
 63
     7
421
 16777215
 74
     1
 91
        4
 64
     7
 65
   257
 75
     1
175
     1
 42
1.0
 92
        0
 66
   257
 43
1.0
 76
     1
 77
     6
 78
     2
 67
     7
 79
     5
170
     0
171
     0
290
     0
174
     0
 93
       13
 44
0.0
173
     0
291
     1
 45
0.0
1001
ACAD
1000
AcDbSavedByObjectVersion
1070
     0
  0
VISUALSTYLE
  5
566
102
{ACAD_REACTORS
330
558
102
}
330
558
100
AcDbVisualStyle
  2
Linepattern
 70
    14
 71
     2
 72
     2
 73
     0
 90
        0
 40
-0.6
 41
-30.0
 62
     5
 63
     7
421
 16777215
 74
     1
 91
        4
 64
     7
 65
   257
 75
     7
175
     7
 42
1.0
 92
        8
 66
     7
 43
1.0
 76
     1
 77
     6
 78
     2
 67
     7
 79
     5
170
     0
171
     0
290
     0
174
     0
 93
        1
 44
0.0
173
     0
291
     1
 45
0.0
1001
ACAD
1000
AcDbSavedByObjectVersion
1070
     0
  0
VISUALSTYLE
  5
562
102
{ACAD_REACTORS
330
558
102
}
330
558
100
AcDbVisualStyle
  2
Realistic
 70
     8
 71
     2
 72
     2
 73
     0
 90
        0
 40
-0.6
 41
-30.0
 62
     5
 63
     7
421
 16777215
 74
     1
 91
        0
 64
     7
 65
   257
 75
     1
175
     1
 42
1.0
 92
        8
 66
     8
424
  7895160
 43
1.0
 76
     1
 77
     6
 78
     2
 67
     7
 79
     5
170
     0
171
     0
290
     0
174
     0
 93
       13
 44
0.0
173
     0
291
     0
 45
0.0
1001
ACAD
1000
AcDbSavedByObjectVersion
1070
     0
  0
VISUALSTYLE
  5
565
102
{ACAD_REACTORS
330
558
102
}
330
558
100
AcDbVisualStyle
  2
Thicken
 70
    13
 71
     2
 72
     2
 73
     0
 90
        0
 40
-0.6
 41
-30.0
 62
     5
 63
     7
421
 16777215
 74
     1
 91
        4
 64
     7
 65
   257
 75
     1
175
     1
 42
1.0
 92
       12
 66
     7
 43
1.0
 76
     1
 77
     6
 78
     2
 67
     7
 79
     5
170
     0
171
     0
290
     0
174
     0
 93
        1
 44
0.0
173
     0
291
     1
 45
0.0
1001
ACAD
1000
AcDbSavedByObjectVersion
1070
     0
  0
DICTIONARYVAR
  5
5D5
102
{ACAD_REACTORS
330
574
102
}
330
574
100
DictionaryVariables
280
     0
  1
1:1
  0
DICTIONARYVAR
  5
5D4
102
{ACAD_REACTORS
330
574
102
}
330
574
100
DictionaryVariables
280
     0
  1
STANDARD
  0
DICTIONARYVAR
  5
575
102
{ACAD_REACTORS
330
574
102
}
330
574
100
DictionaryVariables
280
     0
  1
STANDARD
  0
DICTIONARY
  5
5DB
330
556
100
AcDbDictionary
280
     1
281
     1
  3
ACAD_XREC_ROUNDTRIP
360
5DC
  0
DICTIONARY
  5
5D9
330
555
100
AcDbDictionary
280
     1
281
     1
  3
ACAD_XREC_ROUNDTRIP
360
5DA
  0
DICTIONARY
  5
5DD
330
557
100
AcDbDictionary
280
     1
281
     1
  3
ACAD_XREC_ROUNDTRIP
360
5DE
  0
DICTIONARY
  5
5D6
330
56B
100
AcDbDictionary
280
     1
281
     1
  3
ACAD_ROUNDTRIP_2008_TABLESTYLE_CELLSTYLEMAP
360
5D7
  3
ACAD_XREC_ROUNDTRIP
360
5DF
  0
XRECORD
  5
5DC
102
{ACAD_REACTORS
330
5DB
102
}
330
5DB
100
AcDbXrecord
280
     1
102
MATERIAL
148
0.0
149
0.0
149
0.0
 93
        0
 94
       63
282
     0
 72
     1
 77
     1
171
     1
175
     1
179
     1
273
     0
  0
XRECORD
  5
5DA
102
{ACAD_REACTORS
330
5D9
102
}
330
5D9
100
AcDbXrecord
280
     1
102
MATERIAL
148
0.0
149
0.0
149
0.0
 93
        0
 94
       63
282
     0
 72
     1
 77
     1
171
     1
175
     1
179
     1
273
     0
  0
XRECORD
  5
5DE
102
{ACAD_REACTORS
330
5DD
102
}
330
5DD
100
AcDbXrecord
280
     1
102
MATERIAL
148
0.0
149
0.0
149
0.0
 93
        0
 94
       63
282
     0
 72
     1
 77
     1
171
     1
175
     1
179
     1
273
     0
  0
CELLSTYLEMAP
  5
5D7
102
{ACAD_REACTORS
330
5D6
102
}
330
5D6
100
AcDbCellStyleMap
 90
        3
300
CELLSTYLE
  1
TABLEFORMAT_BEGIN
 90
        5
170
     1
 91
        0
 92
    32768
 62
   257
 93
        1
300
CONTENTFORMAT
  1
CONTENTFORMAT_BEGIN
 90
        0
 91
        0
 92
      512
 93
        0
300

 40
0.0
140
1.0
 94
        5
 62
     0
340
17
144
0.25
309
CONTENTFORMAT_END
171
     0
 94
        6
 95
        1
302
GRIDFORMAT
  1
GRIDFORMAT_BEGIN
 90
        0
 91
        1
 62
     0
 92
       -2
340
0
 93
        0
 40
0.045
309
GRIDFORMAT_END
 95
        2
302
GRIDFORMAT
  1
GRIDFORMAT_BEGIN
 90
        0
 91
        1
 62
     0
 92
       -2
340
0
 93
        0
 40
0.045
309
GRIDFORMAT_END
 95
        4
302
GRIDFORMAT
  1
GRIDFORMAT_BEGIN
 90
        0
 91
        1
 62
     0
 92
       -2
340
0
 93
        0
 40
0.045
309
GRIDFORMAT_END
 95
        8
302
GRIDFORMAT
  1
GRIDFORMAT_BEGIN
 90
        0
 91
        1
 62
     0
 92
       -2
340
0
 93
        0
 40
0.045
309
GRIDFORMAT_END
 95
       16
302
GRIDFORMAT
  1
GRIDFORMAT_BEGIN
 90
        0
 91
        1
 62
     0
 92
       -2
340
0
 93
        0
 40
0.045
309
GRIDFORMAT_END
 95
       32
302
GRIDFORMAT
  1
GRIDFORMAT_BEGIN
 90
        0
 91
        1
 62
     0
 92
       -2
340
0
 93
        0
 40
0.045
309
GRIDFORMAT_END
309
TABLEFORMAT_END
  1
CELLSTYLE_BEGIN
 90
        1
 91
        1
300
_TITLE
309
CELLSTYLE_END
300
CELLSTYLE
  1
TABLEFORMAT_BEGIN
 90
        5
170
     1
 91
        0
 92
        0
 62
   257
 93
        1
300
CONTENTFORMAT
  1
CONTENTFORMAT_BEGIN
 90
        0
 91
        0
 92
      512
 93
        0
300

 40
0.0
140
1.0
 94
        5
 62
     0
340
17
144
0.18
309
CONTENTFORMAT_END
171
     0
 94
        6
 95
        1
302
GRIDFORMAT
  1
GRIDFORMAT_BEGIN
 90
        0
 91
        1
 62
     0
 92
       -2
340
0
 93
        0
 40
0.045
309
GRIDFORMAT_END
 95
        2
302
GRIDFORMAT
  1
GRIDFORMAT_BEGIN
 90
        0
 91
        1
 62
     0
 92
       -2
340
0
 93
        0
 40
0.045
309
GRIDFORMAT_END
 95
        4
302
GRIDFORMAT
  1
GRIDFORMAT_BEGIN
 90
        0
 91
        1
 62
     0
 92
       -2
340
0
 93
        0
 40
0.045
309
GRIDFORMAT_END
 95
        8
302
GRIDFORMAT
  1
GRIDFORMAT_BEGIN
 90
        0
 91
        1
 62
     0
 92
       -2
340
0
 93
        0
 40
0.045
309
GRIDFORMAT_END
 95
       16
302
GRIDFORMAT
  1
GRIDFORMAT_BEGIN
 90
        0
 91
        1
 62
     0
 92
       -2
340
0
 93
        0
 40
0.045
309
GRIDFORMAT_END
 95
       32
302
GRIDFORMAT
  1
GRIDFORMAT_BEGIN
 90
        0
 91
        1
 62
     0
 92
       -2
340
0
 93
        0
 40
0.045
309
GRIDFORMAT_END
309
TABLEFORMAT_END
  1
CELLSTYLE_BEGIN
 90
        2
 91
        1
300
_HEADER
309
CELLSTYLE_END
300
CELLSTYLE
  1
TABLEFORMAT_BEGIN
 90
        5
170
     1
 91
        0
 92
        0
 62
   257
 93
        1
300
CONTENTFORMAT
  1
CONTENTFORMAT_BEGIN
 90
        0
 91
        0
 92
      512
 93
        0
300

 40
0.0
140
1.0
 94
        2
 62
     0
340
17
144
0.18
309
CONTENTFORMAT_END
171
     0
 94
        6
 95
        1
302
GRIDFORMAT
  1
GRIDFORMAT_BEGIN
 90
        0
 91
        1
 62
     0
 92
       -2
340
0
 93
        0
 40
0.045
309
GRIDFORMAT_END
 95
        2
302
GRIDFORMAT
  1
GRIDFORMAT_BEGIN
 90
        0
 91
        1
 62
     0
 92
       -2
340
0
 93
        0
 40
0.045
309
GRIDFORMAT_END
 95
        4
302
GRIDFORMAT
  1
GRIDFORMAT_BEGIN
 90
        0
 91
        1
 62
     0
 92
       -2
340
0
 93
        0
 40
0.045
309
GRIDFORMAT_END
 95
        8
302
GRIDFORMAT
  1
GRIDFORMAT_BEGIN
 90
        0
 91
        1
 62
     0
 92
       -2
340
0
 93
        0
 40
0.045
309
GRIDFORMAT_END
 95
       16
302
GRIDFORMAT
  1
GRIDFORMAT_BEGIN
 90
        0
 91
        1
 62
     0
 92
       -2
340
0
 93
        0
 40
0.045
309
GRIDFORMAT_END
 95
       32
302
GRIDFORMAT
  1
GRIDFORMAT_BEGIN
 90
        0
 91
        1
 62
     0
 92
       -2
340
0
 93
        0
 40
0.045
309
GRIDFORMAT_END
309
TABLEFORMAT_END
  1
CELLSTYLE_BEGIN
 90
        3
 91
        2
300
_DATA
309
CELLSTYLE_END
  0
XRECORD
  5
5DF
102
{ACAD_REACTORS
330
5D6
102
}
330
5D6
100
AcDbXrecord
280
     1
102
ACAD_ROUNDTRIP_PRE2007_TABLESTYLE
 90
      512
 91
        0
  1

 92
      512
 93
        0
  2

 94
      512
 95
        0
  3

  0
ENDSEC
  0
EOF
