  0
SECTION
  2
HEADER
  9
$ACADVER
  1
AC1018
  9
$ACADMAINTVER
 70
   104
  9
$DWGCODEPAGE
  3
ANSI_1252
  9
$LASTSAVEDBY
  1
EARL
  9
$INSBASE
 10
0.0
 20
0.0
 30
0.0
  9
$EXTMIN
 10
-5.068281333333333
 20
-0.5374071923076924
 30
0.0
  9
$EXTMAX
 10
2.139536999999999
 20
7.872738999999999
 30
0.0
  9
$LIMMIN
 10
0.0
 20
0.0
  9
$LIMMAX
 10
0.0
 20
0.0
  9
$ORTHOMODE
 70
     0
  9
$REGENMODE
 70
     1
  9
$FILLMODE
 70
     1
  9
$QTEXTMODE
 70
     0
  9
$MIRRTEXT
 70
     1
  9
$LTSCALE
 40
1.0
  9
$ATTMODE
 70
     1
  9
$TEXTSIZE
 40
0.0
  9
$TRACEWID
 40
0.05
  9
$TEXTSTYLE
  7
Standard
  9
$CLAYER
  8
0
  9
$CELTYPE
  6
Continuous
  9
$CECOLOR
 62
   256
  9
$CELTSCALE
 40
1.0
  9
$DISPSILH
 70
     0
  9
$DIMSCALE
 40
1.0
  9
$DIMASZ
 40
0.18
  9
$DIMEXO
 40
0.0625
  9
$DIMDLI
 40
0.38
  9
$DIMRND
 40
0.0
  9
$DIMDLE
 40
0.0
  9
$DIMEXE
 40
0.18
  9
$DIMTP
 40
0.0
  9
$DIMTM
 40
0.0
  9
$DIMTXT
 40
0.18
  9
$DIMCEN
 40
0.09
  9
$DIMTSZ
 40
0.0
  9
$DIMTOL
 70
     0
  9
$DIMLIM
 70
     0
  9
$DIMTIH
 70
     1
  9
$DIMTOH
 70
     1
  9
$DIMSE1
 70
     0
  9
$DIMSE2
 70
     0
  9
$DIMTAD
 70
     0
  9
$DIMZIN
 70
     0
  9
$DIMBLK
  1

  9
$DIMASO
 70
     1
  9
$DIMSHO
 70
     1
  9
$DIMPOST
  1

  9
$DIMAPOST
  1

  9
$DIMALT
 70
     0
  9
$DIMALTD
 70
     2
  9
$DIMALTF
 40
25.4
  9
$DIMLFAC
 40
1.0
  9
$DIMTOFL
 70
     0
  9
$DIMTVP
 40
0.0
  9
$DIMTIX
 70
     0
  9
$DIMSOXD
 70
     0
  9
$DIMSAH
 70
     0
  9
$DIMBLK1
  1

  9
$DIMBLK2
  1

  9
$DIMSTYLE
  2
Standard
  9
$DIMCLRD
 70
     0
  9
$DIMCLRE
 70
     0
  9
$DIMCLRT
 70
     0
  9
$DIMTFAC
 40
1.0
  9
$DIMGAP
 40
0.09
  9
$DIMJUST
 70
     0
  9
$DIMSD1
 70
     0
  9
$DIMSD2
 70
     0
  9
$DIMTOLJ
 70
     1
  9
$DIMTZIN
 70
     0
  9
$DIMALTZ
 70
     0
  9
$DIMALTTZ
 70
     0
  9
$DIMUPT
 70
     0
  9
$DIMDEC
 70
     4
  9
$DIMTDEC
 70
     4
  9
$DIMALTU
 70
     2
  9
$DIMALTTD
 70
     2
  9
$DIMTXSTY
  7
Standard
  9
$DIMAUNIT
 70
     0
  9
$DIMADEC
 70
     0
  9
$DIMALTRND
 40
0.0
  9
$DIMAZIN
 70
     0
  9
$DIMDSEP
 70
    46
  9
$DIMATFIT
 70
     0
  9
$DIMFRAC
 70
     0
  9
$DIMLDRBLK
  1

  9
$DIMLUNIT
 70
     2
  9
$DIMLWD
 70
    -2
  9
$DIMLWE
 70
    -2
  9
$DIMTMOVE
 70
     0
  9
$LUNITS
 70
     2
  9
$LUPREC
 70
     4
  9
$SKETCHINC
 40
0.1
  9
$FILLETRAD
 40
0.0
  9
$AUNITS
 70
     0
  9
$AUPREC
 70
     0
  9
$MENU
  1
acad
  9
$ELEVATION
 40
0.0
  9
$PELEVATION
 40
0.0
  9
$THICKNESS
 40
0.0
  9
$LIMCHECK
 70
     0
  9
$CHAMFERA
 40
0.0
  9
$CHAMFERB
 40
0.0
  9
$CHAMFERC
 40
0.0
  9
$CHAMFERD
 40
0.0
  9
$SKPOLY
 70
     0
  9
$TDCREATE
 40
2454509.130798612
  9
$TDUCREATE
 40
2454509.297465278
  9
$TDUPDATE
 40
2455095.969999271
  9
$TDUUPDATE
 40
2455096.136665938
  9
$TDINDWG
 40
0.0023359606
  9
$TDUSRTIMER
 40
0.0023359606
  9
$USRTIMER
 70
     1
  9
$ANGBASE
 50
0.0
  9
$ANGDIR
 70
     0
  9
$PDMODE
 70
     0
  9
$PDSIZE
 40
0.0
  9
$PLINEWID
 40
0.0
  9
$SPLFRAME
 70
     0
  9
$SPLINETYPE
 70
     6
  9
$SPLINESEGS
 70
     8
  9
$HANDSEED
  5
240
  9
$SURFTAB1
 70
     6
  9
$SURFTAB2
 70
     6
  9
$SURFTYPE
 70
     6
  9
$SURFU
 70
     6
  9
$SURFV
 70
     6
  9
$UCSBASE
  2

  9
$UCSNAME
  2

  9
$UCSORG
 10
0.0
 20
0.0
 30
0.0
  9
$UCSXDIR
 10
1.0
 20
0.0
 30
0.0
  9
$UCSYDIR
 10
0.0
 20
1.0
 30
0.0
  9
$UCSORTHOREF
  2

  9
$UCSORTHOVIEW
 70
     0
  9
$UCSORGTOP
 10
0.0
 20
0.0
 30
0.0
  9
$UCSORGBOTTOM
 10
0.0
 20
0.0
 30
0.0
  9
$UCSORGLEFT
 10
0.0
 20
0.0
 30
0.0
  9
$UCSORGRIGHT
 10
0.0
 20
0.0
 30
0.0
  9
$UCSORGFRONT
 10
0.0
 20
0.0
 30
0.0
  9
$UCSORGBACK
 10
0.0
 20
0.0
 30
0.0
  9
$PUCSBASE
  2

  9
$PUCSNAME
  2

  9
$PUCSORG
 10
0.0
 20
0.0
 30
0.0
  9
$PUCSXDIR
 10
1.0
 20
0.0
 30
0.0
  9
$PUCSYDIR
 10
0.0
 20
1.0
 30
0.0
  9
$PUCSORTHOREF
  2

  9
$PUCSORTHOVIEW
 70
     0
  9
$PUCSORGTOP
 10
0.0
 20
0.0
 30
0.0
  9
$PUCSORGBOTTOM
 10
0.0
 20
0.0
 30
0.0
  9
$PUCSORGLEFT
 10
0.0
 20
0.0
 30
0.0
  9
$PUCSORGRIGHT
 10
0.0
 20
0.0
 30
0.0
  9
$PUCSORGFRONT
 10
0.0
 20
0.0
 30
0.0
  9
$PUCSORGBACK
 10
0.0
 20
0.0
 30
0.0
  9
$USERI1
 70
     0
  9
$USERI2
 70
     0
  9
$USERI3
 70
     0
  9
$USERI4
 70
     0
  9
$USERI5
 70
     0
  9
$USERR1
 40
0.0
  9
$USERR2
 40
0.0
  9
$USERR3
 40
0.0
  9
$USERR4
 40
0.0
  9
$USERR5
 40
0.0
  9
$WORLDVIEW
 70
     1
  9
$SHADEDGE
 70
     3
  9
$SHADEDIF
 70
    70
  9
$TILEMODE
 70
     0
  9
$MAXACTVP
 70
    16
  9
$PINSBASE
 10
0.0
 20
0.0
 30
0.0
  9
$PLIMCHECK
 70
     0
  9
$PEXTMIN
 10
-0.0733027175222354
 20
-0.078529332350616
 30
-0.0015258207003583
  9
$PEXTMAX
 10
10.39445523190006
 20
7.962852275722276
 30
0.0000000349246037
  9
$PLIMMIN
 10
-0.3306119115190196
 20
-0.2812499079328949
  9
$PLIMMAX
 10
10.66938784818509
 20
8.218749851771214
  9
$UNITMODE
 70
     0
  9
$VISRETAIN
 70
     0
  9
$PLINEGEN
 70
     1
  9
$PSLTSCALE
 70
     0
  9
$TREEDEPTH
 70
  3020
  9
$CMLSTYLE
  2
Standard
  9
$CMLJUST
 70
     0
  9
$CMLSCALE
 40
1.0
  9
$PROXYGRAPHICS
 70
     0
  9
$MEASUREMENT
 70
     0
  9
$CELWEIGHT
370
     0
  9
$ENDCAPS
280
     0
  9
$JOINSTYLE
280
     0
  9
$LWDISPLAY
290
     0
  9
$INSUNITS
 70
     0
  9
$HYPERLINKBASE
  1

  9
$STYLESHEET
  1

  9
$XEDIT
290
     1
  9
$CEPSNTYPE
380
     0
  9
$PSTYLEMODE
290
     1
  9
$FINGERPRINTGUID
  2

  9
$VERSIONGUID
  2
{40961A6F-4FF2-4D1B-8D3C-022C3724306B}
  9
$EXTNAMES
290
     1
  9
$PSVPSCALE
 40
0.0
  9
$OLESTARTUP
290
     0
  9
$SORTENTS
280
   127
  9
$INDEXCTL
280
     0
  9
$HIDETEXT
280
     0
  9
$XCLIPFRAME
290
     0
  9
$HALOGAP
280
     0
  9
$OBSCOLOR
 70
   257
  9
$OBSLTYPE
280
     0
  9
$INTERSECTIONDISPLAY
280
     0
  9
$INTERSECTIONCOLOR
 70
   257
  9
$DIMASSOC
280
     1
  9
$PROJECTNAME
  1

  0
ENDSEC
  0
SECTION
  2
CLASSES
  0
CLASS
  1
IMAGE
  2
AcDbRasterImage
  3
ISM
 90
     2175
 91
        0
280
     0
281
     1
  0
CLASS
  1
DICTIONARYVAR
  2
AcDbDictionaryVar
  3
ObjectDBX Classes
 90
        0
 91
        5
280
     0
281
     0
  0
CLASS
  1
RASTERVARIABLES
  2
AcDbRasterVariables
  3
ISM
 90
        0
 91
        0
280
     0
281
     0
  0
CLASS
  1
IMAGEDEF
  2
AcDbRasterImageDef
  3
ISM
 90
        0
 91
        0
280
     0
281
     0
  0
CLASS
  1
IMAGEDEF_REACTOR
  2
AcDbRasterImageDefReactor
  3
ISM
 90
        1
 91
        0
280
     0
281
     0
  0
CLASS
  1
IDBUFFER
  2
AcDbIdBuffer
  3
ObjectDBX Classes
 90
        0
 91
        0
280
     0
281
     0
  0
CLASS
  1
SPATIAL_FILTER
  2
AcDbSpatialFilter
  3
ObjectDBX Classes
 90
        0
 91
        0
280
     0
281
     0
  0
CLASS
  1
SORTENTSTABLE
  2
AcDbSortentsTable
  3
ObjectDBX Classes
 90
        0
 91
        1
280
     0
281
     0
  0
CLASS
  1
LAYER_INDEX
  2
AcDbLayerIndex
  3
ObjectDBX Classes
 90
        0
 91
        0
280
     0
281
     0
  0
CLASS
  1
SPATIAL_INDEX
  2
AcDbSpatialIndex
  3
ObjectDBX Classes
 90
        0
 91
        0
280
     0
281
     0
  0
CLASS
  1
OBJECT_PTR
  2
CAseDLPNTableRecord
  3
ASE-LPNTableRecord
 90
        1
 91
        0
280
     0
281
     0
  0
CLASS
  1
PLOTSETTINGS
  2
AcDbPlotSettings
  3
ObjectDBX Classes
 90
        0
 91
        0
280
     0
281
     0
  0
CLASS
  1
ACDBDICTIONARYWDFLT
  2
AcDbDictionaryWithDefault
  3
ObjectDBX Classes
 90
        0
 91
        1
280
     0
281
     0
  0
CLASS
  1
WIPEOUT
  2
AcDbWipeout
  3
"WipeOut|Product Desc: Object Enabler for WipeOut entity                        |Company: Autodesk, Inc.                        |WEB Address: www.autodesk.com"
 90
     2175
 91
        0
280
     0
281
     1
  0
CLASS
  1
WIPEOUTVARIABLES
  2
AcDbWipeoutVariables
  3
"WipeOut|Product Desc:     WipeOut Dbx Application|Company:          Autodesk, Inc.|WEB Address:      www.autodesk.com"
 90
        0
 91
        1
280
     0
281
     0
  0
CLASS
  1
RTEXT
  2
RText
  3
RText|AutoCAD Express Tool|expresstools@autodesk.com
 90
     3071
 91
        0
280
     0
281
     1
  0
CLASS
  1
ARCALIGNEDTEXT
  2
AcDbArcAlignedText
  3
ATEXT|AutoCAD Express Tool|expresstools@autodesk.com
 90
        0
 91
        0
280
     0
281
     1
  0
CLASS
  1
MATERIAL
  2
AcDbMaterial
  3
ObjectDBX Classes
 90
     1153
 91
        3
280
     0
281
     0
  0
CLASS
  1
VISUALSTYLE
  2
AcDbVisualStyle
  3
ObjectDBX Classes
 90
     4095
 91
       16
280
     0
281
     0
  0
CLASS
  1
TABLESTYLE
  2
AcDbTableStyle
  3
ObjectDBX Classes
 90
     4095
 91
        1
280
     0
281
     0
  0
CLASS
  1
SCALE
  2
AcDbScale
  3
ObjectDBX Classes
 90
     1153
 91
       33
280
     0
281
     0
  0
CLASS
  1
MLEADERSTYLE
  2
AcDbMLeaderStyle
  3
ACDB_MLEADERSTYLE_CLASS
 90
     4095
 91
        1
280
     0
281
     0
  0
CLASS
  1
CELLSTYLEMAP
  2
AcDbCellStyleMap
  3
ObjectDBX Classes
 90
     1152
 91
        2
280
     0
281
     0
  0
ENDSEC
  0
SECTION
  2
TABLES
  0
TABLE
  2
VPORT
  5
7
330
0
100
AcDbSymbolTable
 70
     1
  0
VPORT
  5
15
330
7
100
AcDbSymbolTableRecord
100
AcDbViewportTableRecord
  2
*ACTIVE
 70
     0
 10
0.0
 20
0.0
 11
1.0
 21
1.0
 12
13.28065635736906
 22
4.579183999999999
 13
0.0
 23
0.0
 14
1.0
 24
1.0
 15
0.0
 25
0.0
 16
0.0
 26
0.0
 36
1.0
 17
0.0
 27
0.0
 37
0.0
 40
9.158369
 41
2.149384885764499
 42
50.0
 43
0.0
 44
0.0
 50
0.0
 51
0.0
 71
     0
 72
   100
 73
     1
 74
     1
 75
     0
 76
     0
 77
     0
 78
     0
281
     0
 65
     0
110
0.0
120
0.0
130
0.0
111
1.0
121
0.0
131
0.0
112
0.0
122
1.0
132
0.0
 79
     0
146
0.0
  0
ENDTAB
  0
TABLE
  2
LTYPE
  5
4
330
0
100
AcDbSymbolTable
 70
     6
  0
LTYPE
  5
11
330
4
100
AcDbSymbolTableRecord
100
AcDbLinetypeTableRecord
  2
ByBlock
 70
     0
  3

 72
    65
 73
     0
 40
0.0
  0
LTYPE
  5
12
330
4
100
AcDbSymbolTableRecord
100
AcDbLinetypeTableRecord
  2
ByLayer
 70
     0
  3

 72
    65
 73
     0
 40
0.0
  0
LTYPE
  5
13
330
4
100
AcDbSymbolTableRecord
100
AcDbLinetypeTableRecord
  2
Continuous
 70
     0
  3
Solid line
 72
    65
 73
     0
 40
0.0
  0
LTYPE
  5
24
330
4
100
AcDbSymbolTableRecord
100
AcDbLinetypeTableRecord
  2
solid
 70
     0
  3

 72
    65
 73
     0
 40
0.0
  0
LTYPE
  5
25
330
4
100
AcDbSymbolTableRecord
100
AcDbLinetypeTableRecord
  2
dashed
 70
     0
  3

 72
    65
 73
     0
 40
0.0
  0
LTYPE
  5
26
330
4
100
AcDbSymbolTableRecord
100
AcDbLinetypeTableRecord
  2
center
 70
     0
  3

 72
    65
 73
     0
 40
0.0
  0
ENDTAB
  0
TABLE
  2
LAYER
  5
2
330
0
100
AcDbSymbolTable
 70
     3
  0
LAYER
  5
14
102
{ACAD_XDICTIONARY
360
1EC
102
}
330
2
100
AcDbSymbolTableRecord
100
AcDbLayerTableRecord
  2
0
 70
     0
 62
     7
  6
Continuous
370
    -3
390
1D
  0
LAYER
  5
27
102
{ACAD_XDICTIONARY
360
1EE
102
}
330
2
100
AcDbSymbolTableRecord
100
AcDbLayerTableRecord
  2
1
 70
     0
 62
     1
  6
solid
370
    -3
390
1D
  0
LAYER
  5
99
102
{ACAD_XDICTIONARY
360
1F0
102
}
330
2
100
AcDbSymbolTableRecord
100
AcDbLayerTableRecord
  2
0
 70
     0
 62
     1
  6
solid
370
    -3
390
1D
  0
ENDTAB
  0
TABLE
  2
STYLE
  5
3
330
0
100
AcDbSymbolTable
 70
     4
  0
STYLE
  5
17
330
3
100
AcDbSymbolTableRecord
100
AcDbTextStyleTableRecord
  2
Standard
 70
     0
 40
0.0
 41
1.0
 50
0.0
 71
     0
 42
0.0
  3
txt
  4

  0
ENDTAB
  0
TABLE
  2
VIEW
  5
5
330
0
100
AcDbSymbolTable
 70
     0
  0
ENDTAB
  0
TABLE
  2
UCS
  5
6
330
0
100
AcDbSymbolTable
 70
     0
  0
ENDTAB
  0
TABLE
  2
APPID
  5
8
330
0
100
AcDbSymbolTable
 70
     5
  0
APPID
  5
16
330
8
100
AcDbSymbolTableRecord
100
AcDbRegAppTableRecord
  2
ACAD
 70
     0
  0
APPID
  5
1B7
330
8
100
AcDbSymbolTableRecord
100
AcDbRegAppTableRecord
  2
ACAD_PSEXT
 70
     0
  0
APPID
  5
1BC
330
8
100
AcDbSymbolTableRecord
100
AcDbRegAppTableRecord
  2
DCO15
 70
     0
  0
APPID
  5
1E5
330
8
100
AcDbSymbolTableRecord
100
AcDbRegAppTableRecord
  2
ACAD_MLEADERVER
 70
     0
  0
APPID
  5
210
330
8
100
AcDbSymbolTableRecord
100
AcDbRegAppTableRecord
  2
ACAD_EXEMPT_FROM_CAD_STANDARDS
 70
     0
  0
ENDTAB
  0
TABLE
  2
DIMSTYLE
  5
9
330
0
100
AcDbSymbolTable
 70
     5
100
AcDbDimStyleTable
 71
     1
340
18
  0
DIMSTYLE
105
18
330
9
100
AcDbSymbolTableRecord
100
AcDbDimStyleTableRecord
  2
Standard
 70
     0
289
     0
340
17
  0
ENDTAB
  0
TABLE
  2
BLOCK_RECORD
  5
1
330
0
100
AcDbSymbolTable
 70
     6
  0
BLOCK_RECORD
  5
A
102
{ACAD_XDICTIONARY
360
201
102
}
330
1
100
AcDbSymbolTableRecord
100
AcDbBlockTableRecord
  2
*MODEL_SPACE
340
20
  0
BLOCK_RECORD
  5
B
330
1
100
AcDbSymbolTableRecord
100
AcDbBlockTableRecord
  2
*PAPER_SPACE
340
21
  0
BLOCK_RECORD
  5
BA
330
1
100
AcDbSymbolTableRecord
100
AcDbBlockTableRecord
  2
*D0
340
0
  0
BLOCK_RECORD
  5
C5
330
1
100
AcDbSymbolTableRecord
100
AcDbBlockTableRecord
  2
*D1
340
0
  0
ENDTAB
  0
ENDSEC
  0
SECTION
  2
BLOCKS
  0
BLOCK
  5
D
330
A
100
AcDbEntity
  8
0
100
AcDbBlockBegin
  2
*MODEL_SPACE
 70
     0
 10
0.0
 20
0.0
 30
0.0
  3
*MODEL_SPACE
  1

  0
ENDBLK
  5
E
330
A
100
AcDbEntity
  8
0
100
AcDbBlockEnd
  0
BLOCK
  5
F
330
B
100
AcDbEntity
 67
     1
  8
0
100
AcDbBlockBegin
  2
*PAPER_SPACE
 70
     0
 10
0.0
 20
0.0
 30
0.0
  3
*PAPER_SPACE
  1

  0
ENDBLK
  5
10
330
B
100
AcDbEntity
 67
     1
  8
0
100
AcDbBlockEnd
  0
BLOCK
  5
BB
330
BA
100
AcDbEntity
  8
0
  6
solid
 62
     0
100
AcDbBlockBegin
  2
*D0
 70
     0
 10
0.0
 20
0.0
 30
0.0
  3
*D0
  1

  0
LINE
  5
BC
330
BA
100
AcDbEntity
  8
0
  6
solid
 62
     0
100
AcDbLine
 10
-3.548205999999999
 20
0.0945780000000003
 30
0.0
 11
-4.609948000000002
 21
0.0945780000000013
 31
0.0
  0
LINE
  5
BD
330
BA
100
AcDbEntity
  8
0
  6
solid
 62
     0
100
AcDbLine
 10
-3.02821
 20
7.476327
 30
0.0
 11
-4.609947999999997
 21
7.476327000000001
 31
0.0
  0
LINE
  5
BE
330
BA
100
AcDbEntity
  8
0
  6
solid
 62
     0
100
AcDbLine
 10
-4.484948000000002
 20
0.0945780000000012
 30
0.0
 11
-4.484948
 21
3.465707307692308
 31
0.0
  0
LINE
  5
BF
330
BA
100
AcDbEntity
  8
0
  6
solid
 62
     0
100
AcDbLine
 10
-4.484947999999997
 20
7.476327000000001
 30
0.0
 11
-4.484948
 21
4.105197692307691
 31
0.0
  0
MTEXT
  5
C0
330
BA
100
AcDbEntity
  8
0
  6
solid
 62
     0
100
AcDbMText
 10
-4.484948
 20
3.785452499999999
 30
0.0
 40
0.25
 41
0.0
 71
     5
 72
     1
  1
{\H0.250000;7 3/8}
 73
     1
 44
1.0
  0
SOLID
  5
C1
330
BA
100
AcDbEntity
  8
0
  6
solid
 62
     0
100
AcDbTrace
 10
-4.526573000000002
 20
0.3445780000000012
 30
0.0
 11
-4.443323000000003
 21
0.3445780000000012
 31
0.0
 12
-4.484948000000002
 22
0.0945780000000012
 32
0.0
 13
-4.484948000000002
 23
0.0945780000000012
 33
0.0
  0
SOLID
  5
C2
330
BA
100
AcDbEntity
  8
0
  6
solid
 62
     0
100
AcDbTrace
 10
-4.443322999999997
 20
7.226327000000001
 30
0.0
 11
-4.526572999999997
 21
7.226327000000001
 31
0.0
 12
-4.484947999999997
 22
7.476327000000001
 32
0.0
 13
-4.484947999999997
 23
7.476327000000001
 33
0.0
  0
ENDBLK
  5
C3
330
BA
100
AcDbEntity
  8
0
  6
solid
 62
     0
100
AcDbBlockEnd
  0
BLOCK
  5
C6
330
C5
100
AcDbEntity
  8
0
  6
solid
 62
     0
100
AcDbBlockBegin
  2
*D1
 70
     0
 10
0.0
 20
0.0
 30
0.0
  3
*D1
  1

  0
LINE
  5
C7
330
C5
100
AcDbEntity
  8
0
  6
solid
 62
     0
100
AcDbLine
 10
-3.600438
 20
0.554842
 30
0.0
 11
-3.600438
 21
-0.5374071923076924
 31
0.0
  0
LINE
  5
C8
330
C5
100
AcDbEntity
  8
0
  6
solid
 62
     0
100
AcDbLine
 10
-1.983727999999999
 20
6.261275
 30
0.0
 11
-1.983727999999999
 21
-0.5374071923076924
 31
0.0
  0
LINE
  5
C9
330
C5
100
AcDbEntity
  8
0
  6
solid
 62
     0
100
AcDbLine
 10
-3.600438
 20
-0.4124071923076924
 30
0.0
 11
-3.466082999999999
 21
-0.4124071923076924
 31
0.0
  0
LINE
  5
CA
330
C5
100
AcDbEntity
  8
0
  6
solid
 62
     0
100
AcDbLine
 10
-1.983727999999999
 20
-0.4124071923076924
 30
0.0
 11
-2.118082999999999
 21
-0.4124071923076924
 31
0.0
  0
MTEXT
  5
CB
330
C5
100
AcDbEntity
  8
0
  6
solid
 62
     0
100
AcDbMText
 10
-2.792082999999999
 20
-0.4124071923076924
 30
0.0
 40
0.25
 41
0.0
 71
     5
 72
     1
  1
{\H0.250000;1 5/8}
 73
     1
 44
1.0
  0
SOLID
  5
CC
330
C5
100
AcDbEntity
  8
0
  6
solid
 62
     0
100
AcDbTrace
 10
-3.350438
 20
-0.3707821923076926
 30
0.0
 11
-3.350438
 21
-0.4540321923076926
 31
0.0
 12
-3.600438
 22
-0.4124071923076924
 32
0.0
 13
-3.600438
 23
-0.4124071923076924
 33
0.0
  0
SOLID
  5
CD
330
C5
100
AcDbEntity
  8
0
  6
solid
 62
     0
100
AcDbTrace
 10
-2.233727999999999
 20
-0.4540321923076924
 30
0.0
 11
-2.233727999999999
 21
-0.3707821923076923
 31
0.0
 12
-1.983727999999999
 22
-0.4124071923076924
 32
0.0
 13
-1.983727999999999
 23
-0.4124071923076924
 33
0.0
  0
ENDBLK
  5
CE
330
C5
100
AcDbEntity
  8
0
  6
solid
 62
     0
100
AcDbBlockEnd
  0
ENDSEC
  0
SECTION
  2
ENTITIES
  0
LINE
  5
28
330
A
100
AcDbEntity
  8
1
  6
solid
 62
     7
100
AcDbLine
 10
0.006601
 20
5.5746
 30
0.0
 11
0.7723520000000001
 21
6.007178999999999
 31
0.0
  0
LINE
  5
29
330
A
100
AcDbEntity
  8
1
  6
solid
 62
     7
100
AcDbLine
 10
0.006601
 20
5.5746
 30
0.0
 11
0.0
 21
0.772764
 31
0.0
  0
LINE
  5
2A
330
A
100
AcDbEntity
  8
1
  6
solid
 62
     7
100
AcDbLine
 10
0.0
 20
0.772764
 30
0.0
 11
0.302232
 21
0.0625
 31
0.0
  0
LINE
  5
2B
330
A
100
AcDbEntity
  8
1
  6
solid
 62
     7
100
AcDbLine
 10
0.7723520000000001
 20
6.007178999999999
 30
0.0
 11
0.154073
 21
7.282810999999999
 31
0.0
  0
LINE
  5
2C
330
A
100
AcDbEntity
  8
1
  6
solid
 62
     7
100
AcDbLine
 10
0.204736
 20
1.111402999999999
 30
0.0
 11
0.173849
 21
1.111402999999999
 31
0.0
  0
LINE
  5
2D
330
A
100
AcDbEntity
  8
1
  6
solid
 62
     7
100
AcDbLine
 10
0.173849
 20
1.111402999999999
 30
0.0
 11
0.173849
 21
1.222472999999999
 31
0.0
  0
SPLINE
  5
2E
330
A
100
AcDbEntity
  8
1
  6
solid
 62
     7
100
AcDbSpline
210
0.0
220
0.0
230
1.0
 70
     8
 71
     2
 72
     6
 73
     3
 74
     0
 42
0.0000000001
 43
0.0000000001
 40
0.0
 40
0.0
 40
0.0
 40
1.0
 40
1.0
 40
1.0
 10
0.1738490202719376
 20
1.222472872029569
 30
0.0
 10
0.1576089039928679
 20
1.204769383657476
 30
0.0
 10
0.1356949505044947
 20
1.196794965052825
 30
0.0
  0
LINE
  5
2F
330
A
100
AcDbEntity
  8
1
  6
solid
 62
     7
100
AcDbLine
 10
0.135695
 20
1.196795
 30
0.0
 11
0.135695
 21
1.227681999999999
 31
0.0
  0
SPLINE
  5
30
330
A
100
AcDbEntity
  8
1
  6
solid
 62
     7
100
AcDbSpline
210
0.0
220
0.0
230
1.0
 70
     8
 71
     2
 72
     7
 73
     4
 74
     0
 42
0.0000000001
 43
0.0000000001
 40
0.0
 40
0.0
 40
0.0
 40
1.0
 40
2.0
 40
2.0
 40
2.0
 10
0.1356949505044947
 20
1.227681592959802
 30
0.0
 10
0.1471728574812392
 20
1.231482755750499
 30
0.0
 10
0.1747048342254258
 20
1.253173453424918
 30
0.0
 10
0.1799507644579839
 20
1.26765252319236
 30
0.0
  0
LINE
  5
31
330
A
100
AcDbEntity
  8
1
  6
solid
 62
     7
100
AcDbLine
 10
0.179951
 20
1.267652999999999
 30
0.0
 11
0.204736
 21
1.267652999999999
 31
0.0
  0
LINE
  5
32
330
A
100
AcDbEntity
  8
1
  6
solid
 62
     7
100
AcDbLine
 10
0.204736
 20
1.111402999999999
 30
0.0
 11
0.204736
 21
1.267652999999999
 31
0.0
  0
LINE
  5
33
330
A
100
AcDbEntity
  8
1
  6
solid
 62
     7
100
AcDbLine
 10
0.226086
 20
1.153189999999999
 30
0.0
 11
0.226086
 21
1.180442999999999
 31
0.0
  0
LINE
  5
34
330
A
100
AcDbEntity
  8
1
  6
solid
 62
     7
100
AcDbLine
 10
0.226086
 20
1.180442999999999
 30
0.0
 11
0.286042
 21
1.180442999999999
 31
0.0
  0
LINE
  5
35
330
A
100
AcDbEntity
  8
1
  6
solid
 62
     7
100
AcDbLine
 10
0.286042
 20
1.180442999999999
 30
0.0
 11
0.286042
 21
1.153189999999999
 31
0.0
  0
LINE
  5
36
330
A
100
AcDbEntity
  8
1
  6
solid
 62
     7
100
AcDbLine
 10
0.226086
 20
1.153189999999999
 30
0.0
 11
0.286042
 21
1.153189999999999
 31
0.0
  0
LINE
  5
37
330
A
100
AcDbEntity
  8
1
  6
solid
 62
     7
100
AcDbLine
 10
0.307392
 20
1.157029
 30
0.0
 11
0.334645
 21
1.160457999999999
 31
0.0
  0
SPLINE
  5
38
330
A
100
AcDbEntity
  8
1
  6
solid
 62
     7
100
AcDbSpline
210
0.0
220
0.0
230
1.0
 70
     8
 71
     2
 72
     7
 73
     4
 74
     0
 42
0.0000000001
 43
0.0000000001
 40
0.0
 40
0.0
 40
0.0
 40
1.0
 40
2.0
 40
2.0
 40
2.0
 10
0.3346449505044946
 20
1.160457755750499
 30
0.0
 10
0.3355379737603093
 20
1.149556592959802
 30
0.0
 10
0.3493100667835645
 20
1.136838569703988
 30
0.0
 10
0.3575263458533327
 20
1.136838569703988
 30
0.0
  0
SPLINE
  5
39
330
A
100
AcDbEntity
  8
1
  6
solid
 62
     7
100
AcDbSpline
210
0.0
220
0.0
230
1.0
 70
     8
 71
     2
 72
     7
 73
     4
 74
     0
 42
0.0000000001
 43
0.0000000001
 40
0.0
 40
0.0
 40
0.0
 40
1.0
 40
2.0
 40
2.0
 40
2.0
 10
0.3575263458533327
 20
1.136838569703988
 30
0.0
 10
0.3678135551556574
 20
1.136838569703988
 30
0.0
 10
0.3818833225975187
 20
1.148856011564453
 30
0.0
 10
0.3818833225975187
 20
1.161536825517941
 30
0.0
  0
SPLINE
  5
3A
330
A
100
AcDbEntity
  8
1
  6
solid
 62
     7
100
AcDbSpline
210
0.0
220
0.0
230
1.0
 70
     8
 71
     2
 72
     7
 73
     4
 74
     0
 42
0.0000000001
 43
0.0000000001
 40
0.0
 40
0.0
 40
0.0
 40
1.0
 40
2.0
 40
2.0
 40
2.0
 10
0.3818833225975187
 20
1.161536825517941
 30
0.0
 10
0.3818833225975187
 20
1.173715313890034
 30
0.0
 10
0.3694443691091465
 20
1.185893802262127
 30
0.0
 10
0.3592315784114728
 20
1.185893802262127
 30
0.0
  0
SPLINE
  5
3B
330
A
100
AcDbEntity
  8
1
  6
solid
 62
     7
100
AcDbSpline
210
0.0
220
0.0
230
1.0
 70
     8
 71
     2
 72
     6
 73
     3
 74
     0
 42
0.0000000001
 43
0.0000000001
 40
0.0
 40
0.0
 40
0.0
 40
1.0
 40
1.0
 40
1.0
 10
0.3592315784114728
 20
1.185893802262127
 30
0.0
 10
0.3474187877137975
 20
1.185893802262127
 30
0.0
 10
0.3372804156207749
 20
1.17499263947143
 30
0.0
  0
LINE
  5
3C
330
A
100
AcDbEntity
  8
1
  6
solid
 62
     7
100
AcDbLine
 10
0.33728
 20
1.174992999999999
 30
0.0
 11
0.311026
 21
1.177813999999999
 31
0.0
  0
LINE
  5
3D
330
A
100
AcDbEntity
  8
1
  6
solid
 62
     7
100
AcDbLine
 10
0.311026
 20
1.177813999999999
 30
0.0
 11
0.329194
 21
1.265835999999999
 31
0.0
  0
LINE
  5
3E
330
A
100
AcDbEntity
  8
1
  6
solid
 62
     7
100
AcDbLine
 10
0.329194
 20
1.265835999999999
 30
0.0
 11
0.4055030000000001
 21
1.265835999999999
 31
0.0
  0
LINE
  5
3F
330
A
100
AcDbEntity
  8
1
  6
solid
 62
     7
100
AcDbLine
 10
0.4055030000000001
 20
1.265835999999999
 30
0.0
 11
0.4055030000000001
 21
1.234949
 31
0.0
  0
LINE
  5
40
330
A
100
AcDbEntity
  8
1
  6
solid
 62
     7
100
AcDbLine
 10
0.4055030000000001
 20
1.234949
 30
0.0
 11
0.353539
 21
1.234949
 31
0.0
  0
LINE
  5
41
330
A
100
AcDbEntity
  8
1
  6
solid
 62
     7
100
AcDbLine
 10
0.353539
 20
1.234949
 30
0.0
 11
0.347568
 21
1.206512
 31
0.0
  0
SPLINE
  5
42
330
A
100
AcDbEntity
  8
1
  6
solid
 62
     7
100
AcDbSpline
210
0.0
220
0.0
230
1.0
 70
     8
 71
     2
 72
     6
 73
     3
 74
     0
 42
0.0000000001
 43
0.0000000001
 40
0.0
 40
0.0
 40
0.0
 40
1.0
 40
1.0
 40
1.0
 10
0.3475676249230997
 20
1.206511825517941
 30
0.0
 10
0.3569682063184496
 20
1.213146709238871
 30
0.0
 10
0.3666478574812393
 20
1.213146709238871
 30
0.0
  0
SPLINE
  5
43
330
A
100
AcDbEntity
  8
1
  6
solid
 62
     7
100
AcDbSpline
210
0.0
220
0.0
230
1.0
 70
     8
 71
     2
 72
     7
 73
     4
 74
     0
 42
0.0000000001
 43
0.0000000001
 40
0.0
 40
0.0
 40
0.0
 40
1.0
 40
2.0
 40
2.0
 40
2.0
 10
0.3666478574812393
 20
1.213146709238871
 30
0.0
 10
0.3860193691091469
 20
1.213146709238871
 30
0.0
 10
0.4127699505044946
 20
1.184783918541197
 30
0.0
 10
0.4127699505044946
 20
1.162628104587709
 30
0.0
  0
SPLINE
  5
44
330
A
100
AcDbEntity
  8
1
  6
solid
 62
     7
100
AcDbSpline
210
0.0
220
0.0
230
1.0
 70
     8
 71
     2
 72
     6
 73
     3
 74
     0
 42
0.0000000001
 43
0.0000000001
 40
0.0
 40
0.0
 40
0.0
 40
1.0
 40
1.0
 40
1.0
 10
0.4127699505044946
 20
1.162628104587709
 30
0.0
 10
0.4127699505044946
 20
1.144143220866779
 30
0.0
 10
0.4010379737603085
 20
1.128926360401662
 30
0.0
  0
SPLINE
  5
45
330
A
100
AcDbEntity
  8
1
  6
solid
 62
     7
100
AcDbSpline
210
0.0
220
0.0
230
1.0
 70
     8
 71
     2
 72
     6
 73
     3
 74
     0
 42
0.0000000001
 43
0.0000000001
 40
0.0
 40
0.0
 40
0.0
 40
1.0
 40
1.0
 40
1.0
 10
0.4010379737603085
 20
1.128926360401662
 30
0.0
 10
0.3860007644579833
 20
1.109585662727244
 30
0.0
 10
0.358822276085891
 20
1.109585662727244
 30
0.0
  0
SPLINE
  5
46
330
A
100
AcDbEntity
  8
1
  6
solid
 62
     7
100
AcDbSpline
210
0.0
220
0.0
230
1.0
 70
     8
 71
     2
 72
     7
 73
     4
 74
     0
 42
0.0000000001
 43
0.0000000001
 40
0.0
 40
0.0
 40
0.0
 40
1.0
 40
2.0
 40
2.0
 40
2.0
 10
0.358822276085891
 20
1.109585662727244
 30
0.0
 10
0.3370943691091464
 20
1.109585662727244
 30
0.0
 10
0.309767043527752
 20
1.135244965052825
 30
0.0
 10
0.3073920435277504
 20
1.157028685983058
 30
0.0
  0
LINE
  5
47
330
A
100
AcDbEntity
  8
1
  6
solid
 62
     7
100
AcDbLine
 10
0.4330840000000001
 20
1.111402999999999
 30
0.0
 11
0.46944
 21
1.267652999999999
 31
0.0
  0
LINE
  5
48
330
A
100
AcDbEntity
  8
1
  6
solid
 62
     7
100
AcDbLine
 10
0.46944
 20
1.267652999999999
 30
0.0
 11
0.494076
 21
1.267652999999999
 31
0.0
  0
LINE
  5
49
330
A
100
AcDbEntity
  8
1
  6
solid
 62
     7
100
AcDbLine
 10
0.494076
 20
1.267652999999999
 30
0.0
 11
0.4577390000000001
 21
1.111402999999999
 31
0.0
  0
LINE
  5
4A
330
A
100
AcDbEntity
  8
1
  6
solid
 62
     7
100
AcDbLine
 10
0.4330840000000001
 20
1.111402999999999
 30
0.0
 11
0.4577390000000001
 21
1.111402999999999
 31
0.0
  0
SPLINE
  5
4B
330
A
100
AcDbEntity
  8
1
  6
solid
 62
     7
100
AcDbSpline
210
0.0
220
0.0
230
1.0
 70
     8
 71
     2
 72
     7
 73
     4
 74
     0
 42
0.0000000001
 43
0.0000000001
 40
0.0
 40
0.0
 40
0.0
 40
1.0
 40
2.0
 40
2.0
 40
2.0
 10
0.5426792528300757
 20
1.19427752319236
 30
0.0
 10
0.5301844853882152
 20
1.199374616215616
 30
0.0
 10
0.519060066783565
 20
1.216910662727244
 30
0.0
 10
0.519060066783565
 20
1.226776360401662
 30
0.0
  0
SPLINE
  5
4C
330
A
100
AcDbEntity
  8
1
  6
solid
 62
     7
100
AcDbSpline
210
0.0
220
0.0
230
1.0
 70
     8
 71
     2
 72
     7
 73
     4
 74
     0
 42
0.0000000001
 43
0.0000000001
 40
0.0
 40
0.0
 40
0.0
 40
1.0
 40
2.0
 40
2.0
 40
2.0
 10
0.519060066783565
 20
1.226776360401662
 30
0.0
 10
0.519060066783565
 20
1.244517058076081
 30
0.0
 10
0.5436280900393787
 20
1.26765252319236
 30
0.0
 10
0.5668937877137977
 20
1.26765252319236
 30
0.0
  0
SPLINE
  5
4D
330
A
100
AcDbEntity
  8
1
  6
solid
 62
     7
100
AcDbSpline
210
0.0
220
0.0
230
1.0
 70
     8
 71
     2
 72
     7
 73
     4
 74
     0
 42
0.0000000001
 43
0.0000000001
 40
0.0
 40
0.0
 40
0.0
 40
1.0
 40
2.0
 40
2.0
 40
2.0
 10
0.5668937877137977
 20
1.26765252319236
 30
0.0
 10
0.5900292528300755
 20
1.26765252319236
 30
0.0
 10
0.6153536714347263
 20
1.244517058076081
 30
0.0
 10
0.6153536714347263
 20
1.226776360401662
 30
0.0
  0
SPLINE
  5
4E
330
A
100
AcDbEntity
  8
1
  6
solid
 62
     7
100
AcDbSpline
210
0.0
220
0.0
230
1.0
 70
     8
 71
     2
 72
     7
 73
     4
 74
     0
 42
0.0000000001
 43
0.0000000001
 40
0.0
 40
0.0
 40
0.0
 40
1.0
 40
2.0
 40
2.0
 40
2.0
 10
0.6153536714347263
 20
1.226776360401662
 30
0.0
 10
0.6153536714347263
 20
1.215875197610965
 30
0.0
 10
0.6027844853882156
 20
1.199095546448174
 30
0.0
 10
0.5909780900393776
 20
1.19427752319236
 30
0.0
  0
SPLINE
  5
4F
330
A
100
AcDbEntity
  8
1
  6
solid
 62
     7
100
AcDbSpline
210
0.0
220
0.0
230
1.0
 70
     8
 71
     2
 72
     7
 73
     4
 74
     0
 42
0.0000000001
 43
0.0000000001
 40
0.0
 40
0.0
 40
0.0
 40
1.0
 40
2.0
 40
2.0
 40
2.0
 10
0.5909780900393776
 20
1.19427752319236
 30
0.0
 10
0.6048059970161228
 20
1.189676360401662
 30
0.0
 10
0.6189873923649598
 20
1.1699327557505
 30
0.0
 10
0.6189873923649598
 20
1.157121709238871
 30
0.0
  0
SPLINE
  5
50
330
A
100
AcDbEntity
  8
1
  6
solid
 62
     7
100
AcDbSpline
210
0.0
220
0.0
230
1.0
 70
     8
 71
     2
 72
     7
 73
     4
 74
     0
 42
0.0000000001
 43
0.0000000001
 40
0.0
 40
0.0
 40
0.0
 40
1.0
 40
2.0
 40
2.0
 40
2.0
 10
0.6189873923649598
 20
1.157121709238871
 30
0.0
 10
0.6189873923649598
 20
1.135728685983058
 30
0.0
 10
0.5907362295742616
 20
1.109585662727244
 30
0.0
 10
0.5674519272486807
 20
1.109585662727244
 30
0.0
  0
SPLINE
  5
51
330
A
100
AcDbEntity
  8
1
  6
solid
 62
     7
100
AcDbSpline
210
0.0
220
0.0
230
1.0
 70
     8
 71
     2
 72
     6
 73
     3
 74
     0
 42
0.0000000001
 43
0.0000000001
 40
0.0
 40
0.0
 40
0.0
 40
1.0
 40
1.0
 40
1.0
 10
0.5674519272486807
 20
1.109585662727244
 30
0.0
 10
0.5464804156207732
 20
1.109585662727244
 30
0.0
 10
0.5321129737603086
 20
1.120524034820267
 30
0.0
  0
SPLINE
  5
52
330
A
100
AcDbEntity
  8
1
  6
solid
 62
     7
100
AcDbSpline
210
0.0
220
0.0
230
1.0
 70
     8
 71
     2
 72
     6
 73
     3
 74
     0
 42
0.0000000001
 43
0.0000000001
 40
0.0
 40
0.0
 40
0.0
 40
1.0
 40
1.0
 40
1.0
 10
0.5321129737603086
 20
1.120524034820267
 30
0.0
 10
0.5154263458533315
 20
1.133390895285383
 30
0.0
 10
0.5154263458533315
 20
1.155676941797011
 30
0.0
  0
SPLINE
  5
53
330
A
100
AcDbEntity
  8
1
  6
solid
 62
     7
100
AcDbSpline
210
0.0
220
0.0
230
1.0
 70
     8
 71
     2
 72
     7
 73
     4
 74
     0
 42
0.0000000001
 43
0.0000000001
 40
0.0
 40
0.0
 40
0.0
 40
1.0
 40
2.0
 40
2.0
 40
2.0
 10
0.5154263458533315
 20
1.155676941797011
 30
0.0
 10
0.5154263458533315
 20
1.168208918541197
 30
0.0
 10
0.5284048342254249
 20
1.188696709238872
 30
0.0
 10
0.5426792528300757
 20
1.19427752319236
 30
0.0
  0
SPLINE
  5
54
330
A
100
AcDbEntity
  8
1
  6
solid
 62
     7
100
AcDbSpline
210
0.0
220
0.0
230
1.0
 70
     8
 71
     2
 72
     7
 73
     4
 74
     0
 42
0.0000000001
 43
0.0000000001
 40
0.0
 40
0.0
 40
0.0
 40
1.0
 40
2.0
 40
2.0
 40
2.0
 10
0.5499466946905418
 20
1.224754848773755
 30
0.0
 10
0.5499466946905418
 20
1.215670546448174
 30
0.0
 10
0.5592170435277497
 20
1.205879267378406
 30
0.0
 10
0.5668379737603085
 20
1.205879267378406
 30
0.0
  0
SPLINE
  5
55
330
A
100
AcDbEntity
  8
1
  6
solid
 62
     7
100
AcDbSpline
210
0.0
220
0.0
230
1.0
 70
     8
 71
     2
 72
     7
 73
     4
 74
     0
 42
0.0000000001
 43
0.0000000001
 40
0.0
 40
0.0
 40
0.0
 40
1.0
 40
2.0
 40
2.0
 40
2.0
 10
0.5668379737603085
 20
1.205879267378406
 30
0.0
 10
0.5744961132951927
 20
1.205879267378406
 30
0.0
 10
0.5844670435277504
 20
1.215744965052825
 30
0.0
 10
0.5844670435277504
 20
1.224829267378406
 30
0.0
  0
SPLINE
  5
56
330
A
100
AcDbEntity
  8
1
  6
solid
 62
     7
100
AcDbSpline
210
0.0
220
0.0
230
1.0
 70
     8
 71
     2
 72
     7
 73
     4
 74
     0
 42
0.0000000001
 43
0.0000000001
 40
0.0
 40
0.0
 40
0.0
 40
1.0
 40
2.0
 40
2.0
 40
2.0
 10
0.5844670435277504
 20
1.224829267378406
 30
0.0
 10
0.5844670435277504
 20
1.233541476680732
 30
0.0
 10
0.5745705318998438
 20
1.244033337145848
 30
0.0
 10
0.567024020271937
 20
1.244033337145848
 30
0.0
  0
SPLINE
  5
57
330
A
100
AcDbEntity
  8
1
  6
solid
 62
     7
100
AcDbSpline
210
0.0
220
0.0
230
1.0
 70
     8
 71
     2
 72
     7
 73
     4
 74
     0
 42
0.0000000001
 43
0.0000000001
 40
0.0
 40
0.0
 40
0.0
 40
1.0
 40
2.0
 40
2.0
 40
2.0
 10
0.567024020271937
 20
1.244033337145848
 30
0.0
 10
0.5592914621324017
 20
1.244033337145848
 30
0.0
 10
0.5499466946905418
 20
1.233467058076081
 30
0.0
 10
0.5499466946905418
 20
1.224754848773755
 30
0.0
  0
SPLINE
  5
58
330
A
100
AcDbEntity
  8
1
  6
solid
 62
     7
100
AcDbSpline
210
0.0
220
0.0
230
1.0
 70
     8
 71
     2
 72
     7
 73
     4
 74
     0
 42
0.0000000001
 43
0.0000000001
 40
0.0
 40
0.0
 40
0.0
 40
1.0
 40
2.0
 40
2.0
 40
2.0
 10
0.5463129737603083
 20
1.158771127843523
 30
0.0
 10
0.5463129737603083
 20
1.14646240691329
 30
0.0
 10
0.5580327412021698
 20
1.133204848773755
 30
0.0
 10
0.5671356481789136
 20
1.133204848773755
 30
0.0
  0
SPLINE
  5
59
330
A
100
AcDbEntity
  8
1
  6
solid
 62
     7
100
AcDbSpline
210
0.0
220
0.0
230
1.0
 70
     8
 71
     2
 72
     7
 73
     4
 74
     0
 42
0.0000000001
 43
0.0000000001
 40
0.0
 40
0.0
 40
0.0
 40
1.0
 40
2.0
 40
2.0
 40
2.0
 10
0.5671356481789136
 20
1.133204848773755
 30
0.0
 10
0.5760897179463545
 20
1.133204848773755
 30
0.0
 10
0.588100764457983
 20
1.14612752319236
 30
0.0
 10
0.588100764457983
 20
1.157940313890034
 30
0.0
  0
SPLINE
  5
5A
330
A
100
AcDbEntity
  8
1
  6
solid
 62
     7
100
AcDbSpline
210
0.0
220
0.0
230
1.0
 70
     8
 71
     2
 72
     7
 73
     4
 74
     0
 42
0.0000000001
 43
0.0000000001
 40
0.0
 40
0.0
 40
0.0
 40
1.0
 40
2.0
 40
2.0
 40
2.0
 10
0.588100764457983
 20
1.157940313890034
 30
0.0
 10
0.588100764457983
 20
1.168711244122592
 30
0.0
 10
0.575959485388216
 20
1.182260081331895
 30
0.0
 10
0.5668565784114712
 20
1.182260081331895
 30
0.0
  0
SPLINE
  5
5B
330
A
100
AcDbEntity
  8
1
  6
solid
 62
     7
100
AcDbSpline
210
0.0
220
0.0
230
1.0
 70
     8
 71
     2
 72
     7
 73
     4
 74
     0
 42
0.0000000001
 43
0.0000000001
 40
0.0
 40
0.0
 40
0.0
 40
1.0
 40
2.0
 40
2.0
 40
2.0
 10
0.5668565784114712
 20
1.182260081331895
 30
0.0
 10
0.556215880737053
 20
1.182260081331895
 30
0.0
 10
0.5463129737603083
 20
1.166931592959802
 30
0.0
 10
0.5463129737603083
 20
1.158771127843523
 30
0.0
  0
LINE
  5
5C
330
A
100
AcDbEntity
  8
1
  6
solid
 62
     7
100
AcDbLine
 10
0.6641
 20
1.111402999999999
 30
0.0
 11
0.7180100000000001
 21
1.193515
 31
0.0
  0
LINE
  5
5D
330
A
100
AcDbEntity
  8
1
  6
solid
 62
     7
100
AcDbLine
 10
0.7180100000000001
 20
1.193515
 30
0.0
 11
0.66955
 21
1.267652999999999
 31
0.0
  0
LINE
  5
5E
330
A
100
AcDbEntity
  8
1
  6
solid
 62
     7
100
AcDbLine
 10
0.66955
 20
1.267652999999999
 30
0.0
 11
0.705869
 21
1.267652999999999
 31
0.0
  0
LINE
  5
5F
330
A
100
AcDbEntity
  8
1
  6
solid
 62
     7
100
AcDbLine
 10
0.705869
 20
1.267652999999999
 30
0.0
 11
0.736179
 21
1.221195999999999
 31
0.0
  0
LINE
  5
60
330
A
100
AcDbEntity
  8
1
  6
solid
 62
     7
100
AcDbLine
 10
0.736179
 20
1.221195999999999
 30
0.0
 11
0.765844
 21
1.267652999999999
 31
0.0
  0
LINE
  5
61
330
A
100
AcDbEntity
  8
1
  6
solid
 62
     7
100
AcDbLine
 10
0.765844
 20
1.267652999999999
 30
0.0
 11
0.802181
 21
1.267652999999999
 31
0.0
  0
LINE
  5
62
330
A
100
AcDbEntity
  8
1
  6
solid
 62
     7
100
AcDbLine
 10
0.802181
 20
1.267652999999999
 30
0.0
 11
0.7543470000000001
 21
1.193515
 31
0.0
  0
LINE
  5
63
330
A
100
AcDbEntity
  8
1
  6
solid
 62
     7
100
AcDbLine
 10
0.7543470000000001
 20
1.193515
 30
0.0
 11
0.807632
 21
1.111402999999999
 31
0.0
  0
LINE
  5
64
330
A
100
AcDbEntity
  8
1
  6
solid
 62
     7
100
AcDbLine
 10
0.807632
 20
1.111402999999999
 30
0.0
 11
0.7712940000000001
 21
1.111402999999999
 31
0.0
  0
LINE
  5
65
330
A
100
AcDbEntity
  8
1
  6
solid
 62
     7
100
AcDbLine
 10
0.7712940000000001
 20
1.111402999999999
 30
0.0
 11
0.736179
 21
1.165226
 31
0.0
  0
LINE
  5
66
330
A
100
AcDbEntity
  8
1
  6
solid
 62
     7
100
AcDbLine
 10
0.736179
 20
1.165226
 30
0.0
 11
0.700418
 21
1.111402999999999
 31
0.0
  0
LINE
  5
67
330
A
100
AcDbEntity
  8
1
  6
solid
 62
     7
100
AcDbLine
 10
0.6641
 20
1.111402999999999
 30
0.0
 11
0.700418
 21
1.111402999999999
 31
0.0
  0
LINE
  5
68
330
A
100
AcDbEntity
  8
1
  6
solid
 62
     7
100
AcDbLine
 10
0.8533699999999999
 20
1.234949
 30
0.0
 11
0.8533699999999999
 21
1.265835999999999
 31
0.0
  0
LINE
  5
69
330
A
100
AcDbEntity
  8
1
  6
solid
 62
     7
100
AcDbLine
 10
0.8533699999999999
 20
1.265835999999999
 30
0.0
 11
0.9569309999999999
 21
1.265835999999999
 31
0.0
  0
LINE
  5
6A
330
A
100
AcDbEntity
  8
1
  6
solid
 62
     7
100
AcDbLine
 10
0.9569309999999999
 20
1.265835999999999
 30
0.0
 11
0.9569309999999999
 21
1.242215999999999
 31
0.0
  0
SPLINE
  5
6B
330
A
100
AcDbEntity
  8
1
  6
solid
 62
     7
100
AcDbSpline
210
0.0
220
0.0
230
1.0
 70
     8
 71
     2
 72
     8
 73
     5
 74
     0
 42
0.0000000001
 43
0.0000000001
 40
0.0
 40
0.0
 40
0.0
 40
1.0
 40
2.0
 40
3.0
 40
3.0
 40
3.0
 10
0.9569309970161219
 20
1.242216476680732
 30
0.0
 10
0.9442129737603073
 20
1.229758918541197
 30
0.0
 10
0.917592624923099
 20
1.183246127843523
 30
0.0
 10
0.9035600667835632
 20
1.131685662727244
 30
0.0
 10
0.9042420435277493
 20
1.11140252319236
 30
0.0
  0
LINE
  5
6C
330
A
100
AcDbEntity
  8
1
  6
solid
 62
     7
100
AcDbLine
 10
0.9042419999999999
 20
1.111402999999999
 30
0.0
 11
0.8733549999999999
 21
1.111402999999999
 31
0.0
  0
SPLINE
  5
6D
330
A
100
AcDbEntity
  8
1
  6
solid
 62
     7
100
AcDbSpline
210
0.0
220
0.0
230
1.0
 70
     8
 71
     2
 72
     7
 73
     4
 74
     0
 42
0.0000000001
 43
0.0000000001
 40
0.0
 40
0.0
 40
0.0
 40
1.0
 40
2.0
 40
2.0
 40
2.0
 10
0.8733554156207725
 20
1.11140252319236
 30
0.0
 10
0.8738577412021681
 20
1.142810081331895
 30
0.0
 10
0.8999077412021687
 20
1.208551941797011
 30
0.0
 10
0.9224850667835635
 20
1.234949034820267
 30
0.0
  0
LINE
  5
6E
330
A
100
AcDbEntity
  8
1
  6
solid
 62
     7
100
AcDbLine
 10
0.8533699999999999
 20
1.234949
 30
0.0
 11
0.9224849999999999
 21
1.234949
 31
0.0
  0
LINE
  5
6F
330
A
100
AcDbEntity
  8
1
  6
solid
 62
     7
100
AcDbLine
 10
0.9782809999999999
 20
1.153189999999999
 30
0.0
 11
0.9782809999999999
 21
1.180442999999999
 31
0.0
  0
LINE
  5
70
330
A
100
AcDbEntity
  8
1
  6
solid
 62
     7
100
AcDbLine
 10
0.9782809999999999
 20
1.180442999999999
 30
0.0
 11
1.038237
 21
1.180442999999999
 31
0.0
  0
LINE
  5
71
330
A
100
AcDbEntity
  8
1
  6
solid
 62
     7
100
AcDbLine
 10
1.038237
 20
1.180442999999999
 30
0.0
 11
1.038237
 21
1.153189999999999
 31
0.0
  0
LINE
  5
72
330
A
100
AcDbEntity
  8
1
  6
solid
 62
     7
100
AcDbLine
 10
0.9782809999999999
 20
1.153189999999999
 30
0.0
 11
1.038237
 21
1.153189999999999
 31
0.0
  0
LINE
  5
73
330
A
100
AcDbEntity
  8
1
  6
solid
 62
     7
100
AcDbLine
 10
1.059587
 20
1.156824
 30
0.0
 11
1.090473999999999
 21
1.160457999999999
 31
0.0
  0
SPLINE
  5
74
330
A
100
AcDbEntity
  8
1
  6
solid
 62
     7
100
AcDbSpline
210
0.0
220
0.0
230
1.0
 70
     8
 71
     2
 72
     7
 73
     4
 74
     0
 42
0.0000000001
 43
0.0000000001
 40
0.0
 40
0.0
 40
0.0
 40
1.0
 40
2.0
 40
2.0
 40
2.0
 10
1.090474020271935
 20
1.160457755750499
 30
0.0
 10
1.091329834225424
 20
1.148558337145848
 30
0.0
 10
1.1032664621324
 20
1.136838569703988
 30
0.0
 10
1.111129252830076
 20
1.136838569703988
 30
0.0
  0
SPLINE
  5
75
330
A
100
AcDbEntity
  8
1
  6
solid
 62
     7
100
AcDbSpline
210
0.0
220
0.0
230
1.0
 70
     8
 71
     2
 72
     7
 73
     4
 74
     0
 42
0.0000000001
 43
0.0000000001
 40
0.0
 40
0.0
 40
0.0
 40
1.0
 40
2.0
 40
2.0
 40
2.0
 10
1.111129252830076
 20
1.136838569703988
 30
0.0
 10
1.120008903992866
 20
1.136838569703988
 30
0.0
 10
1.132261810969609
 20
1.148893220866779
 30
0.0
 10
1.132261810969609
 20
1.159682755750499
 30
0.0
  0
SPLINE
  5
76
330
A
100
AcDbEntity
  8
1
  6
solid
 62
     7
100
AcDbSpline
210
0.0
220
0.0
230
1.0
 70
     8
 71
     2
 72
     7
 73
     4
 74
     0
 42
0.0000000001
 43
0.0000000001
 40
0.0
 40
0.0
 40
0.0
 40
1.0
 40
2.0
 40
2.0
 40
2.0
 10
1.132261810969609
 20
1.159682755750499
 30
0.0
 10
1.132261810969609
 20
1.170081592959802
 30
0.0
 10
1.121397857481238
 20
1.182260081331895
 30
0.0
 10
1.113169369109145
 20
1.182260081331895
 30
0.0
  0
SPLINE
  5
77
330
A
100
AcDbEntity
  8
1
  6
solid
 62
     7
100
AcDbSpline
210
0.0
220
0.0
230
1.0
 70
     8
 71
     2
 72
     6
 73
     3
 74
     0
 42
0.0000000001
 43
0.0000000001
 40
0.0
 40
0.0
 40
0.0
 40
1.0
 40
1.0
 40
1.0
 10
1.113169369109145
 20
1.182260081331895
 30
0.0
 10
1.107923438876586
 20
1.182260081331895
 30
0.0
 10
1.101375183062633
 20
1.179537988308639
 30
0.0
  0
LINE
  5
78
330
A
100
AcDbEntity
  8
1
  6
solid
 62
     7
100
AcDbLine
 10
1.101374999999999
 20
1.179537999999999
 30
0.0
 11
1.103806
 21
1.205878999999999
 31
0.0
  0
SPLINE
  5
79
330
A
100
AcDbEntity
  8
1
  6
solid
 62
     7
100
AcDbSpline
210
0.0
220
0.0
230
1.0
 70
     8
 71
     2
 72
     7
 73
     4
 74
     0
 42
0.0000000001
 43
0.0000000001
 40
0.0
 40
0.0
 40
0.0
 40
1.0
 40
2.0
 40
2.0
 40
2.0
 10
1.103805997016121
 20
1.205879267378406
 30
0.0
 10
1.114223438876586
 20
1.205029848773755
 30
0.0
 10
1.124994369109145
 20
1.21557752319236
 30
0.0
 10
1.124994369109145
 20
1.224326941797011
 30
0.0
  0
SPLINE
  5
7A
330
A
100
AcDbEntity
  8
1
  6
solid
 62
     7
100
AcDbSpline
210
0.0
220
0.0
230
1.0
 70
     8
 71
     2
 72
     7
 73
     4
 74
     0
 42
0.0000000001
 43
0.0000000001
 40
0.0
 40
0.0
 40
0.0
 40
1.0
 40
2.0
 40
2.0
 40
2.0
 10
1.124994369109145
 20
1.224326941797011
 30
0.0
 10
1.124994369109145
 20
1.231594383657476
 30
0.0
 10
1.116710066783563
 20
1.240399616215616
 30
0.0
 10
1.110571113295191
 20
1.240399616215616
 30
0.0
  0
SPLINE
  5
7B
330
A
100
AcDbEntity
  8
1
  6
solid
 62
     7
100
AcDbSpline
210
0.0
220
0.0
230
1.0
 70
     8
 71
     2
 72
     7
 73
     4
 74
     0
 42
0.0000000001
 43
0.0000000001
 40
0.0
 40
0.0
 40
0.0
 40
1.0
 40
2.0
 40
2.0
 40
2.0
 10
1.110571113295191
 20
1.240399616215616
 30
0.0
 10
1.103843206318448
 20
1.240399616215616
 30
0.0
 10
1.094758903992866
 20
1.229963569703988
 30
0.0
 10
1.094107741202168
 20
1.220414151099337
 30
0.0
  0
LINE
  5
7C
330
A
100
AcDbEntity
  8
1
  6
solid
 62
     7
100
AcDbLine
 10
1.094108
 20
1.220414
 30
0.0
 11
1.063220999999999
 21
1.224606
 31
0.0
  0
SPLINE
  5
7D
330
A
100
AcDbEntity
  8
1
  6
solid
 62
     7
100
AcDbSpline
210
0.0
220
0.0
230
1.0
 70
     8
 71
     2
 72
     8
 73
     5
 74
     0
 42
0.0000000001
 43
0.0000000001
 40
0.0
 40
0.0
 40
0.0
 40
1.0
 40
2.0
 40
3.0
 40
3.0
 40
3.0
 10
1.063221113295191
 20
1.224606011564453
 30
0.0
 10
1.065689136551005
 20
1.239345546448174
 30
0.0
 10
1.07690657841147
 20
1.257235081331895
 30
0.0
 10
1.097778671434726
 20
1.26765252319236
 30
0.0
 10
1.109814717946354
 20
1.26765252319236
 30
0.0
  0
SPLINE
  5
7E
330
A
100
AcDbEntity
  8
1
  6
solid
 62
     7
100
AcDbSpline
210
0.0
220
0.0
230
1.0
 70
     8
 71
     2
 72
     6
 73
     3
 74
     0
 42
0.0000000001
 43
0.0000000001
 40
0.0
 40
0.0
 40
0.0
 40
1.0
 40
1.0
 40
1.0
 10
1.109814717946354
 20
1.26765252319236
 30
0.0
 10
1.131505415620772
 20
1.26765252319236
 30
0.0
 10
1.145072857481238
 20
1.253359499936546
 30
0.0
  0
SPLINE
  5
7F
330
A
100
AcDbEntity
  8
1
  6
solid
 62
     7
100
AcDbSpline
210
0.0
220
0.0
230
1.0
 70
     8
 71
     2
 72
     6
 73
     3
 74
     0
 42
0.0000000001
 43
0.0000000001
 40
0.0
 40
0.0
 40
0.0
 40
1.0
 40
1.0
 40
1.0
 10
1.145072857481238
 20
1.253359499936546
 30
0.0
 10
1.155880997016122
 20
1.241385662727244
 30
0.0
 10
1.155880997016122
 20
1.22683217435515
 30
0.0
  0
SPLINE
  5
80
330
A
100
AcDbEntity
  8
1
  6
solid
 62
     7
100
AcDbSpline
210
0.0
220
0.0
230
1.0
 70
     8
 71
     2
 72
     6
 73
     3
 74
     0
 42
0.0000000001
 43
0.0000000001
 40
0.0
 40
0.0
 40
0.0
 40
1.0
 40
1.0
 40
1.0
 10
1.155880997016122
 20
1.22683217435515
 30
0.0
 10
1.155880997016122
 20
1.206362988308639
 30
0.0
 10
1.132596694690541
 20
1.193905430169104
 30
0.0
  0
SPLINE
  5
81
330
A
100
AcDbEntity
  8
1
  6
solid
 62
     7
100
AcDbSpline
210
0.0
220
0.0
230
1.0
 70
     8
 71
     2
 72
     7
 73
     4
 74
     0
 42
0.0000000001
 43
0.0000000001
 40
0.0
 40
0.0
 40
0.0
 40
1.0
 40
2.0
 40
2.0
 40
2.0
 10
1.132596694690541
 20
1.193905430169104
 30
0.0
 10
1.146040299341703
 20
1.19143740691329
 30
0.0
 10
1.163148438876586
 20
1.17171240691329
 30
0.0
 10
1.163148438876586
 20
1.157624034820267
 30
0.0
  0
SPLINE
  5
82
330
A
100
AcDbEntity
  8
1
  6
solid
 62
     7
100
AcDbSpline
210
0.0
220
0.0
230
1.0
 70
     8
 71
     2
 72
     7
 73
     4
 74
     0
 42
0.0000000001
 43
0.0000000001
 40
0.0
 40
0.0
 40
0.0
 40
1.0
 40
2.0
 40
2.0
 40
2.0
 10
1.163148438876586
 20
1.157624034820267
 30
0.0
 10
1.163148438876586
 20
1.137545546448174
 30
0.0
 10
1.132857159806819
 20
1.109585662727244
 30
0.0
 10
1.11070134585333
 20
1.109585662727244
 30
0.0
  0
SPLINE
  5
83
330
A
100
AcDbEntity
  8
1
  6
solid
 62
     7
100
AcDbSpline
210
0.0
220
0.0
230
1.0
 70
     8
 71
     2
 72
     7
 73
     4
 74
     0
 42
0.0000000001
 43
0.0000000001
 40
0.0
 40
0.0
 40
0.0
 40
1.0
 40
2.0
 40
2.0
 40
2.0
 10
1.11070134585333
 20
1.109585662727244
 30
0.0
 10
1.089326927248679
 20
1.109585662727244
 30
0.0
 10
1.061683322597517
 20
1.135468220866779
 30
0.0
 10
1.059587392364959
 20
1.156824034820267
 30
0.0
  0
LINE
  5
84
330
A
100
AcDbEntity
  8
1
  6
solid
 62
     7
100
AcDbLine
 10
1.183462999999999
 20
1.111402999999999
 30
0.0
 11
1.219818999999999
 21
1.267652999999999
 31
0.0
  0
LINE
  5
85
330
A
100
AcDbEntity
  8
1
  6
solid
 62
     7
100
AcDbLine
 10
1.219818999999999
 20
1.267652999999999
 30
0.0
 11
1.244455
 21
1.267652999999999
 31
0.0
  0
LINE
  5
86
330
A
100
AcDbEntity
  8
1
  6
solid
 62
     7
100
AcDbLine
 10
1.244455
 20
1.267652999999999
 30
0.0
 11
1.208118
 21
1.111402999999999
 31
0.0
  0
LINE
  5
87
330
A
100
AcDbEntity
  8
1
  6
solid
 62
     7
100
AcDbLine
 10
1.183462999999999
 20
1.111402999999999
 30
0.0
 11
1.208118
 21
1.111402999999999
 31
0.0
  0
SPLINE
  5
88
330
A
100
AcDbEntity
  8
1
  6
solid
 62
     7
100
AcDbSpline
210
0.0
220
0.0
230
1.0
 70
     8
 71
     2
 72
     7
 73
     4
 74
     0
 42
0.0000000001
 43
0.0000000001
 40
0.0
 40
0.0
 40
0.0
 40
1.0
 40
2.0
 40
2.0
 40
2.0
 10
1.293057741202168
 20
1.19427752319236
 30
0.0
 10
1.280562973760307
 20
1.199374616215616
 30
0.0
 10
1.269438555155656
 20
1.216910662727244
 30
0.0
 10
1.269438555155656
 20
1.226776360401662
 30
0.0
  0
SPLINE
  5
89
330
A
100
AcDbEntity
  8
1
  6
solid
 62
     7
100
AcDbSpline
210
0.0
220
0.0
230
1.0
 70
     8
 71
     2
 72
     7
 73
     4
 74
     0
 42
0.0000000001
 43
0.0000000001
 40
0.0
 40
0.0
 40
0.0
 40
1.0
 40
2.0
 40
2.0
 40
2.0
 10
1.269438555155656
 20
1.226776360401662
 30
0.0
 10
1.269438555155656
 20
1.244517058076081
 30
0.0
 10
1.29400657841147
 20
1.26765252319236
 30
0.0
 10
1.317272276085889
 20
1.26765252319236
 30
0.0
  0
SPLINE
  5
8A
330
A
100
AcDbEntity
  8
1
  6
solid
 62
     7
100
AcDbSpline
210
0.0
220
0.0
230
1.0
 70
     8
 71
     2
 72
     7
 73
     4
 74
     0
 42
0.0000000001
 43
0.0000000001
 40
0.0
 40
0.0
 40
0.0
 40
1.0
 40
2.0
 40
2.0
 40
2.0
 10
1.317272276085889
 20
1.26765252319236
 30
0.0
 10
1.340407741202168
 20
1.26765252319236
 30
0.0
 10
1.365732159806819
 20
1.244517058076081
 30
0.0
 10
1.365732159806819
 20
1.226776360401662
 30
0.0
  0
SPLINE
  5
8B
330
A
100
AcDbEntity
  8
1
  6
solid
 62
     7
100
AcDbSpline
210
0.0
220
0.0
230
1.0
 70
     8
 71
     2
 72
     7
 73
     4
 74
     0
 42
0.0000000001
 43
0.0000000001
 40
0.0
 40
0.0
 40
0.0
 40
1.0
 40
2.0
 40
2.0
 40
2.0
 10
1.365732159806819
 20
1.226776360401662
 30
0.0
 10
1.365732159806819
 20
1.215875197610965
 30
0.0
 10
1.353162973760307
 20
1.199095546448174
 30
0.0
 10
1.34135657841147
 20
1.19427752319236
 30
0.0
  0
SPLINE
  5
8C
330
A
100
AcDbEntity
  8
1
  6
solid
 62
     7
100
AcDbSpline
210
0.0
220
0.0
230
1.0
 70
     8
 71
     2
 72
     7
 73
     4
 74
     0
 42
0.0000000001
 43
0.0000000001
 40
0.0
 40
0.0
 40
0.0
 40
1.0
 40
2.0
 40
2.0
 40
2.0
 10
1.34135657841147
 20
1.19427752319236
 30
0.0
 10
1.355184485388214
 20
1.189676360401662
 30
0.0
 10
1.369365880737051
 20
1.1699327557505
 30
0.0
 10
1.369365880737051
 20
1.157121709238871
 30
0.0
  0
SPLINE
  5
8D
330
A
100
AcDbEntity
  8
1
  6
solid
 62
     7
100
AcDbSpline
210
0.0
220
0.0
230
1.0
 70
     8
 71
     2
 72
     7
 73
     4
 74
     0
 42
0.0000000001
 43
0.0000000001
 40
0.0
 40
0.0
 40
0.0
 40
1.0
 40
2.0
 40
2.0
 40
2.0
 10
1.369365880737051
 20
1.157121709238871
 30
0.0
 10
1.369365880737051
 20
1.135728685983058
 30
0.0
 10
1.341114717946354
 20
1.109585662727244
 30
0.0
 10
1.317830415620772
 20
1.109585662727244
 30
0.0
  0
SPLINE
  5
8E
330
A
100
AcDbEntity
  8
1
  6
solid
 62
     7
100
AcDbSpline
210
0.0
220
0.0
230
1.0
 70
     8
 71
     2
 72
     6
 73
     3
 74
     0
 42
0.0000000001
 43
0.0000000001
 40
0.0
 40
0.0
 40
0.0
 40
1.0
 40
1.0
 40
1.0
 10
1.317830415620772
 20
1.109585662727244
 30
0.0
 10
1.296858903992866
 20
1.109585662727244
 30
0.0
 10
1.282491462132401
 20
1.120524034820267
 30
0.0
  0
SPLINE
  5
8F
330
A
100
AcDbEntity
  8
1
  6
solid
 62
     7
100
AcDbSpline
210
0.0
220
0.0
230
1.0
 70
     8
 71
     2
 72
     6
 73
     3
 74
     0
 42
0.0000000001
 43
0.0000000001
 40
0.0
 40
0.0
 40
0.0
 40
1.0
 40
1.0
 40
1.0
 10
1.282491462132401
 20
1.120524034820267
 30
0.0
 10
1.265804834225424
 20
1.133390895285383
 30
0.0
 10
1.265804834225424
 20
1.155676941797011
 30
0.0
  0
SPLINE
  5
90
330
A
100
AcDbEntity
  8
1
  6
solid
 62
     7
100
AcDbSpline
210
0.0
220
0.0
230
1.0
 70
     8
 71
     2
 72
     7
 73
     4
 74
     0
 42
0.0000000001
 43
0.0000000001
 40
0.0
 40
0.0
 40
0.0
 40
1.0
 40
2.0
 40
2.0
 40
2.0
 10
1.265804834225424
 20
1.155676941797011
 30
0.0
 10
1.265804834225424
 20
1.168208918541197
 30
0.0
 10
1.278783322597516
 20
1.188696709238872
 30
0.0
 10
1.293057741202168
 20
1.19427752319236
 30
0.0
  0
SPLINE
  5
91
330
A
100
AcDbEntity
  8
1
  6
solid
 62
     7
100
AcDbSpline
210
0.0
220
0.0
230
1.0
 70
     8
 71
     2
 72
     7
 73
     4
 74
     0
 42
0.0000000001
 43
0.0000000001
 40
0.0
 40
0.0
 40
0.0
 40
1.0
 40
2.0
 40
2.0
 40
2.0
 10
1.300325183062633
 20
1.224754848773755
 30
0.0
 10
1.300325183062633
 20
1.215670546448174
 30
0.0
 10
1.309595531899842
 20
1.205879267378406
 30
0.0
 10
1.317216462132401
 20
1.205879267378406
 30
0.0
  0
SPLINE
  5
92
330
A
100
AcDbEntity
  8
1
  6
solid
 62
     7
100
AcDbSpline
210
0.0
220
0.0
230
1.0
 70
     8
 71
     2
 72
     7
 73
     4
 74
     0
 42
0.0000000001
 43
0.0000000001
 40
0.0
 40
0.0
 40
0.0
 40
1.0
 40
2.0
 40
2.0
 40
2.0
 10
1.317216462132401
 20
1.205879267378406
 30
0.0
 10
1.324874601667284
 20
1.205879267378406
 30
0.0
 10
1.334845531899843
 20
1.215744965052825
 30
0.0
 10
1.334845531899843
 20
1.224829267378406
 30
0.0
  0
SPLINE
  5
93
330
A
100
AcDbEntity
  8
1
  6
solid
 62
     7
100
AcDbSpline
210
0.0
220
0.0
230
1.0
 70
     8
 71
     2
 72
     7
 73
     4
 74
     0
 42
0.0000000001
 43
0.0000000001
 40
0.0
 40
0.0
 40
0.0
 40
1.0
 40
2.0
 40
2.0
 40
2.0
 10
1.334845531899843
 20
1.224829267378406
 30
0.0
 10
1.334845531899843
 20
1.233541476680732
 30
0.0
 10
1.324949020271935
 20
1.244033337145848
 30
0.0
 10
1.317402508644028
 20
1.244033337145848
 30
0.0
  0
SPLINE
  5
94
330
A
100
AcDbEntity
  8
1
  6
solid
 62
     7
100
AcDbSpline
210
0.0
220
0.0
230
1.0
 70
     8
 71
     2
 72
     7
 73
     4
 74
     0
 42
0.0000000001
 43
0.0000000001
 40
0.0
 40
0.0
 40
0.0
 40
1.0
 40
2.0
 40
2.0
 40
2.0
 10
1.317402508644028
 20
1.244033337145848
 30
0.0
 10
1.309669950504493
 20
1.244033337145848
 30
0.0
 10
1.300325183062633
 20
1.233467058076081
 30
0.0
 10
1.300325183062633
 20
1.224754848773755
 30
0.0
  0
SPLINE
  5
95
330
A
100
AcDbEntity
  8
1
  6
solid
 62
     7
100
AcDbSpline
210
0.0
220
0.0
230
1.0
 70
     8
 71
     2
 72
     7
 73
     4
 74
     0
 42
0.0000000001
 43
0.0000000001
 40
0.0
 40
0.0
 40
0.0
 40
1.0
 40
2.0
 40
2.0
 40
2.0
 10
1.296691462132401
 20
1.158771127843523
 30
0.0
 10
1.296691462132401
 20
1.14646240691329
 30
0.0
 10
1.308411229574261
 20
1.133204848773755
 30
0.0
 10
1.317514136551005
 20
1.133204848773755
 30
0.0
  0
SPLINE
  5
96
330
A
100
AcDbEntity
  8
1
  6
solid
 62
     7
100
AcDbSpline
210
0.0
220
0.0
230
1.0
 70
     8
 71
     2
 72
     7
 73
     4
 74
     0
 42
0.0000000001
 43
0.0000000001
 40
0.0
 40
0.0
 40
0.0
 40
1.0
 40
2.0
 40
2.0
 40
2.0
 10
1.317514136551005
 20
1.133204848773755
 30
0.0
 10
1.326468206318447
 20
1.133204848773755
 30
0.0
 10
1.338479252830074
 20
1.14612752319236
 30
0.0
 10
1.338479252830074
 20
1.157940313890034
 30
0.0
  0
SPLINE
  5
97
330
A
100
AcDbEntity
  8
1
  6
solid
 62
     7
100
AcDbSpline
210
0.0
220
0.0
230
1.0
 70
     8
 71
     2
 72
     7
 73
     4
 74
     0
 42
0.0000000001
 43
0.0000000001
 40
0.0
 40
0.0
 40
0.0
 40
1.0
 40
2.0
 40
2.0
 40
2.0
 10
1.338479252830074
 20
1.157940313890034
 30
0.0
 10
1.338479252830074
 20
1.168711244122592
 30
0.0
 10
1.326337973760307
 20
1.182260081331895
 30
0.0
 10
1.317235066783564
 20
1.182260081331895
 30
0.0
  0
SPLINE
  5
98
330
A
100
AcDbEntity
  8
1
  6
solid
 62
     7
100
AcDbSpline
210
0.0
220
0.0
230
1.0
 70
     8
 71
     2
 72
     7
 73
     4
 74
     0
 42
0.0000000001
 43
0.0000000001
 40
0.0
 40
0.0
 40
0.0
 40
1.0
 40
2.0
 40
2.0
 40
2.0
 10
1.317235066783564
 20
1.182260081331895
 30
0.0
 10
1.306594369109144
 20
1.182260081331895
 30
0.0
 10
1.296691462132401
 20
1.166931592959802
 30
0.0
 10
1.296691462132401
 20
1.158771127843523
 30
0.0
  0
LINE
  5
9A
330
A
100
AcDbEntity
  8
0
  6
solid
 62
     0
100
AcDbLine
 10
0.302232
 20
0.0625
 30
0.0
 11
1.224663999999999
 21
0.0625
 31
0.0
  0
ARC
  5
9B
330
A
100
AcDbEntity
  8
1
  6
solid
 62
     7
100
AcDbCircle
 10
0.682165
 20
6.560552999999999
 30
0.0
 40
0.8947269999999999
100
AcDbArc
 50
35.454187
 51
126.533307
  0
ARC
  5
9C
330
A
100
AcDbEntity
  8
1
  6
solid
 62
     7
100
AcDbCircle
 10
0.163174
 20
6.316537
 30
0.0
 40
1.462609
100
AcDbArc
 50
341.3258
 51
391.444611
  0
ARC
  5
9D
330
A
100
AcDbEntity
  8
1
  6
solid
 62
     7
100
AcDbCircle
 10
-10.300657
 20
9.624788
 30
0.0
 40
12.436705
100
AcDbArc
 50
338.725348
 51
342.322296
  0
ARC
  5
9E
330
A
100
AcDbEntity
  8
1
  6
solid
 62
     7
100
AcDbCircle
 10
4.059753999999999
 20
3.868863
 30
0.0
 40
3.037408
100
AcDbArc
 50
155.835158
 51
166.834762
  0
ARC
  5
9F
330
A
100
AcDbEntity
  8
1
  6
solid
 62
     7
100
AcDbCircle
 10
3.421517999999999
 20
3.735260999999999
 30
0.0
 40
2.461835
100
AcDbArc
 50
160.410473
 51
190.448928
  0
ARC
  5
A0
330
A
100
AcDbEntity
  8
1
  6
solid
 62
     7
100
AcDbCircle
 10
4.218477
 20
3.493285999999999
 30
0.0
 40
3.22446
100
AcDbArc
 50
183.636246
 51
200.106557
  0
ARC
  5
A1
330
A
100
AcDbEntity
  8
1
  6
solid
 62
     7
100
AcDbCircle
 10
-17.459656
 20
-5.567374
 30
0.0
 40
20.274786
100
AcDbArc
 50
20.339149
 51
23.092766
  0
ARC
  5
A2
330
A
100
AcDbEntity
  8
1
  6
solid
 62
     7
100
AcDbCircle
 10
1.195918999999999
 20
6.978011999999999
 30
0.0
 40
0.8947269999999999
100
AcDbArc
 50
35.454187
 51
126.533307
  0
ARC
  5
A3
330
A
100
AcDbEntity
  8
1
  6
solid
 62
     7
100
AcDbCircle
 10
0.6769280000000001
 20
6.733996
 30
0.0
 40
1.462609
100
AcDbArc
 50
341.3258
 51
391.444611
  0
ARC
  5
A4
330
A
100
AcDbEntity
  8
1
  6
solid
 62
     7
100
AcDbCircle
 10
-9.786903
 20
10.042247
 30
0.0
 40
12.436705
100
AcDbArc
 50
338.725348
 51
342.322296
  0
ARC
  5
A5
330
A
100
AcDbEntity
  8
1
  6
solid
 62
     7
100
AcDbCircle
 10
4.573508
 20
4.286322
 30
0.0
 40
3.037408
100
AcDbArc
 50
155.835158
 51
166.834762
  0
ARC
  5
A6
330
A
100
AcDbEntity
  8
1
  6
solid
 62
     7
100
AcDbCircle
 10
3.935271999999999
 20
4.15272
 30
0.0
 40
2.461835
100
AcDbArc
 50
160.410473
 51
190.448928
  0
ARC
  5
A7
330
A
100
AcDbEntity
  8
1
  6
solid
 62
     7
100
AcDbCircle
 10
4.732230999999999
 20
3.910745
 30
0.0
 40
3.22446
100
AcDbArc
 50
183.636246
 51
200.106557
  0
ARC
  5
A8
330
A
100
AcDbEntity
  8
1
  6
solid
 62
     7
100
AcDbCircle
 10
0.763945
 20
1.45655
 30
0.0
 40
1.373421999999999
100
AcDbArc
 50
311.254919
 51
378.710397
  0
ARC
  5
A9
330
A
100
AcDbEntity
  8
1
  6
solid
 62
     7
100
AcDbCircle
 10
-16.945902
 20
-5.149915
 30
0.0
 40
20.274786
100
AcDbArc
 50
20.339149
 51
23.092766
  0
LINE
  5
AA
330
A
100
AcDbEntity
  8
1
  6
solid
 62
     7
100
AcDbLine
 10
1.224663999999999
 20
0.0625
 30
0.0
 11
1.669593
 21
0.4240350000000001
 31
0.0
  0
ARC
  5
AB
330
A
100
AcDbEntity
  8
1
  6
solid
 62
     7
100
AcDbCircle
 10
0.250191
 20
1.039090999999999
 30
0.0
 40
1.373421999999999
100
AcDbArc
 50
314.67844
 51
378.710397
  0
LINE
  5
AC
330
A
100
AcDbEntity
  8
0
  6
solid
 62
     0
100
AcDbLine
 10
0.149543
 20
7.279475999999999
 30
0.0
 11
0.6632970000000001
 21
7.696935999999999
 31
0.0
  0
LINE
  5
AD
330
A
100
AcDbEntity
  8
1
  6
solid
 62
     7
100
AcDbLine
 10
-3.593837
 20
5.606677999999999
 30
0.0
 11
-2.828085999999999
 21
6.039257
 31
0.0
  0
LINE
  5
AE
330
A
100
AcDbEntity
  8
1
  6
solid
 62
     7
100
AcDbLine
 10
-3.593837
 20
5.606677999999999
 30
0.0
 11
-3.600438
 21
0.804842
 31
0.0
  0
LINE
  5
AF
330
A
100
AcDbEntity
  8
1
  6
solid
 62
     7
100
AcDbLine
 10
-3.600438
 20
0.804842
 30
0.0
 11
-3.298205999999999
 21
0.094578
 31
0.0
  0
LINE
  5
B0
330
A
100
AcDbEntity
  8
0
  6
solid
 62
     0
100
AcDbLine
 10
-3.298205999999999
 20
0.094578
 30
0.0
 11
-2.375773999999999
 21
0.094578
 31
0.0
  0
ARC
  5
B1
330
A
100
AcDbEntity
  8
1
  6
solid
 62
     7
100
AcDbCircle
 10
-3.437263999999999
 20
6.348614999999999
 30
0.0
 40
1.462609
100
AcDbArc
 50
341.3258
 51
391.444611
  0
ARC
  5
B2
330
A
100
AcDbEntity
  8
1
  6
solid
 62
     7
100
AcDbCircle
 10
-13.901095
 20
9.656866
 30
0.0
 40
12.436705
100
AcDbArc
 50
338.725348
 51
342.322296
  0
ARC
  5
B3
330
A
100
AcDbEntity
  8
1
  6
solid
 62
     7
100
AcDbCircle
 10
0.4593160000000001
 20
3.900940999999999
 30
0.0
 40
3.037408
100
AcDbArc
 50
155.835158
 51
166.834762
  0
ARC
  5
B4
330
A
100
AcDbEntity
  8
1
  6
solid
 62
     7
100
AcDbCircle
 10
-0.17892
 20
3.767339
 30
0.0
 40
2.461835
100
AcDbArc
 50
160.410473
 51
190.448928
  0
ARC
  5
B5
330
A
100
AcDbEntity
  8
1
  6
solid
 62
     7
100
AcDbCircle
 10
0.618039
 20
3.525364
 30
0.0
 40
3.22446
100
AcDbArc
 50
183.636246
 51
200.106557
  0
ARC
  5
B6
330
A
100
AcDbEntity
  8
1
  6
solid
 62
     7
100
AcDbCircle
 10
-21.060094
 20
-5.535295999999999
 30
0.0
 40
20.274786
100
AcDbArc
 50
20.339149
 51
23.092766
  0
ARC
  5
B7
330
A
100
AcDbEntity
  8
1
  6
solid
 62
     7
100
AcDbCircle
 10
-3.350246999999999
 20
1.071169
 30
0.0
 40
1.373421999999999
100
AcDbArc
 50
314.67844
 51
378.710397
  0
ARC
  5
B8
330
A
100
AcDbEntity
  8
1
  6
solid
 62
     7
100
AcDbCircle
 10
-2.918273
 20
6.592630999999999
 30
0.0
 40
0.8947269999999999
100
AcDbArc
 50
35.454187
 51
126.533307
  0
LINE
  5
B9
330
A
100
AcDbEntity
  8
1
  6
solid
 62
     7
100
AcDbLine
 10
-2.828085999999999
 20
6.039257
 30
0.0
 11
-3.446365
 21
7.314888999999999
 31
0.0
  0
LINE
  5
D0
330
A
100
AcDbEntity
  8
0
  6
solid
 62
     0
100
AcDbLine
 10
0.1686413776864721
 20
5.116684417145952
 30
0.0
 11
0.1686413776864721
 21
5.149136340222876
 31
0.0
  0
LINE
  5
D1
330
A
100
AcDbEntity
  8
0
  6
solid
 62
     0
100
AcDbLine
 10
0.1686413776864721
 20
5.149136340222876
 30
0.0
 11
0.192170789451178
 21
5.149136340222876
 31
0.0
  0
LINE
  5
D2
330
A
100
AcDbEntity
  8
0
  6
solid
 62
     0
100
AcDbLine
 10
0.192170789451178
 20
5.149136340222876
 30
0.0
 11
0.192170789451178
 21
5.334232494069029
 31
0.0
  0
LINE
  5
D3
330
A
100
AcDbEntity
  8
0
  6
solid
 62
     0
100
AcDbLine
 10
0.192170789451178
 20
5.334232494069029
 30
0.0
 11
0.1686413776864721
 21
5.334232494069029
 31
0.0
  0
LINE
  5
D4
330
A
100
AcDbEntity
  8
0
  6
solid
 62
     0
100
AcDbLine
 10
0.1686413776864721
 20
5.334232494069029
 30
0.0
 11
0.1686413776864721
 21
5.366684417145952
 31
0.0
  0
LINE
  5
D5
330
A
100
AcDbEntity
  8
0
  6
solid
 62
     0
100
AcDbLine
 10
0.1686413776864721
 20
5.366684417145952
 30
0.0
 11
0.2402100051374525
 21
5.366684417145952
 31
0.0
  0
LINE
  5
D6
330
A
100
AcDbEntity
  8
0
  6
solid
 62
     0
100
AcDbLine
 10
0.2402100051374525
 20
5.366684417145952
 30
0.0
 11
0.2402100051374525
 21
5.334232494069029
 31
0.0
  0
LINE
  5
D7
330
A
100
AcDbEntity
  8
0
  6
solid
 62
     0
100
AcDbLine
 10
0.2402100051374525
 20
5.334232494069029
 30
0.0
 11
0.2196217698433349
 21
5.334232494069029
 31
0.0
  0
LINE
  5
D8
330
A
100
AcDbEntity
  8
0
  6
solid
 62
     0
100
AcDbLine
 10
0.2196217698433349
 20
5.334232494069029
 30
0.0
 11
0.2196217698433349
 21
5.149136340222876
 31
0.0
  0
LINE
  5
D9
330
A
100
AcDbEntity
  8
0
  6
solid
 62
     0
100
AcDbLine
 10
0.2196217698433349
 20
5.149136340222876
 30
0.0
 11
0.2701119659217662
 21
5.149136340222876
 31
0.0
  0
LINE
  5
DA
330
A
100
AcDbEntity
  8
0
  6
solid
 62
     0
100
AcDbLine
 10
0.2701119659217662
 20
5.149136340222876
 30
0.0
 11
0.2701119659217662
 21
5.194809417145952
 31
0.0
  0
LINE
  5
DB
330
A
100
AcDbEntity
  8
0
  6
solid
 62
     0
100
AcDbLine
 10
0.2701119659217662
 20
5.194809417145952
 30
0.0
 11
0.2936413776864721
 21
5.194809417145952
 31
0.0
  0
LINE
  5
DC
330
A
100
AcDbEntity
  8
0
  6
solid
 62
     0
100
AcDbLine
 10
0.2936413776864721
 20
5.194809417145952
 30
0.0
 11
0.2936413776864721
 21
5.116684417145952
 31
0.0
  0
LINE
  5
DD
330
A
100
AcDbEntity
  8
0
  6
solid
 62
     0
100
AcDbLine
 10
0.2936413776864721
 20
5.116684417145952
 30
0.0
 11
0.1686413776864721
 21
5.116684417145952
 31
0.0
  0
LINE
  5
DE
330
A
100
AcDbEntity
  8
0
  6
solid
 62
     0
100
AcDbLine
 10
0.3240335345492173
 20
5.116684417145952
 30
0.0
 11
0.3240335345492173
 21
5.149136340222876
 31
0.0
  0
LINE
  5
DF
330
A
100
AcDbEntity
  8
0
  6
solid
 62
     0
100
AcDbLine
 10
0.3240335345492173
 20
5.149136340222876
 30
0.0
 11
0.3995237306276486
 21
5.254905570992106
 31
0.0
  0
LINE
  5
E0
330
A
100
AcDbEntity
  8
0
  6
solid
 62
     0
100
AcDbLine
 10
0.3995237306276486
 20
5.254905570992106
 30
0.0
 11
0.4063864757256879
 21
5.266924801761337
 31
0.0
  0
LINE
  5
E1
330
A
100
AcDbEntity
  8
0
  6
solid
 62
     0
100
AcDbLine
 10
0.4063864757256879
 20
5.266924801761337
 30
0.0
 11
0.4093276521962761
 21
5.274136340222876
 31
0.0
  0
LINE
  5
E2
330
A
100
AcDbEntity
  8
0
  6
solid
 62
     0
100
AcDbLine
 10
0.4093276521962761
 20
5.274136340222876
 30
0.0
 11
0.4122688286668643
 21
5.287357494069029
 31
0.0
  0
LINE
  5
E3
330
A
100
AcDbEntity
  8
0
  6
solid
 62
     0
100
AcDbLine
 10
0.4122688286668643
 20
5.287357494069029
 30
0.0
 11
0.4122688286668643
 21
5.296972878684414
 31
0.0
  0
LINE
  5
E4
330
A
100
AcDbEntity
  8
0
  6
solid
 62
     0
100
AcDbLine
 10
0.4122688286668643
 20
5.296972878684414
 30
0.0
 11
0.4093276521962761
 21
5.307790186376721
 31
0.0
  0
LINE
  5
E5
330
A
100
AcDbEntity
  8
0
  6
solid
 62
     0
100
AcDbLine
 10
0.4093276521962761
 20
5.307790186376721
 30
0.0
 11
0.4063864757256879
 21
5.317405570992106
 31
0.0
  0
LINE
  5
E6
330
A
100
AcDbEntity
  8
0
  6
solid
 62
     0
100
AcDbLine
 10
0.4063864757256879
 20
5.317405570992106
 30
0.0
 11
0.4009943188629428
 21
5.324617109453645
 31
0.0
  0
LINE
  5
E7
330
A
100
AcDbEntity
  8
0
  6
solid
 62
     0
100
AcDbLine
 10
0.4009943188629428
 20
5.324617109453645
 30
0.0
 11
0.3956021620001976
 21
5.329424801761337
 31
0.0
  0
LINE
  5
E8
330
A
100
AcDbEntity
  8
0
  6
solid
 62
     0
100
AcDbLine
 10
0.3956021620001976
 20
5.329424801761337
 30
0.0
 11
0.3902100051374525
 21
5.333030570992106
 31
0.0
  0
LINE
  5
E9
330
A
100
AcDbEntity
  8
0
  6
solid
 62
     0
100
AcDbLine
 10
0.3902100051374525
 20
5.333030570992106
 30
0.0
 11
0.3818766718041192
 21
5.336636340222876
 31
0.0
  0
LINE
  5
EA
330
A
100
AcDbEntity
  8
0
  6
solid
 62
     0
100
AcDbLine
 10
0.3818766718041192
 20
5.336636340222876
 30
0.0
 11
0.3720727502354917
 21
5.336636340222876
 31
0.0
  0
LINE
  5
EB
330
A
100
AcDbEntity
  8
0
  6
solid
 62
     0
100
AcDbLine
 10
0.3720727502354917
 20
5.336636340222876
 30
0.0
 11
0.3637394169021584
 21
5.333030570992106
 31
0.0
  0
LINE
  5
EC
330
A
100
AcDbEntity
  8
0
  6
solid
 62
     0
100
AcDbLine
 10
0.3637394169021584
 20
5.333030570992106
 30
0.0
 11
0.3568766718041192
 21
5.328222878684414
 31
0.0
  0
LINE
  5
ED
330
A
100
AcDbEntity
  8
0
  6
solid
 62
     0
100
AcDbLine
 10
0.3568766718041192
 20
5.328222878684414
 30
0.0
 11
0.3529551031766682
 21
5.322213263299798
 31
0.0
  0
LINE
  5
EE
330
A
100
AcDbEntity
  8
0
  6
solid
 62
     0
100
AcDbLine
 10
0.3529551031766682
 20
5.322213263299798
 30
0.0
 11
0.3490335345492173
 21
5.317405570992106
 31
0.0
  0
LINE
  5
EF
330
A
100
AcDbEntity
  8
0
  6
solid
 62
     0
100
AcDbLine
 10
0.3490335345492173
 20
5.317405570992106
 30
0.0
 11
0.3446217698433349
 21
5.306588263299798
 31
0.0
  0
LINE
  5
F0
330
A
100
AcDbEntity
  8
0
  6
solid
 62
     0
100
AcDbLine
 10
0.3446217698433349
 20
5.306588263299798
 30
0.0
 11
0.342170789451178
 21
5.290963263299798
 31
0.0
  0
LINE
  5
F1
330
A
100
AcDbEntity
  8
0
  6
solid
 62
     0
100
AcDbLine
 10
0.342170789451178
 20
5.290963263299798
 30
0.0
 11
0.3186413776864722
 21
5.290963263299798
 31
0.0
  0
LINE
  5
F2
330
A
100
AcDbEntity
  8
0
  6
solid
 62
     0
100
AcDbLine
 10
0.3186413776864722
 20
5.290963263299798
 30
0.0
 11
0.3201119659217663
 21
5.306588263299798
 31
0.0
  0
LINE
  5
F3
330
A
100
AcDbEntity
  8
0
  6
solid
 62
     0
100
AcDbLine
 10
0.3201119659217663
 20
5.306588263299798
 30
0.0
 11
0.3240335345492173
 21
5.322213263299798
 31
0.0
  0
LINE
  5
F4
330
A
100
AcDbEntity
  8
0
  6
solid
 62
     0
100
AcDbLine
 10
0.3240335345492173
 20
5.322213263299798
 30
0.0
 11
0.3294256914119623
 21
5.334232494069029
 31
0.0
  0
LINE
  5
F5
330
A
100
AcDbEntity
  8
0
  6
solid
 62
     0
100
AcDbLine
 10
0.3294256914119623
 20
5.334232494069029
 30
0.0
 11
0.3362884365100015
 21
5.345049801761337
 31
0.0
  0
LINE
  5
F6
330
A
100
AcDbEntity
  8
0
  6
solid
 62
     0
100
AcDbLine
 10
0.3362884365100015
 20
5.345049801761337
 30
0.0
 11
0.3446217698433349
 21
5.354665186376721
 31
0.0
  0
LINE
  5
F7
330
A
100
AcDbEntity
  8
0
  6
solid
 62
     0
100
AcDbLine
 10
0.3446217698433349
 20
5.354665186376721
 30
0.0
 11
0.3529551031766682
 21
5.359472878684414
 31
0.0
  0
LINE
  5
F8
330
A
100
AcDbEntity
  8
0
  6
solid
 62
     0
100
AcDbLine
 10
0.3529551031766682
 20
5.359472878684414
 30
0.0
 11
0.3652100051374525
 21
5.365482494069029
 31
0.0
  0
LINE
  5
F9
330
A
100
AcDbEntity
  8
0
  6
solid
 62
     0
100
AcDbLine
 10
0.3652100051374525
 20
5.365482494069029
 30
0.0
 11
0.3735433384707858
 21
5.366684417145952
 31
0.0
  0
LINE
  5
FA
330
A
100
AcDbEntity
  8
0
  6
solid
 62
     0
100
AcDbLine
 10
0.3735433384707858
 20
5.366684417145952
 30
0.0
 11
0.3818766718041192
 21
5.366684417145952
 31
0.0
  0
LINE
  5
FB
330
A
100
AcDbEntity
  8
0
  6
solid
 62
     0
100
AcDbLine
 10
0.3818766718041192
 20
5.366684417145952
 30
0.0
 11
0.3941315737649035
 21
5.363078647915183
 31
0.0
  0
LINE
  5
FC
330
A
100
AcDbEntity
  8
0
  6
solid
 62
     0
100
AcDbLine
 10
0.3941315737649035
 20
5.363078647915183
 30
0.0
 11
0.403935495333531
 21
5.358270955607491
 31
0.0
  0
LINE
  5
FD
330
A
100
AcDbEntity
  8
0
  6
solid
 62
     0
100
AcDbLine
 10
0.403935495333531
 20
5.358270955607491
 30
0.0
 11
0.4132492208237271
 21
5.351059417145952
 31
0.0
  0
LINE
  5
FE
330
A
100
AcDbEntity
  8
0
  6
solid
 62
     0
100
AcDbLine
 10
0.4132492208237271
 20
5.351059417145952
 30
0.0
 11
0.4215825541570604
 21
5.340242109453645
 31
0.0
  0
LINE
  5
FF
330
A
100
AcDbEntity
  8
0
  6
solid
 62
     0
100
AcDbLine
 10
0.4215825541570604
 20
5.340242109453645
 30
0.0
 11
0.4284452992550996
 21
5.328222878684414
 31
0.0
  0
LINE
  5
100
330
A
100
AcDbEntity
  8
0
  6
solid
 62
     0
100
AcDbLine
 10
0.4284452992550996
 20
5.328222878684414
 30
0.0
 11
0.4338374561178447
 21
5.311395955607491
 31
0.0
  0
LINE
  5
101
330
A
100
AcDbEntity
  8
0
  6
solid
 62
     0
100
AcDbLine
 10
0.4338374561178447
 20
5.311395955607491
 30
0.0
 11
0.4367786325884329
 21
5.295770955607491
 31
0.0
  0
LINE
  5
102
330
A
100
AcDbEntity
  8
0
  6
solid
 62
     0
100
AcDbLine
 10
0.4367786325884329
 20
5.295770955607491
 30
0.0
 11
0.4367786325884329
 21
5.28375172483826
 31
0.0
  0
LINE
  5
103
330
A
100
AcDbEntity
  8
0
  6
solid
 62
     0
100
AcDbLine
 10
0.4367786325884329
 20
5.28375172483826
 30
0.0
 11
0.4338374561178447
 21
5.270530570992106
 31
0.0
  0
LINE
  5
104
330
A
100
AcDbEntity
  8
0
  6
solid
 62
     0
100
AcDbLine
 10
0.4338374561178447
 20
5.270530570992106
 30
0.0
 11
0.4299158874903937
 21
5.258511340222876
 31
0.0
  0
LINE
  5
105
330
A
100
AcDbEntity
  8
0
  6
solid
 62
     0
100
AcDbLine
 10
0.4299158874903937
 20
5.258511340222876
 30
0.0
 11
0.4245237306276487
 21
5.246492109453645
 31
0.0
  0
LINE
  5
106
330
A
100
AcDbEntity
  8
0
  6
solid
 62
     0
100
AcDbLine
 10
0.4245237306276487
 20
5.246492109453645
 30
0.0
 11
0.3568766718041192
 21
5.149136340222876
 31
0.0
  0
LINE
  5
107
330
A
100
AcDbEntity
  8
0
  6
solid
 62
     0
100
AcDbLine
 10
0.3568766718041192
 20
5.149136340222876
 30
0.0
 11
0.4191315737649035
 21
5.149136340222876
 31
0.0
  0
LINE
  5
108
330
A
100
AcDbEntity
  8
0
  6
solid
 62
     0
100
AcDbLine
 10
0.4191315737649035
 20
5.149136340222876
 30
0.0
 11
0.4191315737649035
 21
5.192405570992106
 31
0.0
  0
LINE
  5
109
330
A
100
AcDbEntity
  8
0
  6
solid
 62
     0
100
AcDbLine
 10
0.4191315737649035
 20
5.192405570992106
 30
0.0
 11
0.4436413776864722
 21
5.192405570992106
 31
0.0
  0
LINE
  5
10A
330
A
100
AcDbEntity
  8
0
  6
solid
 62
     0
100
AcDbLine
 10
0.4436413776864722
 20
5.192405570992106
 30
0.0
 11
0.4436413776864722
 21
5.116684417145952
 31
0.0
  0
LINE
  5
10B
330
A
100
AcDbEntity
  8
0
  6
solid
 62
     0
100
AcDbLine
 10
0.4436413776864722
 20
5.116684417145952
 30
0.0
 11
0.3240335345492173
 21
5.116684417145952
 31
0.0
  0
LINE
  5
10C
330
A
100
AcDbEntity
  8
0
  6
solid
 62
     0
100
AcDbLine
 10
0.4686413776864721
 20
5.186395955607491
 30
0.0
 11
0.4725629463139231
 21
5.169569032530567
 31
0.0
  0
LINE
  5
10D
330
A
100
AcDbEntity
  8
0
  6
solid
 62
     0
100
AcDbLine
 10
0.4725629463139231
 20
5.169569032530567
 30
0.0
 11
0.478935495333531
 21
5.155145955607491
 31
0.0
  0
LINE
  5
10E
330
A
100
AcDbEntity
  8
0
  6
solid
 62
     0
100
AcDbLine
 10
0.478935495333531
 20
5.155145955607491
 30
0.0
 11
0.4862884365100016
 21
5.14312672483826
 31
0.0
  0
LINE
  5
10F
330
A
100
AcDbEntity
  8
0
  6
solid
 62
     0
100
AcDbLine
 10
0.4862884365100016
 20
5.14312672483826
 30
0.0
 11
0.4941315737649036
 21
5.132309417145952
 31
0.0
  0
LINE
  5
110
330
A
100
AcDbEntity
  8
0
  6
solid
 62
     0
100
AcDbLine
 10
0.4941315737649036
 20
5.132309417145952
 30
0.0
 11
0.5039354953335309
 21
5.125097878684414
 31
0.0
  0
LINE
  5
111
330
A
100
AcDbEntity
  8
0
  6
solid
 62
     0
100
AcDbLine
 10
0.5039354953335309
 20
5.125097878684414
 30
0.0
 11
0.5152100051374525
 21
5.120290186376721
 31
0.0
  0
LINE
  5
112
330
A
100
AcDbEntity
  8
0
  6
solid
 62
     0
100
AcDbLine
 10
0.5152100051374525
 20
5.120290186376721
 30
0.0
 11
0.5279551031766684
 21
5.116684417145952
 31
0.0
  0
LINE
  5
113
330
A
100
AcDbEntity
  8
0
  6
solid
 62
     0
100
AcDbLine
 10
0.5279551031766684
 20
5.116684417145952
 30
0.0
 11
0.5357982404315703
 21
5.116684417145952
 31
0.0
  0
LINE
  5
114
330
A
100
AcDbEntity
  8
0
  6
solid
 62
     0
100
AcDbLine
 10
0.5357982404315703
 20
5.116684417145952
 30
0.0
 11
0.5519747110198054
 21
5.121492109453645
 31
0.0
  0
LINE
  5
115
330
A
100
AcDbEntity
  8
0
  6
solid
 62
     0
100
AcDbLine
 10
0.5519747110198054
 20
5.121492109453645
 30
0.0
 11
0.5647198090590211
 21
5.131107494069029
 31
0.0
  0
LINE
  5
116
330
A
100
AcDbEntity
  8
0
  6
solid
 62
     0
100
AcDbLine
 10
0.5647198090590211
 20
5.131107494069029
 30
0.0
 11
0.5745237306276487
 21
5.141924801761337
 31
0.0
  0
LINE
  5
117
330
A
100
AcDbEntity
  8
0
  6
solid
 62
     0
100
AcDbLine
 10
0.5745237306276487
 20
5.141924801761337
 30
0.0
 11
0.5833472600394133
 21
5.155145955607491
 31
0.0
  0
LINE
  5
118
330
A
100
AcDbEntity
  8
0
  6
solid
 62
     0
100
AcDbLine
 10
0.5833472600394133
 20
5.155145955607491
 30
0.0
 11
0.5897198090590213
 21
5.173174801761337
 31
0.0
  0
LINE
  5
119
330
A
100
AcDbEntity
  8
0
  6
solid
 62
     0
100
AcDbLine
 10
0.5897198090590213
 20
5.173174801761337
 30
0.0
 11
0.5921707894511781
 21
5.187597878684414
 31
0.0
  0
LINE
  5
11A
330
A
100
AcDbEntity
  8
0
  6
solid
 62
     0
100
AcDbLine
 10
0.5921707894511781
 20
5.187597878684414
 30
0.0
 11
0.5936413776864722
 21
5.199617109453645
 31
0.0
  0
LINE
  5
11B
330
A
100
AcDbEntity
  8
0
  6
solid
 62
     0
100
AcDbLine
 10
0.5936413776864722
 20
5.199617109453645
 30
0.0
 11
0.5936413776864722
 21
5.212838263299798
 31
0.0
  0
LINE
  5
11C
330
A
100
AcDbEntity
  8
0
  6
solid
 62
     0
100
AcDbLine
 10
0.5936413776864722
 20
5.212838263299798
 30
0.0
 11
0.5911903972943154
 21
5.233270955607491
 31
0.0
  0
LINE
  5
11D
330
A
100
AcDbEntity
  8
0
  6
solid
 62
     0
100
AcDbLine
 10
0.5911903972943154
 20
5.233270955607491
 30
0.0
 11
0.5848178482747075
 21
5.251299801761337
 31
0.0
  0
LINE
  5
11E
330
A
100
AcDbEntity
  8
0
  6
solid
 62
     0
100
AcDbLine
 10
0.5848178482747075
 20
5.251299801761337
 30
0.0
 11
0.5799158874903937
 21
5.262117109453645
 31
0.0
  0
LINE
  5
11F
330
A
100
AcDbEntity
  8
0
  6
solid
 62
     0
100
AcDbLine
 10
0.5799158874903937
 20
5.262117109453645
 30
0.0
 11
0.5720727502354918
 21
5.272934417145952
 31
0.0
  0
LINE
  5
120
330
A
100
AcDbEntity
  8
0
  6
solid
 62
     0
100
AcDbLine
 10
0.5720727502354918
 20
5.272934417145952
 30
0.0
 11
0.5632492208237271
 21
5.281347878684414
 31
0.0
  0
LINE
  5
121
330
A
100
AcDbEntity
  8
0
  6
solid
 62
     0
100
AcDbLine
 10
0.5632492208237271
 20
5.281347878684414
 30
0.0
 11
0.5544256914119624
 21
5.288559417145952
 31
0.0
  0
LINE
  5
122
330
A
100
AcDbEntity
  8
0
  6
solid
 62
     0
100
AcDbLine
 10
0.5544256914119624
 20
5.288559417145952
 30
0.0
 11
0.5456021620001977
 21
5.292165186376721
 31
0.0
  0
LINE
  5
123
330
A
100
AcDbEntity
  8
0
  6
solid
 62
     0
100
AcDbLine
 10
0.5456021620001977
 20
5.292165186376721
 30
0.0
 11
0.5328570639609821
 21
5.294569032530567
 31
0.0
  0
LINE
  5
124
330
A
100
AcDbEntity
  8
0
  6
solid
 62
     0
100
AcDbLine
 10
0.5328570639609821
 20
5.294569032530567
 30
0.0
 11
0.5255041227845114
 21
5.294569032530567
 31
0.0
  0
LINE
  5
125
330
A
100
AcDbEntity
  8
0
  6
solid
 62
     0
100
AcDbLine
 10
0.5255041227845114
 20
5.294569032530567
 30
0.0
 11
0.5152100051374525
 21
5.292165186376721
 31
0.0
  0
LINE
  5
126
330
A
100
AcDbEntity
  8
0
  6
solid
 62
     0
100
AcDbLine
 10
0.5152100051374525
 20
5.292165186376721
 30
0.0
 11
0.5063864757256878
 21
5.288559417145952
 31
0.0
  0
LINE
  5
127
330
A
100
AcDbEntity
  8
0
  6
solid
 62
     0
100
AcDbLine
 10
0.5063864757256878
 20
5.288559417145952
 30
0.0
 11
0.5014845149413741
 21
5.284953647915183
 31
0.0
  0
LINE
  5
128
330
A
100
AcDbEntity
  8
0
  6
solid
 62
     0
100
AcDbLine
 10
0.5014845149413741
 20
5.284953647915183
 30
0.0
 11
0.5103080443531388
 21
5.336636340222876
 31
0.0
  0
LINE
  5
129
330
A
100
AcDbEntity
  8
0
  6
solid
 62
     0
100
AcDbLine
 10
0.5103080443531388
 20
5.336636340222876
 30
0.0
 11
0.5720727502354918
 21
5.336636340222876
 31
0.0
  0
LINE
  5
12A
330
A
100
AcDbEntity
  8
0
  6
solid
 62
     0
100
AcDbLine
 10
0.5720727502354918
 20
5.336636340222876
 30
0.0
 11
0.5720727502354918
 21
5.366684417145952
 31
0.0
  0
LINE
  5
12B
330
A
100
AcDbEntity
  8
0
  6
solid
 62
     0
100
AcDbLine
 10
0.5720727502354918
 20
5.366684417145952
 30
0.0
 11
0.4941315737649036
 21
5.366684417145952
 31
0.0
  0
LINE
  5
12C
330
A
100
AcDbEntity
  8
0
  6
solid
 62
     0
100
AcDbLine
 10
0.4941315737649036
 20
5.366684417145952
 30
0.0
 11
0.4686413776864721
 21
5.226059417145952
 31
0.0
  0
LINE
  5
12D
330
A
100
AcDbEntity
  8
0
  6
solid
 62
     0
100
AcDbLine
 10
0.4686413776864721
 20
5.226059417145952
 30
0.0
 11
0.4902100051374525
 21
5.220049801761337
 31
0.0
  0
LINE
  5
12E
330
A
100
AcDbEntity
  8
0
  6
solid
 62
     0
100
AcDbLine
 10
0.4902100051374525
 20
5.220049801761337
 30
0.0
 11
0.4926609855296094
 21
5.229665186376721
 31
0.0
  0
LINE
  5
12F
330
A
100
AcDbEntity
  8
0
  6
solid
 62
     0
100
AcDbLine
 10
0.4926609855296094
 20
5.229665186376721
 30
0.0
 11
0.4965825541570604
 21
5.239280570992106
 31
0.0
  0
LINE
  5
130
330
A
100
AcDbEntity
  8
0
  6
solid
 62
     0
100
AcDbLine
 10
0.4965825541570604
 20
5.239280570992106
 30
0.0
 11
0.5014845149413741
 21
5.247694032530567
 31
0.0
  0
LINE
  5
131
330
A
100
AcDbEntity
  8
0
  6
solid
 62
     0
100
AcDbLine
 10
0.5014845149413741
 20
5.247694032530567
 30
0.0
 11
0.507857063960982
 21
5.254905570992106
 31
0.0
  0
LINE
  5
132
330
A
100
AcDbEntity
  8
0
  6
solid
 62
     0
100
AcDbLine
 10
0.507857063960982
 20
5.254905570992106
 30
0.0
 11
0.5152100051374525
 21
5.259713263299798
 31
0.0
  0
LINE
  5
133
330
A
100
AcDbEntity
  8
0
  6
solid
 62
     0
100
AcDbLine
 10
0.5152100051374525
 20
5.259713263299798
 30
0.0
 11
0.5240335345492172
 21
5.263319032530567
 31
0.0
  0
LINE
  5
134
330
A
100
AcDbEntity
  8
0
  6
solid
 62
     0
100
AcDbLine
 10
0.5240335345492172
 20
5.263319032530567
 30
0.0
 11
0.5328570639609821
 21
5.263319032530567
 31
0.0
  0
LINE
  5
135
330
A
100
AcDbEntity
  8
0
  6
solid
 62
     0
100
AcDbLine
 10
0.5328570639609821
 20
5.263319032530567
 30
0.0
 11
0.5431511816080408
 21
5.262117109453645
 31
0.0
  0
LINE
  5
136
330
A
100
AcDbEntity
  8
0
  6
solid
 62
     0
100
AcDbLine
 10
0.5431511816080408
 20
5.262117109453645
 30
0.0
 11
0.5505041227845114
 21
5.257309417145952
 31
0.0
  0
LINE
  5
137
330
A
100
AcDbEntity
  8
0
  6
solid
 62
     0
100
AcDbLine
 10
0.5505041227845114
 20
5.257309417145952
 30
0.0
 11
0.5568766718041191
 21
5.251299801761337
 31
0.0
  0
LINE
  5
138
330
A
100
AcDbEntity
  8
0
  6
solid
 62
     0
100
AcDbLine
 10
0.5568766718041191
 20
5.251299801761337
 30
0.0
 11
0.5632492208237271
 21
5.242886340222876
 31
0.0
  0
LINE
  5
139
330
A
100
AcDbEntity
  8
0
  6
solid
 62
     0
100
AcDbLine
 10
0.5632492208237271
 20
5.242886340222876
 30
0.0
 11
0.5681511816080408
 21
5.232069032530567
 31
0.0
  0
LINE
  5
13A
330
A
100
AcDbEntity
  8
0
  6
solid
 62
     0
100
AcDbLine
 10
0.5681511816080408
 20
5.232069032530567
 30
0.0
 11
0.5710923580786291
 21
5.22125172483826
 31
0.0
  0
LINE
  5
13B
330
A
100
AcDbEntity
  8
0
  6
solid
 62
     0
100
AcDbLine
 10
0.5710923580786291
 20
5.22125172483826
 30
0.0
 11
0.5720727502354918
 21
5.210434417145952
 31
0.0
  0
LINE
  5
13C
330
A
100
AcDbEntity
  8
0
  6
solid
 62
     0
100
AcDbLine
 10
0.5720727502354918
 20
5.210434417145952
 30
0.0
 11
0.5720727502354918
 21
5.202020955607491
 31
0.0
  0
LINE
  5
13D
330
A
100
AcDbEntity
  8
0
  6
solid
 62
     0
100
AcDbLine
 10
0.5720727502354918
 20
5.202020955607491
 30
0.0
 11
0.569621769843335
 21
5.187597878684414
 31
0.0
  0
LINE
  5
13E
330
A
100
AcDbEntity
  8
0
  6
solid
 62
     0
100
AcDbLine
 10
0.569621769843335
 20
5.187597878684414
 30
0.0
 11
0.5657002012158838
 21
5.175578647915183
 31
0.0
  0
LINE
  5
13F
330
A
100
AcDbEntity
  8
0
  6
solid
 62
     0
100
AcDbLine
 10
0.5657002012158838
 20
5.175578647915183
 30
0.0
 11
0.5593276521962761
 21
5.164761340222876
 31
0.0
  0
LINE
  5
140
330
A
100
AcDbEntity
  8
0
  6
solid
 62
     0
100
AcDbLine
 10
0.5593276521962761
 20
5.164761340222876
 30
0.0
 11
0.5534452992550996
 21
5.157549801761337
 31
0.0
  0
LINE
  5
141
330
A
100
AcDbEntity
  8
0
  6
solid
 62
     0
100
AcDbLine
 10
0.5534452992550996
 20
5.157549801761337
 30
0.0
 11
0.5456021620001977
 21
5.152742109453645
 31
0.0
  0
LINE
  5
142
330
A
100
AcDbEntity
  8
0
  6
solid
 62
     0
100
AcDbLine
 10
0.5456021620001977
 20
5.152742109453645
 30
0.0
 11
0.536778632588433
 21
5.149136340222876
 31
0.0
  0
LINE
  5
143
330
A
100
AcDbEntity
  8
0
  6
solid
 62
     0
100
AcDbLine
 10
0.536778632588433
 20
5.149136340222876
 30
0.0
 11
0.5279551031766684
 21
5.149136340222876
 31
0.0
  0
LINE
  5
144
330
A
100
AcDbEntity
  8
0
  6
solid
 62
     0
100
AcDbLine
 10
0.5279551031766684
 20
5.149136340222876
 30
0.0
 11
0.5176609855296094
 21
5.150338263299798
 31
0.0
  0
LINE
  5
145
330
A
100
AcDbEntity
  8
0
  6
solid
 62
     0
100
AcDbLine
 10
0.5176609855296094
 20
5.150338263299798
 30
0.0
 11
0.507857063960982
 21
5.157549801761337
 31
0.0
  0
LINE
  5
146
330
A
100
AcDbEntity
  8
0
  6
solid
 62
     0
100
AcDbLine
 10
0.507857063960982
 20
5.157549801761337
 30
0.0
 11
0.5014845149413741
 21
5.164761340222876
 31
0.0
  0
LINE
  5
147
330
A
100
AcDbEntity
  8
0
  6
solid
 62
     0
100
AcDbLine
 10
0.5014845149413741
 20
5.164761340222876
 30
0.0
 11
0.4951119659217663
 21
5.175578647915183
 31
0.0
  0
LINE
  5
148
330
A
100
AcDbEntity
  8
0
  6
solid
 62
     0
100
AcDbLine
 10
0.4951119659217663
 20
5.175578647915183
 30
0.0
 11
0.4911903972943153
 21
5.186395955607491
 31
0.0
  0
LINE
  5
149
330
A
100
AcDbEntity
  8
0
  6
solid
 62
     0
100
AcDbLine
 10
0.4911903972943153
 20
5.186395955607491
 30
0.0
 11
0.4686413776864721
 21
5.186395955607491
 31
0.0
  0
LINE
  5
14A
330
A
100
AcDbEntity
  8
0
  6
solid
 62
     0
100
AcDbLine
 10
0.634327652196276
 20
5.116684417145952
 30
0.0
 11
0.7122688286668643
 21
5.334232494069029
 31
0.0
  0
LINE
  5
14B
330
A
100
AcDbEntity
  8
0
  6
solid
 62
     0
100
AcDbLine
 10
0.7122688286668643
 20
5.334232494069029
 30
0.0
 11
0.6441315737649035
 21
5.334232494069029
 31
0.0
  0
LINE
  5
14C
330
A
100
AcDbEntity
  8
0
  6
solid
 62
     0
100
AcDbLine
 10
0.6441315737649035
 20
5.334232494069029
 30
0.0
 11
0.6441315737649035
 21
5.288559417145952
 31
0.0
  0
LINE
  5
14D
330
A
100
AcDbEntity
  8
0
  6
solid
 62
     0
100
AcDbLine
 10
0.6441315737649035
 20
5.288559417145952
 30
0.0
 11
0.6186413776864721
 21
5.288559417145952
 31
0.0
  0
LINE
  5
14E
330
A
100
AcDbEntity
  8
0
  6
solid
 62
     0
100
AcDbLine
 10
0.6186413776864721
 20
5.288559417145952
 30
0.0
 11
0.6186413776864721
 21
5.366684417145952
 31
0.0
  0
LINE
  5
14F
330
A
100
AcDbEntity
  8
0
  6
solid
 62
     0
100
AcDbLine
 10
0.6186413776864721
 20
5.366684417145952
 30
0.0
 11
0.7436413776864721
 21
5.366684417145952
 31
0.0
  0
LINE
  5
150
330
A
100
AcDbEntity
  8
0
  6
solid
 62
     0
100
AcDbLine
 10
0.7436413776864721
 20
5.366684417145952
 30
0.0
 11
0.7436413776864721
 21
5.334232494069029
 31
0.0
  0
LINE
  5
151
330
A
100
AcDbEntity
  8
0
  6
solid
 62
     0
100
AcDbLine
 10
0.7436413776864721
 20
5.334232494069029
 30
0.0
 11
0.6642296129805898
 21
5.116684417145952
 31
0.0
  0
LINE
  5
152
330
A
100
AcDbEntity
  8
0
  6
solid
 62
     0
100
AcDbLine
 10
0.6642296129805898
 20
5.116684417145952
 30
0.0
 11
0.634327652196276
 21
5.116684417145952
 31
0.0
  0
LINE
  5
153
330
A
100
AcDbEntity
  8
0
  6
solid
 62
     0
100
AcDbLine
 10
0.7686413776864721
 20
5.116684417145952
 30
0.0
 11
0.8142296129805897
 21
5.116684417145952
 31
0.0
  0
LINE
  5
154
330
A
100
AcDbEntity
  8
0
  6
solid
 62
     0
100
AcDbLine
 10
0.8142296129805897
 20
5.116684417145952
 30
0.0
 11
0.8431511816080407
 21
5.119088263299798
 31
0.0
  0
LINE
  5
155
330
A
100
AcDbEntity
  8
0
  6
solid
 62
     0
100
AcDbLine
 10
0.8431511816080407
 20
5.119088263299798
 30
0.0
 11
0.8588374561178447
 21
5.122694032530567
 31
0.0
  0
LINE
  5
156
330
A
100
AcDbEntity
  8
0
  6
solid
 62
     0
100
AcDbLine
 10
0.8588374561178447
 20
5.122694032530567
 30
0.0
 11
0.8720727502354916
 21
5.129905570992106
 31
0.0
  0
LINE
  5
157
330
A
100
AcDbEntity
  8
0
  6
solid
 62
     0
100
AcDbLine
 10
0.8720727502354916
 20
5.129905570992106
 30
0.0
 11
0.8813864757256878
 21
5.138319032530567
 31
0.0
  0
LINE
  5
158
330
A
100
AcDbEntity
  8
0
  6
solid
 62
     0
100
AcDbLine
 10
0.8813864757256878
 20
5.138319032530567
 30
0.0
 11
0.8877590247452957
 21
5.149136340222876
 31
0.0
  0
LINE
  5
159
330
A
100
AcDbEntity
  8
0
  6
solid
 62
     0
100
AcDbLine
 10
0.8877590247452957
 20
5.149136340222876
 30
0.0
 11
0.8911903972943152
 21
5.162357494069029
 31
0.0
  0
LINE
  5
15A
330
A
100
AcDbEntity
  8
0
  6
solid
 62
     0
100
AcDbLine
 10
0.8911903972943152
 20
5.162357494069029
 30
0.0
 11
0.8936413776864721
 21
5.177982494069029
 31
0.0
  0
LINE
  5
15B
330
A
100
AcDbEntity
  8
0
  6
solid
 62
     0
100
AcDbLine
 10
0.8936413776864721
 20
5.177982494069029
 30
0.0
 11
0.8936413776864721
 21
5.194809417145952
 31
0.0
  0
LINE
  5
15C
330
A
100
AcDbEntity
  8
0
  6
solid
 62
     0
100
AcDbLine
 10
0.8936413776864721
 20
5.194809417145952
 30
0.0
 11
0.8926609855296094
 21
5.206828647915183
 31
0.0
  0
LINE
  5
15D
330
A
100
AcDbEntity
  8
0
  6
solid
 62
     0
100
AcDbLine
 10
0.8926609855296094
 20
5.206828647915183
 30
0.0
 11
0.8902100051374524
 21
5.216444032530567
 31
0.0
  0
LINE
  5
15E
330
A
100
AcDbEntity
  8
0
  6
solid
 62
     0
100
AcDbLine
 10
0.8902100051374524
 20
5.216444032530567
 30
0.0
 11
0.8862884365100015
 21
5.227261340222876
 31
0.0
  0
LINE
  5
15F
330
A
100
AcDbEntity
  8
0
  6
solid
 62
     0
100
AcDbLine
 10
0.8862884365100015
 20
5.227261340222876
 30
0.0
 11
0.882857063960982
 21
5.235674801761337
 31
0.0
  0
LINE
  5
160
330
A
100
AcDbEntity
  8
0
  6
solid
 62
     0
100
AcDbLine
 10
0.882857063960982
 20
5.235674801761337
 30
0.0
 11
0.8779551031766681
 21
5.244088263299798
 31
0.0
  0
LINE
  5
161
330
A
100
AcDbEntity
  8
0
  6
solid
 62
     0
100
AcDbLine
 10
0.8779551031766681
 20
5.244088263299798
 30
0.0
 11
0.8730531423923544
 21
5.248895955607491
 31
0.0
  0
LINE
  5
162
330
A
100
AcDbEntity
  8
0
  6
solid
 62
     0
100
AcDbLine
 10
0.8730531423923544
 20
5.248895955607491
 30
0.0
 11
0.8696217698433347
 21
5.251299801761337
 31
0.0
  0
LINE
  5
163
330
A
100
AcDbEntity
  8
0
  6
solid
 62
     0
100
AcDbLine
 10
0.8696217698433347
 20
5.251299801761337
 30
0.0
 11
0.8745237306276486
 21
5.258511340222876
 31
0.0
  0
LINE
  5
164
330
A
100
AcDbEntity
  8
0
  6
solid
 62
     0
100
AcDbLine
 10
0.8745237306276486
 20
5.258511340222876
 30
0.0
 11
0.8779551031766681
 21
5.266924801761337
 31
0.0
  0
LINE
  5
165
330
A
100
AcDbEntity
  8
0
  6
solid
 62
     0
100
AcDbLine
 10
0.8779551031766681
 20
5.266924801761337
 30
0.0
 11
0.880406083568825
 21
5.274136340222876
 31
0.0
  0
LINE
  5
166
330
A
100
AcDbEntity
  8
0
  6
solid
 62
     0
100
AcDbLine
 10
0.880406083568825
 20
5.274136340222876
 30
0.0
 11
0.8813864757256878
 21
5.280145955607491
 31
0.0
  0
LINE
  5
167
330
A
100
AcDbEntity
  8
0
  6
solid
 62
     0
100
AcDbLine
 10
0.8813864757256878
 20
5.280145955607491
 30
0.0
 11
0.882857063960982
 21
5.288559417145952
 31
0.0
  0
LINE
  5
168
330
A
100
AcDbEntity
  8
0
  6
solid
 62
     0
100
AcDbLine
 10
0.882857063960982
 20
5.288559417145952
 30
0.0
 11
0.8838374561178447
 21
5.29937672483826
 31
0.0
  0
LINE
  5
169
330
A
100
AcDbEntity
  8
0
  6
solid
 62
     0
100
AcDbLine
 10
0.8838374561178447
 20
5.29937672483826
 30
0.0
 11
0.8838374561178447
 21
5.310194032530567
 31
0.0
  0
LINE
  5
16A
330
A
100
AcDbEntity
  8
0
  6
solid
 62
     0
100
AcDbLine
 10
0.8838374561178447
 20
5.310194032530567
 30
0.0
 11
0.8813864757256878
 21
5.321011340222876
 31
0.0
  0
LINE
  5
16B
330
A
100
AcDbEntity
  8
0
  6
solid
 62
     0
100
AcDbLine
 10
0.8813864757256878
 20
5.321011340222876
 30
0.0
 11
0.8779551031766681
 21
5.331828647915183
 31
0.0
  0
LINE
  5
16C
330
A
100
AcDbEntity
  8
0
  6
solid
 62
     0
100
AcDbLine
 10
0.8779551031766681
 20
5.331828647915183
 30
0.0
 11
0.8755041227845111
 21
5.337838263299798
 31
0.0
  0
LINE
  5
16D
330
A
100
AcDbEntity
  8
0
  6
solid
 62
     0
100
AcDbLine
 10
0.8755041227845111
 20
5.337838263299798
 30
0.0
 11
0.8706021620001976
 21
5.345049801761337
 31
0.0
  0
LINE
  5
16E
330
A
100
AcDbEntity
  8
0
  6
solid
 62
     0
100
AcDbLine
 10
0.8706021620001976
 20
5.345049801761337
 30
0.0
 11
0.8637394169021582
 21
5.352261340222876
 31
0.0
  0
LINE
  5
16F
330
A
100
AcDbEntity
  8
0
  6
solid
 62
     0
100
AcDbLine
 10
0.8637394169021582
 20
5.352261340222876
 30
0.0
 11
0.8573668678825505
 21
5.357069032530567
 31
0.0
  0
LINE
  5
170
330
A
100
AcDbEntity
  8
0
  6
solid
 62
     0
100
AcDbLine
 10
0.8573668678825505
 20
5.357069032530567
 30
0.0
 11
0.8490335345492173
 21
5.360674801761337
 31
0.0
  0
LINE
  5
171
330
A
100
AcDbEntity
  8
0
  6
solid
 62
     0
100
AcDbLine
 10
0.8490335345492173
 20
5.360674801761337
 30
0.0
 11
0.8372688286668642
 21
5.364280570992106
 31
0.0
  0
LINE
  5
172
330
A
100
AcDbEntity
  8
0
  6
solid
 62
     0
100
AcDbLine
 10
0.8372688286668642
 20
5.364280570992106
 30
0.0
 11
0.8274649070982368
 21
5.366684417145952
 31
0.0
  0
LINE
  5
173
330
A
100
AcDbEntity
  8
0
  6
solid
 62
     0
100
AcDbLine
 10
0.8274649070982368
 20
5.366684417145952
 30
0.0
 11
0.7686413776864721
 21
5.366684417145952
 31
0.0
  0
LINE
  5
174
330
A
100
AcDbEntity
  8
0
  6
solid
 62
     0
100
AcDbLine
 10
0.7686413776864721
 20
5.366684417145952
 30
0.0
 11
0.7686413776864721
 21
5.334232494069029
 31
0.0
  0
LINE
  5
175
330
A
100
AcDbEntity
  8
0
  6
solid
 62
     0
100
AcDbLine
 10
0.7686413776864721
 20
5.334232494069029
 30
0.0
 11
0.7892296129805898
 21
5.334232494069029
 31
0.0
  0
LINE
  5
176
330
A
100
AcDbEntity
  8
0
  6
solid
 62
     0
100
AcDbLine
 10
0.7892296129805898
 20
5.334232494069029
 30
0.0
 11
0.7892296129805898
 21
5.149136340222876
 31
0.0
  0
LINE
  5
177
330
A
100
AcDbEntity
  8
0
  6
solid
 62
     0
100
AcDbLine
 10
0.7892296129805898
 20
5.149136340222876
 30
0.0
 11
0.7686413776864721
 21
5.149136340222876
 31
0.0
  0
LINE
  5
178
330
A
100
AcDbEntity
  8
0
  6
solid
 62
     0
100
AcDbLine
 10
0.7686413776864721
 20
5.149136340222876
 30
0.0
 11
0.7686413776864721
 21
5.116684417145952
 31
0.0
  0
LINE
  5
179
330
A
100
AcDbEntity
  8
0
  6
solid
 62
     0
100
AcDbLine
 10
0.8142296129805897
 20
5.149136340222876
 30
0.0
 11
0.8407002012158837
 21
5.151540186376721
 31
0.0
  0
LINE
  5
17A
330
A
100
AcDbEntity
  8
0
  6
solid
 62
     0
100
AcDbLine
 10
0.8407002012158837
 20
5.151540186376721
 30
0.0
 11
0.8490335345492173
 21
5.155145955607491
 31
0.0
  0
LINE
  5
17B
330
A
100
AcDbEntity
  8
0
  6
solid
 62
     0
100
AcDbLine
 10
0.8490335345492173
 20
5.155145955607491
 30
0.0
 11
0.8539354953335308
 21
5.156347878684414
 31
0.0
  0
LINE
  5
17C
330
A
100
AcDbEntity
  8
0
  6
solid
 62
     0
100
AcDbLine
 10
0.8539354953335308
 20
5.156347878684414
 30
0.0
 11
0.8598178482747073
 21
5.162357494069029
 31
0.0
  0
LINE
  5
17D
330
A
100
AcDbEntity
  8
0
  6
solid
 62
     0
100
AcDbLine
 10
0.8598178482747073
 20
5.162357494069029
 30
0.0
 11
0.8661903972943152
 21
5.173174801761337
 31
0.0
  0
LINE
  5
17E
330
A
100
AcDbEntity
  8
0
  6
solid
 62
     0
100
AcDbLine
 10
0.8661903972943152
 20
5.173174801761337
 30
0.0
 11
0.8686413776864721
 21
5.181588263299798
 31
0.0
  0
LINE
  5
17F
330
A
100
AcDbEntity
  8
0
  6
solid
 62
     0
100
AcDbLine
 10
0.8686413776864721
 20
5.181588263299798
 30
0.0
 11
0.8686413776864721
 21
5.194809417145952
 31
0.0
  0
LINE
  5
180
330
A
100
AcDbEntity
  8
0
  6
solid
 62
     0
100
AcDbLine
 10
0.8686413776864721
 20
5.194809417145952
 30
0.0
 11
0.8661903972943152
 21
5.206828647915183
 31
0.0
  0
LINE
  5
181
330
A
100
AcDbEntity
  8
0
  6
solid
 62
     0
100
AcDbLine
 10
0.8661903972943152
 20
5.206828647915183
 30
0.0
 11
0.8622688286668642
 21
5.217645955607491
 31
0.0
  0
LINE
  5
182
330
A
100
AcDbEntity
  8
0
  6
solid
 62
     0
100
AcDbLine
 10
0.8622688286668642
 20
5.217645955607491
 30
0.0
 11
0.8588374561178447
 21
5.223655570992106
 31
0.0
  0
LINE
  5
183
330
A
100
AcDbEntity
  8
0
  6
solid
 62
     0
100
AcDbLine
 10
0.8588374561178447
 20
5.223655570992106
 30
0.0
 11
0.8529551031766683
 21
5.228463263299798
 31
0.0
  0
LINE
  5
184
330
A
100
AcDbEntity
  8
0
  6
solid
 62
     0
100
AcDbLine
 10
0.8529551031766683
 20
5.228463263299798
 30
0.0
 11
0.8465825541570604
 21
5.232069032530567
 31
0.0
  0
LINE
  5
185
330
A
100
AcDbEntity
  8
0
  6
solid
 62
     0
100
AcDbLine
 10
0.8465825541570604
 20
5.232069032530567
 30
0.0
 11
0.83579824043157
 21
5.234472878684414
 31
0.0
  0
LINE
  5
186
330
A
100
AcDbEntity
  8
0
  6
solid
 62
     0
100
AcDbLine
 10
0.83579824043157
 20
5.234472878684414
 30
0.0
 11
0.8142296129805897
 21
5.234472878684414
 31
0.0
  0
LINE
  5
187
330
A
100
AcDbEntity
  8
0
  6
solid
 62
     0
100
AcDbLine
 10
0.8142296129805897
 20
5.234472878684414
 30
0.0
 11
0.8142296129805897
 21
5.149136340222876
 31
0.0
  0
LINE
  5
188
330
A
100
AcDbEntity
  8
0
  6
solid
 62
     0
100
AcDbLine
 10
0.8142296129805897
 20
5.266924801761337
 30
0.0
 11
0.8348178482747073
 21
5.266924801761337
 31
0.0
  0
LINE
  5
189
330
A
100
AcDbEntity
  8
0
  6
solid
 62
     0
100
AcDbLine
 10
0.8348178482747073
 20
5.266924801761337
 30
0.0
 11
0.8431511816080407
 21
5.269328647915183
 31
0.0
  0
LINE
  5
18A
330
A
100
AcDbEntity
  8
0
  6
solid
 62
     0
100
AcDbLine
 10
0.8431511816080407
 20
5.269328647915183
 30
0.0
 11
0.8480531423923544
 21
5.272934417145952
 31
0.0
  0
LINE
  5
18B
330
A
100
AcDbEntity
  8
0
  6
solid
 62
     0
100
AcDbLine
 10
0.8480531423923544
 20
5.272934417145952
 30
0.0
 11
0.8514845149413741
 21
5.276540186376721
 31
0.0
  0
LINE
  5
18C
330
A
100
AcDbEntity
  8
0
  6
solid
 62
     0
100
AcDbLine
 10
0.8514845149413741
 20
5.276540186376721
 30
0.0
 11
0.855406083568825
 21
5.28375172483826
 31
0.0
  0
LINE
  5
18D
330
A
100
AcDbEntity
  8
0
  6
solid
 62
     0
100
AcDbLine
 10
0.855406083568825
 20
5.28375172483826
 30
0.0
 11
0.8573668678825505
 21
5.290963263299798
 31
0.0
  0
LINE
  5
18E
330
A
100
AcDbEntity
  8
0
  6
solid
 62
     0
100
AcDbLine
 10
0.8573668678825505
 20
5.290963263299798
 30
0.0
 11
0.8588374561178447
 21
5.29937672483826
 31
0.0
  0
LINE
  5
18F
330
A
100
AcDbEntity
  8
0
  6
solid
 62
     0
100
AcDbLine
 10
0.8588374561178447
 20
5.29937672483826
 30
0.0
 11
0.8588374561178447
 21
5.306588263299798
 31
0.0
  0
LINE
  5
190
330
A
100
AcDbEntity
  8
0
  6
solid
 62
     0
100
AcDbLine
 10
0.8588374561178447
 20
5.306588263299798
 30
0.0
 11
0.8573668678825505
 21
5.312597878684414
 31
0.0
  0
LINE
  5
191
330
A
100
AcDbEntity
  8
0
  6
solid
 62
     0
100
AcDbLine
 10
0.8573668678825505
 20
5.312597878684414
 30
0.0
 11
0.855406083568825
 21
5.317405570992106
 31
0.0
  0
LINE
  5
192
330
A
100
AcDbEntity
  8
0
  6
solid
 62
     0
100
AcDbLine
 10
0.855406083568825
 20
5.317405570992106
 30
0.0
 11
0.8514845149413741
 21
5.323415186376721
 31
0.0
  0
LINE
  5
193
330
A
100
AcDbEntity
  8
0
  6
solid
 62
     0
100
AcDbLine
 10
0.8514845149413741
 20
5.323415186376721
 30
0.0
 11
0.8465825541570604
 21
5.328222878684414
 31
0.0
  0
LINE
  5
194
330
A
100
AcDbEntity
  8
0
  6
solid
 62
     0
100
AcDbLine
 10
0.8465825541570604
 20
5.328222878684414
 30
0.0
 11
0.8421707894511779
 21
5.33062672483826
 31
0.0
  0
LINE
  5
195
330
A
100
AcDbEntity
  8
0
  6
solid
 62
     0
100
AcDbLine
 10
0.8421707894511779
 20
5.33062672483826
 30
0.0
 11
0.8372688286668642
 21
5.331828647915183
 31
0.0
  0
LINE
  5
196
330
A
100
AcDbEntity
  8
0
  6
solid
 62
     0
100
AcDbLine
 10
0.8372688286668642
 20
5.331828647915183
 30
0.0
 11
0.8250139267060799
 21
5.334232494069029
 31
0.0
  0
LINE
  5
197
330
A
100
AcDbEntity
  8
0
  6
solid
 62
     0
100
AcDbLine
 10
0.8250139267060799
 20
5.334232494069029
 30
0.0
 11
0.8142296129805897
 21
5.334232494069029
 31
0.0
  0
LINE
  5
198
330
A
100
AcDbEntity
  8
0
  6
solid
 62
     0
100
AcDbLine
 10
0.8142296129805897
 20
5.334232494069029
 30
0.0
 11
0.8142296129805897
 21
5.266924801761337
 31
0.0
  0
LINE
  5
1FA
330
A
100
AcDbEntity
  8
0
  6
solid
 62
     0
370
     0
100
AcDbLine
 10
-3.904131664072188
 20
0.0945780000000003
 30
0.0
 11
-4.609948000000002
 21
0.0945780000000013
 31
0.0
  0
LINE
  5
1FB
330
A
100
AcDbEntity
  8
0
  6
solid
 62
     0
370
     0
100
AcDbLine
 10
-3.52461148895763
 20
7.476327000000001
 30
0.0
 11
-4.609947999999997
 21
7.476327000000001
 31
0.0
  0
LINE
  5
1FC
330
A
100
AcDbEntity
  8
0
  6
solid
 62
     0
370
     0
100
AcDbLine
 10
-4.484948000000002
 20
0.0945780000000012
 30
0.0
 11
-4.484948
 21
3.465707307692308
 31
0.0
  0
LINE
  5
1FD
330
A
100
AcDbEntity
  8
0
  6
solid
 62
     0
370
     0
100
AcDbLine
 10
-4.484947999999997
 20
7.476327000000001
 30
0.0
 11
-4.484948
 21
4.105197692307691
 31
0.0
  0
MTEXT
  5
1FE
330
A
100
AcDbEntity
  8
0
  6
solid
 62
     0
370
     0
100
AcDbMText
 10
-4.484948
 20
3.785452499999999
 30
0.0
 40
0.25
 41
0.0
 71
     5
 72
     1
  1
{\H0.250000;7 3/8}
 73
     1
 44
1.0
  0
SOLID
  5
1FF
330
A
100
AcDbEntity
  8
0
  6
solid
 62
     0
370
     0
100
AcDbTrace
 10
-4.526573000000002
 20
0.3445780000000012
 30
0.0
 11
-4.443323000000003
 21
0.3445780000000012
 31
0.0
 12
-4.484948000000002
 22
0.0945780000000012
 32
0.0
 13
-4.484948000000002
 23
0.0945780000000012
 33
0.0
  0
SOLID
  5
200
330
A
100
AcDbEntity
  8
0
  6
solid
 62
     0
370
     0
100
AcDbTrace
 10
-4.443322999999997
 20
7.226327000000001
 30
0.0
 11
-4.526572999999997
 21
7.226327000000001
 31
0.0
 12
-4.484947999999997
 22
7.476327000000001
 32
0.0
 13
-4.484947999999997
 23
7.476327000000001
 33
0.0
  0
LINE
  5
209
330
A
100
AcDbEntity
  8
0
  6
solid
 62
     0
370
     0
100
AcDbLine
 10
-3.600438
 20
0.0087174038461538
 30
0.0
 11
-3.600438
 21
-0.5374071923076924
 31
0.0
  0
LINE
  5
20A
330
A
100
AcDbEntity
  8
0
  6
solid
 62
     0
370
     0
100
AcDbLine
 10
-1.983728000000001
 20
0.0064637656383368
 30
0.0
 11
-1.983727999999999
 21
-0.5374071923076924
 31
0.0
  0
LINE
  5
20B
330
A
100
AcDbEntity
  8
0
  6
solid
 62
     0
370
     0
100
AcDbLine
 10
-3.600438
 20
-0.4124071923076924
 30
0.0
 11
-3.466082999999999
 21
-0.4124071923076924
 31
0.0
  0
LINE
  5
20C
330
A
100
AcDbEntity
  8
0
  6
solid
 62
     0
370
     0
100
AcDbLine
 10
-1.983727999999999
 20
-0.4124071923076924
 30
0.0
 11
-2.118082999999999
 21
-0.4124071923076924
 31
0.0
  0
MTEXT
  5
20D
330
A
100
AcDbEntity
  8
0
  6
solid
 62
     0
370
     0
100
AcDbMText
 10
-2.792082999999999
 20
-0.4124071923076924
 30
0.0
 40
0.225
 41
0.0
 71
     5
 72
     1
  1
1 5/8
 73
     1
 44
1.0
  0
SOLID
  5
20E
330
A
100
AcDbEntity
  8
0
  6
solid
 62
     0
370
     0
100
AcDbTrace
 10
-3.350438
 20
-0.3707821923076926
 30
0.0
 11
-3.350438
 21
-0.4540321923076926
 31
0.0
 12
-3.600438
 22
-0.4124071923076924
 32
0.0
 13
-3.600438
 23
-0.4124071923076924
 33
0.0
  0
SOLID
  5
20F
330
A
100
AcDbEntity
  8
0
  6
solid
 62
     0
370
     0
100
AcDbTrace
 10
-2.233727999999999
 20
-0.4540321923076924
 30
0.0
 11
-2.233727999999999
 21
-0.3707821923076923
 31
0.0
 12
-1.983727999999999
 22
-0.4124071923076924
 32
0.0
 13
-1.983727999999999
 23
-0.4124071923076924
 33
0.0
  0
VIEWPORT
  5
1B6
330
B
100
AcDbEntity
 67
     1
  8
0
  6
Continuous
370
     0
100
AcDbViewport
 10
5.160576257188914
 20
3.94216147168583
 30
0.0
 40
15.37831928887528
 41
8.136761453261453
 68
     1
 69
     1
 12
5.160576257188914
 22
3.94216147168583
 13
0.0
 23
0.0
 14
0.5
 24
0.5
 15
0.5
 25
0.5
 16
0.0
 26
0.0
 36
1.0
 17
0.0
 27
0.0
 37
0.0
 42
50.0
 43
0.0
 44
0.0
 45
8.136761453261453
 50
0.0
 51
0.0
 72
   100
 90
   819232
  1

281
     0
 71
     1
 74
     0
110
0.0
120
0.0
130
0.0
111
1.0
121
0.0
131
0.0
112
0.0
122
1.0
132
0.0
 79
     0
146
0.0
170
     0
  0
VIEWPORT
  5
1B9
330
B
100
AcDbEntity
 67
     1
  8
0
  6
Continuous
370
     0
100
AcDbViewport
 10
5.160563140108827
 20
3.942299958916443
 30
0.0
 40
10.46623006328369
 41
8.04079979264155
 68
     2
 69
     2
 12
-1.476218645779298
 22
3.632108973211717
 13
0.0
 23
0.0
 14
0.5
 24
0.5
 15
0.5
 25
0.5
 16
0.0
 26
0.0
 36
1.0
 17
0.0
 27
0.0
 37
0.0
 42
50.0
 43
0.0
 44
0.0
 45
10.80923844255829
 50
0.0
 51
0.0
 72
   100
 90
   819232
  1

281
     0
 71
     1
 74
     0
110
0.0
120
0.0
130
0.0
111
1.0
121
0.0
131
0.0
112
0.0
122
1.0
132
0.0
 79
     0
146
0.0
170
     0
  0
ENDSEC
  0
SECTION
  2
OBJECTS
  0
DICTIONARY
  5
19
330
0
100
AcDbDictionary
281
     1
  3
ACAD_COLOR
350
1AF
  3
ACAD_GROUP
350
1A
  3
ACAD_LAYOUT
350
1E
  3
ACAD_MATERIAL
350
19A
  3
ACAD_MLEADERSTYLE
350
1E3
  3
ACAD_MLINESTYLE
350
1B
  3
ACAD_PLOTSETTINGS
350
22
  3
ACAD_PLOTSTYLENAME
350
1F
  3
ACAD_SCALELIST
350
1C1
  3
ACAD_TABLESTYLE
350
1B0
  3
ACAD_VISUALSTYLE
350
19E
  3
ACAD_WIPEOUT_VARS
350
23
  3
ACDB_RECOMPOSE_DATA
350
238
  3
AcDbVariableDictionary
350
1BE
  3
ASE_INDEX_DICTIONARY
350
1BB
  0
DICTIONARY
  5
1EC
330
14
100
AcDbDictionary
280
     1
281
     1
  3
ADSK_XREC_LAYER_RECONCILED
360
1ED
  0
DICTIONARY
  5
1EE
330
27
100
AcDbDictionary
280
     1
281
     1
  3
ADSK_XREC_LAYER_RECONCILED
360
1EF
  0
DICTIONARY
  5
1F0
330
99
100
AcDbDictionary
280
     1
281
     1
  3
ADSK_XREC_LAYER_RECONCILED
360
1F1
  0
DICTIONARY
  5
201
330
A
100
AcDbDictionary
280
     1
281
     1
  3
ACAD_SORTENTS
360
202
  0
DICTIONARY
  5
1AF
102
{ACAD_REACTORS
330
19
102
}
330
19
100
AcDbDictionary
281
     1
  0
DICTIONARY
  5
1A
102
{ACAD_REACTORS
330
19
102
}
330
19
100
AcDbDictionary
281
     1
  0
DICTIONARY
  5
1E
102
{ACAD_REACTORS
330
19
102
}
330
19
100
AcDbDictionary
281
     1
  3
Layout1
350
21
  3
Model
350
20
  0
DICTIONARY
  5
19A
102
{ACAD_REACTORS
330
19
102
}
330
19
100
AcDbDictionary
281
     1
  3
ByBlock
350
19C
  3
ByLayer
350
19B
  3
Global
350
19D
  0
DICTIONARY
  5
1E3
102
{ACAD_REACTORS
330
19
102
}
330
19
100
AcDbDictionary
281
     1
  3
Standard
350
1E4
  0
DICTIONARY
  5
1B
102
{ACAD_REACTORS
330
19
102
}
330
19
100
AcDbDictionary
281
     1
  3
Standard
350
1C
  0
DICTIONARY
  5
22
102
{ACAD_REACTORS
330
19
102
}
330
19
100
AcDbDictionary
281
     1
  0
ACDBDICTIONARYWDFLT
  5
1F
102
{ACAD_REACTORS
330
19
102
}
330
19
100
AcDbDictionary
281
     1
  3
Normal
350
1D
100
AcDbDictionaryWithDefault
340
1D
  0
DICTIONARY
  5
1C1
102
{ACAD_REACTORS
330
19
102
}
330
19
100
AcDbDictionary
281
     1
  3
A0
350
1C2
  3
A1
350
1C3
  3
A2
350
1C4
  3
A3
350
1C5
  3
A4
350
1C6
  3
A5
350
1C7
  3
A6
350
1C8
  3
A7
350
1C9
  3
A8
350
1CA
  3
A9
350
1CB
  3
B0
350
1CC
  3
B1
350
1CD
  3
B2
350
1CE
  3
B3
350
1CF
  3
B4
350
1D0
  3
B5
350
1D1
  3
B6
350
1D2
  3
B7
350
1D3
  3
B8
350
1D4
  3
B9
350
1D5
  3
C0
350
1D6
  3
C1
350
1D7
  3
C2
350
1D8
  3
C3
350
1D9
  3
C4
350
1DA
  3
C5
350
1DB
  3
C6
350
1DC
  3
C7
350
1DD
  3
C8
350
1DE
  3
C9
350
1DF
  3
D0
350
1E0
  3
D1
350
1E1
  3
D2
350
1E2
  0
DICTIONARY
  5
1B0
102
{ACAD_REACTORS
330
19
102
}
330
19
100
AcDbDictionary
281
     1
  3
Standard
350
1B1
  0
DICTIONARY
  5
19E
102
{ACAD_REACTORS
330
19
102
}
330
19
100
AcDbDictionary
281
     1
  3
2dWireframe
350
1A4
  3
3D Hidden
350
1A6
  3
3dWireframe
350
1A5
  3
Basic
350
1A3
  3
Brighten
350
1AA
  3
ColorChange
350
1AE
  3
Conceptual
350
1A7
  3
Dim
350
1A9
  3
Facepattern
350
1AD
  3
Flat
350
19F
  3
FlatWithEdges
350
1A0
  3
Gouraud
350
1A1
  3
GouraudWithEdges
350
1A2
  3
Linepattern
350
1AC
  3
Realistic
350
1A8
  3
Thicken
350
1AB
  0
WIPEOUTVARIABLES
  5
23
330
19
100
AcDbWipeoutVariables
 70
     1
  0
XRECORD
  5
238
102
{ACAD_REACTORS
330
19
102
}
330
19
100
AcDbXrecord
280
     1
 90
        1
330
1B1
  0
DICTIONARY
  5
1BE
102
{ACAD_REACTORS
330
19
102
}
330
19
100
AcDbDictionary
281
     1
  3
CANNOSCALE
350
235
  3
CMLEADERSTYLE
350
234
  3
CTABLESTYLE
350
1BF
  0
DICTIONARY
  5
1BB
102
{ACAD_REACTORS
330
19
102
}
330
19
100
AcDbDictionary
281
     1
  3
ASEBlockHierarchyIndexRecord
350
1BD
1001
DCO15
1040
1644055419.615
  0
XRECORD
  5
1ED
102
{ACAD_REACTORS
330
1EC
102
}
330
1EC
100
AcDbXrecord
280
     1
290
     1
  0
XRECORD
  5
1EF
102
{ACAD_REACTORS
330
1EE
102
}
330
1EE
100
AcDbXrecord
280
     1
290
     1
  0
XRECORD
  5
1F1
102
{ACAD_REACTORS
330
1F0
102
}
330
1F0
100
AcDbXrecord
280
     1
290
     1
  0
SORTENTSTABLE
  5
202
102
{ACAD_REACTORS
330
201
102
}
330
201
100
AcDbSortentsTable
330
A
331
137
  5
145
331
115
  5
123
331
F3
  5
101
331
D9
  5
E7
331
159
  5
167
331
173
  5
181
331
195
  5
20C
331
148
  5
156
331
126
  5
134
331
104
  5
112
331
EA
  5
F8
331
A6
  5
A6
331
84
  5
84
331
6C
  5
6C
331
4A
  5
4A
331
184
  5
192
331
B7
  5
B7
331
95
  5
95
331
5B
  5
5B
331
39
  5
39
331
28
  5
28
331
157
  5
165
331
135
  5
143
331
113
  5
121
331
F1
  5
FF
331
171
  5
17F
331
193
  5
20A
331
146
  5
154
331
124
  5
132
331
102
  5
110
331
E8
  5
F6
331
A4
  5
A4
331
82
  5
82
331
6A
  5
6A
331
48
  5
48
331
182
  5
190
331
D7
  5
E5
331
B5
  5
B5
331
93
  5
93
331
59
  5
59
331
37
  5
37
331
155
  5
163
331
133
  5
141
331
111
  5
11F
331
200
  5
D5
331
16F
  5
17D
331
191
  5
200
331
144
  5
152
331
122
  5
130
331
100
  5
10E
331
E6
  5
F4
331
A2
  5
A2
331
80
  5
80
331
68
  5
68
331
46
  5
46
331
166
  5
174
331
180
  5
18E
331
D5
  5
E3
331
B3
  5
B3
331
91
  5
91
331
57
  5
57
331
35
  5
35
331
153
  5
161
331
131
  5
13F
331
16D
  5
17B
331
18F
  5
1FE
331
FE
  5
10C
331
E4
  5
F2
331
142
  5
150
331
120
  5
12E
331
20F
  5
DD
331
A0
  5
A0
331
7E
  5
7E
331
66
  5
66
331
44
  5
44
331
164
  5
172
331
17E
  5
18C
331
D3
  5
E1
331
10F
  5
11D
331
1FE
  5
D3
331
B1
  5
B1
331
8F
  5
8F
331
77
  5
77
331
55
  5
55
331
33
  5
33
331
151
  5
15F
331
16B
  5
179
331
18D
  5
1FC
331
FC
  5
10A
331
E2
  5
F0
331
140
  5
14E
331
11E
  5
12C
331
20D
  5
DB
331
9E
  5
9E
331
7C
  5
7C
331
64
  5
64
331
42
  5
42
331
162
  5
170
331
17C
  5
18A
331
D1
  5
DF
331
12F
  5
13D
331
10D
  5
11B
331
1FC
  5
D1
331
AF
  5
AF
331
8D
  5
8D
331
75
  5
75
331
53
  5
53
331
31
  5
31
331
169
  5
177
331
18B
  5
1FA
331
FA
  5
108
331
E0
  5
EE
331
13E
  5
14C
331
11C
  5
12A
331
20B
  5
D9
331
9C
  5
9C
331
7A
  5
7A
331
62
  5
62
331
40
  5
40
331
160
  5
16E
331
17A
  5
188
331
14F
  5
15D
331
12D
  5
13B
331
10B
  5
119
331
1FA
  5
CF
331
AD
  5
AD
331
8B
  5
8B
331
73
  5
73
331
51
  5
51
331
2F
  5
2F
331
189
  5
197
331
F8
  5
106
331
DE
  5
EC
331
13C
  5
14A
331
11A
  5
128
331
209
  5
D7
331
9A
  5
9A
331
78
  5
78
331
60
  5
60
331
15E
  5
16C
331
178
  5
186
331
14D
  5
15B
331
12B
  5
139
331
109
  5
117
331
EF
  5
FD
331
AB
  5
AB
331
89
  5
89
331
71
  5
71
331
4F
  5
4F
331
3E
  5
3E
331
2D
  5
2D
331
13A
  5
148
331
118
  5
126
331
F6
  5
104
331
DC
  5
EA
331
98
  5
98
331
15C
  5
16A
331
176
  5
184
331
198
  5
20F
331
14B
  5
159
331
129
  5
137
331
107
  5
115
331
ED
  5
FB
331
A9
  5
A9
331
87
  5
87
331
6F
  5
6F
331
4D
  5
4D
331
187
  5
195
331
5E
  5
5E
331
3C
  5
3C
331
2B
  5
2B
331
138
  5
146
331
116
  5
124
331
F4
  5
102
331
DA
  5
E8
331
B8
  5
B8
331
15A
  5
168
331
174
  5
182
331
196
  5
20D
331
149
  5
157
331
127
  5
135
331
105
  5
113
331
EB
  5
F9
331
A7
  5
A7
331
85
  5
85
331
6D
  5
6D
331
4B
  5
4B
331
185
  5
193
331
96
  5
96
331
5C
  5
5C
331
3A
  5
3A
331
29
  5
29
331
158
  5
166
331
136
  5
144
331
114
  5
122
331
F2
  5
100
331
D8
  5
E6
331
172
  5
180
331
194
  5
20B
331
147
  5
155
331
125
  5
133
331
103
  5
111
331
E9
  5
F7
331
A5
  5
A5
331
83
  5
83
331
6B
  5
6B
331
49
  5
49
331
183
  5
191
331
B6
  5
B6
331
94
  5
94
331
5A
  5
5A
331
38
  5
38
331
156
  5
164
331
134
  5
142
331
112
  5
120
331
F0
  5
FE
331
170
  5
17E
331
192
  5
209
331
145
  5
153
331
123
  5
131
331
101
  5
10F
331
E7
  5
F5
331
A3
  5
A3
331
81
  5
81
331
69
  5
69
331
47
  5
47
331
167
  5
175
331
181
  5
18F
331
D6
  5
E4
331
B4
  5
B4
331
92
  5
92
331
58
  5
58
331
36
  5
36
331
154
  5
162
331
132
  5
140
331
110
  5
11E
331
16E
  5
17C
331
190
  5
1FF
331
143
  5
151
331
121
  5
12F
331
FF
  5
10D
331
E5
  5
F3
331
A1
  5
A1
331
7F
  5
7F
331
67
  5
67
331
45
  5
45
331
165
  5
173
331
17F
  5
18D
331
D4
  5
E2
331
1FF
  5
D4
331
B2
  5
B2
331
90
  5
90
331
56
  5
56
331
34
  5
34
331
152
  5
160
331
130
  5
13E
331
16C
  5
17A
331
18E
  5
1FD
331
FD
  5
10B
331
E3
  5
F1
331
141
  5
14F
331
11F
  5
12D
331
20E
  5
DC
331
9F
  5
9F
331
7D
  5
7D
331
65
  5
65
331
43
  5
43
331
163
  5
171
331
17D
  5
18B
331
D2
  5
E0
331
10E
  5
11C
331
1FD
  5
D2
331
B0
  5
B0
331
8E
  5
8E
331
76
  5
76
331
54
  5
54
331
32
  5
32
331
150
  5
15E
331
16A
  5
178
331
18C
  5
1FB
331
FB
  5
109
331
E1
  5
EF
331
13F
  5
14D
331
11D
  5
12B
331
20C
  5
DA
331
9D
  5
9D
331
7B
  5
7B
331
63
  5
63
331
41
  5
41
331
161
  5
16F
331
17B
  5
189
331
D0
  5
DE
331
12E
  5
13C
331
10C
  5
11A
331
1FB
  5
D0
331
AE
  5
AE
331
8C
  5
8C
331
74
  5
74
331
52
  5
52
331
30
  5
30
331
168
  5
176
331
18A
  5
198
331
F9
  5
107
331
DF
  5
ED
331
13D
  5
14B
331
11B
  5
129
331
20A
  5
D8
331
9B
  5
9B
331
79
  5
79
331
61
  5
61
331
15F
  5
16D
331
179
  5
187
331
14E
  5
15C
331
12C
  5
13A
331
10A
  5
118
331
AC
  5
AC
331
8A
  5
8A
331
72
  5
72
331
50
  5
50
331
3F
  5
3F
331
2E
  5
2E
331
188
  5
196
331
13B
  5
149
331
119
  5
127
331
F7
  5
105
331
DD
  5
EB
331
15D
  5
16B
331
177
  5
185
331
14C
  5
15A
331
12A
  5
138
331
108
  5
116
331
EE
  5
FC
331
AA
  5
AA
331
88
  5
88
331
70
  5
70
331
4E
  5
4E
331
5F
  5
5F
331
3D
  5
3D
331
2C
  5
2C
331
139
  5
147
331
117
  5
125
331
F5
  5
103
331
DB
  5
E9
331
B9
  5
B9
331
15B
  5
169
331
175
  5
183
331
197
  5
20E
331
14A
  5
158
331
128
  5
136
331
106
  5
114
331
EC
  5
FA
331
A8
  5
A8
331
86
  5
86
331
6E
  5
6E
331
4C
  5
4C
331
186
  5
194
331
97
  5
97
331
5D
  5
5D
331
3B
  5
3B
331
2A
  5
2A
  0
LAYOUT
  5
21
102
{ACAD_REACTORS
330
1E
102
}
330
1E
100
AcDbPlotSettings
  1

  2
Foxit PDF Printer
  4
Letter
  6

 40
3.174999952316284
 41
3.174999952316284
 42
3.17498779296875
 43
3.175003051757812
 44
279.3999938964844
 45
215.8999938964844
 46
31.47715384821894
 47
24.12875752349356
 48
0.0
 49
0.0
140
0.0
141
0.0
142
1.0
143
1.0
 70
     4
 72
     0
 73
     0
 74
     1
  7

 75
     0
147
1.0
 76
     0
 77
     2
 78
   300
148
-26.25461124795212
149
-20.16000981431432
100
AcDbLayout
  1
Layout1
 70
     0
 71
     1
 10
-0.3306119115190196
 20
-0.2812499079328949
 11
10.66938784818509
 21
8.218749851771214
 12
0.0
 22
0.0
 32
0.0
 14
-0.0733027175222354
 24
-0.078529332350616
 34
-0.0015258207003583
 15
10.39445523190006
 25
7.962852275722276
 35
0.0000000349246037
146
0.0
 13
0.0
 23
0.0
 33
0.0
 16
1.0
 26
0.0
 36
0.0
 17
0.0
 27
1.0
 37
0.0
 76
     0
330
B
331
1B6
1001
ACAD_PSEXT
1000
Foxit PDF Printer
1000
Foxit PDF Printer Driver
1000
FOXIT_PDF
1000

1070
     0
  0
LAYOUT
  5
20
102
{ACAD_REACTORS
330
1E
102
}
330
1E
100
AcDbPlotSettings
  1

  2

  4

  6

 40
0.0
 41
0.0
 42
0.0
 43
0.0
 44
0.0
 45
0.0
 46
0.0
 47
0.0
 48
0.0
 49
0.0
140
0.0
141
0.0
142
1.0
143
1.0
 70
  1024
 72
     0
 73
     0
 74
     0
  7

 75
     0
147
1.0
 76
     0
 77
     2
 78
   300
148
0.0
149
0.0
100
AcDbLayout
  1
Model
 70
     0
 71
     0
 10
0.0
 20
0.0
 11
0.0
 21
0.0
 12
0.0
 22
0.0
 32
0.0
 14
0.0
 24
0.0
 34
0.0
 15
0.0
 25
0.0
 35
0.0
146
0.0
 13
0.0
 23
0.0
 33
0.0
 16
0.0
 26
0.0
 36
0.0
 17
0.0
 27
0.0
 37
0.0
 76
     0
330
A
  0
MATERIAL
  5
19C
102
{ACAD_XDICTIONARY
360
23B
102
}
102
{ACAD_REACTORS
330
19A
102
}
330
19A
100
AcDbMaterial
  1
ByBlock
 73
     1
 78
     1
172
     1
176
     1
270
     1
274
     1
  0
MATERIAL
  5
19B
102
{ACAD_XDICTIONARY
360
239
102
}
102
{ACAD_REACTORS
330
19A
102
}
330
19A
100
AcDbMaterial
  1
ByLayer
 73
     1
 78
     1
172
     1
176
     1
270
     1
274
     1
  0
MATERIAL
  5
19D
102
{ACAD_XDICTIONARY
360
23D
102
}
102
{ACAD_REACTORS
330
19A
102
}
330
19A
100
AcDbMaterial
  1
Global
 73
     1
 78
     1
172
     1
176
     1
270
     1
274
     1
  0
MLEADERSTYLE
  5
1E4
102
{ACAD_REACTORS
330
1E3
102
}
330
1E3
100
AcDbMLeaderStyle
170
     2
171
     1
172
     0
 90
        2
 40
0.0
 41
0.0
173
     1
 91
-1056964608
340
11
 92
       -2
290
     1
 42
0.09
291
     1
 43
0.36
  3
Standard
 44
0.18
300

342
17
174
     1
178
     6
175
     1
176
     0
 93
-1056964608
 45
0.18
292
     0
297
     0
 46
0.18
 94
-1056964608
 47
1.0
 49
1.0
140
1.0
293
     1
141
0.0
294
     1
177
     0
142
1.0
295
     0
296
     0
143
0.125
1001
ACAD_MLEADERVER
1070
     2
  0
MLINESTYLE
  5
1C
102
{ACAD_REACTORS
330
1B
102
}
330
1B
100
AcDbMlineStyle
  2
STANDARD
 70
     0
  3

 62
     0
 51
90.0
 52
90.0
 71
     2
 49
0.5
 62
   256
  6
BYLAYER
 49
-0.5
 62
   256
  6
BYLAYER
  0
ACDBPLACEHOLDER
  5
1D
102
{ACAD_REACTORS
330
1F
102
}
330
1F
  0
SCALE
  5
1C2
102
{ACAD_REACTORS
330
1C1
102
}
330
1C1
100
AcDbScale
 70
     0
300
1:1
140
1.0
141
1.0
290
     1
  0
SCALE
  5
1C3
102
{ACAD_REACTORS
330
1C1
102
}
330
1C1
100
AcDbScale
 70
     0
300
1:2
140
1.0
141
2.0
290
     0
  0
SCALE
  5
1C4
102
{ACAD_REACTORS
330
1C1
102
}
330
1C1
100
AcDbScale
 70
     0
300
1:4
140
1.0
141
4.0
290
     0
  0
SCALE
  5
1C5
102
{ACAD_REACTORS
330
1C1
102
}
330
1C1
100
AcDbScale
 70
     0
300
1:5
140
1.0
141
5.0
290
     0
  0
SCALE
  5
1C6
102
{ACAD_REACTORS
330
1C1
102
}
330
1C1
100
AcDbScale
 70
     0
300
1:8
140
1.0
141
8.0
290
     0
  0
SCALE
  5
1C7
102
{ACAD_REACTORS
330
1C1
102
}
330
1C1
100
AcDbScale
 70
     0
300
1:10
140
1.0
141
10.0
290
     0
  0
SCALE
  5
1C8
102
{ACAD_REACTORS
330
1C1
102
}
330
1C1
100
AcDbScale
 70
     0
300
1:16
140
1.0
141
16.0
290
     0
  0
SCALE
  5
1C9
102
{ACAD_REACTORS
330
1C1
102
}
330
1C1
100
AcDbScale
 70
     0
300
1:20
140
1.0
141
20.0
290
     0
  0
SCALE
  5
1CA
102
{ACAD_REACTORS
330
1C1
102
}
330
1C1
100
AcDbScale
 70
     0
300
1:30
140
1.0
141
30.0
290
     0
  0
SCALE
  5
1CB
102
{ACAD_REACTORS
330
1C1
102
}
330
1C1
100
AcDbScale
 70
     0
300
1:40
140
1.0
141
40.0
290
     0
  0
SCALE
  5
1CC
102
{ACAD_REACTORS
330
1C1
102
}
330
1C1
100
AcDbScale
 70
     0
300
1:50
140
1.0
141
50.0
290
     0
  0
SCALE
  5
1CD
102
{ACAD_REACTORS
330
1C1
102
}
330
1C1
100
AcDbScale
 70
     0
300
1:100
140
1.0
141
100.0
290
     0
  0
SCALE
  5
1CE
102
{ACAD_REACTORS
330
1C1
102
}
330
1C1
100
AcDbScale
 70
     0
300
2:1
140
2.0
141
1.0
290
     0
  0
SCALE
  5
1CF
102
{ACAD_REACTORS
330
1C1
102
}
330
1C1
100
AcDbScale
 70
     0
300
4:1
140
4.0
141
1.0
290
     0
  0
SCALE
  5
1D0
102
{ACAD_REACTORS
330
1C1
102
}
330
1C1
100
AcDbScale
 70
     0
300
8:1
140
8.0
141
1.0
290
     0
  0
SCALE
  5
1D1
102
{ACAD_REACTORS
330
1C1
102
}
330
1C1
100
AcDbScale
 70
     0
300
10:1
140
10.0
141
1.0
290
     0
  0
SCALE
  5
1D2
102
{ACAD_REACTORS
330
1C1
102
}
330
1C1
100
AcDbScale
 70
     0
300
100:1
140
100.0
141
1.0
290
     0
  0
SCALE
  5
1D3
102
{ACAD_REACTORS
330
1C1
102
}
330
1C1
100
AcDbScale
 70
     0
300
1/128" = 1'-0"
140
0.0078125
141
12.0
290
     0
  0
SCALE
  5
1D4
102
{ACAD_REACTORS
330
1C1
102
}
330
1C1
100
AcDbScale
 70
     0
300
1/64" = 1'-0"
140
0.015625
141
12.0
290
     0
  0
SCALE
  5
1D5
102
{ACAD_REACTORS
330
1C1
102
}
330
1C1
100
AcDbScale
 70
     0
300
1/32" = 1'-0"
140
0.03125
141
12.0
290
     0
  0
SCALE
  5
1D6
102
{ACAD_REACTORS
330
1C1
102
}
330
1C1
100
AcDbScale
 70
     0
300
1/16" = 1'-0"
140
0.0625
141
12.0
290
     0
  0
SCALE
  5
1D7
102
{ACAD_REACTORS
330
1C1
102
}
330
1C1
100
AcDbScale
 70
     0
300
3/32" = 1'-0"
140
0.09375
141
12.0
290
     0
  0
SCALE
  5
1D8
102
{ACAD_REACTORS
330
1C1
102
}
330
1C1
100
AcDbScale
 70
     0
300
1/8" = 1'-0"
140
0.125
141
12.0
290
     0
  0
SCALE
  5
1D9
102
{ACAD_REACTORS
330
1C1
102
}
330
1C1
100
AcDbScale
 70
     0
300
3/16" = 1'-0"
140
0.1875
141
12.0
290
     0
  0
SCALE
  5
1DA
102
{ACAD_REACTORS
330
1C1
102
}
330
1C1
100
AcDbScale
 70
     0
300
1/4" = 1'-0"
140
0.25
141
12.0
290
     0
  0
SCALE
  5
1DB
102
{ACAD_REACTORS
330
1C1
102
}
330
1C1
100
AcDbScale
 70
     0
300
3/8" = 1'-0"
140
0.375
141
12.0
290
     0
  0
SCALE
  5
1DC
102
{ACAD_REACTORS
330
1C1
102
}
330
1C1
100
AcDbScale
 70
     0
300
1/2" = 1'-0"
140
0.5
141
12.0
290
     0
  0
SCALE
  5
1DD
102
{ACAD_REACTORS
330
1C1
102
}
330
1C1
100
AcDbScale
 70
     0
300
3/4" = 1'-0"
140
0.75
141
12.0
290
     0
  0
SCALE
  5
1DE
102
{ACAD_REACTORS
330
1C1
102
}
330
1C1
100
AcDbScale
 70
     0
300
1" = 1'-0"
140
1.0
141
12.0
290
     0
  0
SCALE
  5
1DF
102
{ACAD_REACTORS
330
1C1
102
}
330
1C1
100
AcDbScale
 70
     0
300
1-1/2" = 1'-0"
140
1.5
141
12.0
290
     0
  0
SCALE
  5
1E0
102
{ACAD_REACTORS
330
1C1
102
}
330
1C1
100
AcDbScale
 70
     0
300
3" = 1'-0"
140
3.0
141
12.0
290
     0
  0
SCALE
  5
1E1
102
{ACAD_REACTORS
330
1C1
102
}
330
1C1
100
AcDbScale
 70
     0
300
6" = 1'-0"
140
6.0
141
12.0
290
     0
  0
SCALE
  5
1E2
102
{ACAD_REACTORS
330
1C1
102
}
330
1C1
100
AcDbScale
 70
     0
300
1'-0" = 1'-0"
140
12.0
141
12.0
290
     0
  0
TABLESTYLE
  5
1B1
102
{ACAD_XDICTIONARY
360
236
102
}
102
{ACAD_REACTORS
330
1B0
102
}
330
1B0
100
AcDbTableStyle
  3
Standard
 70
     0
 71
     0
 40
0.06
 41
0.06
280
     0
281
     0
  7
Standard
140
0.18
170
     2
 62
     0
 63
     7
283
     0
274
    -2
284
     1
 64
     0
275
    -2
285
     1
 65
     0
276
    -2
286
     1
 66
     0
277
    -2
287
     1
 67
     0
278
    -2
288
     1
 68
     0
279
    -2
289
     1
 69
     0
  7
Standard
140
0.25
170
     5
 62
     0
 63
     7
283
     0
274
    -2
284
     1
 64
     0
275
    -2
285
     1
 65
     0
276
    -2
286
     1
 66
     0
277
    -2
287
     1
 67
     0
278
    -2
288
     1
 68
     0
279
    -2
289
     1
 69
     0
  7
Standard
140
0.18
170
     5
 62
     0
 63
     7
283
     0
274
    -2
284
     1
 64
     0
275
    -2
285
     1
 65
     0
276
    -2
286
     1
 66
     0
277
    -2
287
     1
 67
     0
278
    -2
288
     1
 68
     0
279
    -2
289
     1
 69
     0
  0
VISUALSTYLE
  5
1A4
102
{ACAD_REACTORS
330
19E
102
}
330
19E
100
AcDbVisualStyle
  2
2dWireframe
 70
     4
 71
     0
 72
     2
 73
     0
 90
        0
 40
-0.6
 41
-30.0
 62
     5
 63
     7
421
 16777215
 74
     1
 91
        4
 64
     7
 65
   257
 75
     1
175
     1
 42
1.0
 92
        0
 66
   257
 43
1.0
 76
     1
 77
     6
 78
     2
 67
     7
 79
     5
170
     0
171
     0
290
     0
174
     0
 93
        1
 44
0.0
173
     0
291
     0
 45
0.0
1001
ACAD
1000
AcDbSavedByObjectVersion
1070
     0
  0
VISUALSTYLE
  5
1A6
102
{ACAD_REACTORS
330
19E
102
}
330
19E
100
AcDbVisualStyle
  2
3D Hidden
 70
     6
 71
     1
 72
     2
 73
     2
 90
        0
 40
-0.6
 41
-30.0
 62
     5
 63
     7
421
 16777215
 74
     2
 91
        2
 64
     7
 65
   257
 75
     2
175
     1
 42
40.0
 92
        0
 66
   257
 43
1.0
 76
     1
 77
     6
 78
     2
 67
     7
 79
     3
170
     0
171
     0
290
     0
174
     0
 93
        1
 44
0.0
173
     0
291
     0
 45
0.0
1001
ACAD
1000
AcDbSavedByObjectVersion
1070
     0
  0
VISUALSTYLE
  5
1A5
102
{ACAD_REACTORS
330
19E
102
}
330
19E
100
AcDbVisualStyle
  2
3dWireframe
 70
     5
 71
     0
 72
     2
 73
     0
 90
        0
 40
-0.6
 41
-30.0
 62
     5
 63
     7
421
 16777215
 74
     1
 91
        4
 64
     7
 65
   257
 75
     1
175
     1
 42
1.0
 92
        0
 66
   257
 43
1.0
 76
     1
 77
     6
 78
     2
 67
     7
 79
     5
170
     0
171
     0
290
     0
174
     0
 93
        1
 44
0.0
173
     0
291
     0
 45
0.0
1001
ACAD
1000
AcDbSavedByObjectVersion
1070
     0
  0
VISUALSTYLE
  5
1A3
102
{ACAD_REACTORS
330
19E
102
}
330
19E
100
AcDbVisualStyle
  2
Basic
 70
     7
 71
     1
 72
     0
 73
     1
 90
        0
 40
-0.6
 41
-30.0
 62
     5
 63
     7
421
 16777215
 74
     0
 91
        4
 64
     7
 65
   257
 75
     1
175
     1
 42
1.0
 92
        8
 66
     7
 43
1.0
 76
     1
 77
     6
 78
     2
 67
     7
 79
     5
170
     0
171
     0
290
     0
174
     0
 93
        1
 44
0.0
173
     0
291
     1
 45
0.0
1001
ACAD
1000
AcDbSavedByObjectVersion
1070
     0
  0
VISUALSTYLE
  5
1AA
102
{ACAD_REACTORS
330
19E
102
}
330
19E
100
AcDbVisualStyle
  2
Brighten
 70
    12
 71
     2
 72
     2
 73
     0
 90
        0
 40
-0.6
 41
-30.0
 62
     5
 63
     7
421
 16777215
 74
     1
 91
        4
 64
     7
 65
   257
 75
     1
175
     1
 42
1.0
 92
        8
 66
     7
 43
1.0
 76
     1
 77
     6
 78
     2
 67
     7
 79
     5
170
     0
171
     0
290
     0
174
     0
 93
        1
 44
50.0
173
     0
291
     1
 45
0.0
1001
ACAD
1000
AcDbSavedByObjectVersion
1070
     0
  0
VISUALSTYLE
  5
1AE
102
{ACAD_REACTORS
330
19E
102
}
330
19E
100
AcDbVisualStyle
  2
ColorChange
 70
    16
 71
     2
 72
     2
 73
     3
 90
        0
 40
-0.6
 41
-30.0
 62
     5
 63
     8
421
  8421504
 74
     1
 91
        4
 64
     7
 65
   257
 75
     1
175
     1
 42
1.0
 92
        8
 66
     8
424
  8421504
 43
1.0
 76
     1
 77
     6
 78
     2
 67
     7
 79
     5
170
     0
171
     0
290
     0
174
     0
 93
        1
 44
0.0
173
     0
291
     1
 45
0.0
1001
ACAD
1000
AcDbSavedByObjectVersion
1070
     0
  0
VISUALSTYLE
  5
1A7
102
{ACAD_REACTORS
330
19E
102
}
330
19E
100
AcDbVisualStyle
  2
Conceptual
 70
     9
 71
     3
 72
     2
 73
     0
 90
        0
 40
-0.6
 41
-30.0
 62
     5
 63
     7
421
 16777215
 74
     2
 91
        2
 64
     7
 65
   257
 75
     1
175
     1
 42
40.0
 92
        8
 66
     7
 43
1.0
 76
     1
 77
     6
 78
     2
 67
     7
 79
     3
170
     0
171
     0
290
     0
174
     0
 93
        1
 44
0.0
173
     0
291
     0
 45
0.0
1001
ACAD
1000
AcDbSavedByObjectVersion
1070
     0
  0
VISUALSTYLE
  5
1A9
102
{ACAD_REACTORS
330
19E
102
}
330
19E
100
AcDbVisualStyle
  2
Dim
 70
    11
 71
     2
 72
     2
 73
     0
 90
        0
 40
-0.6
 41
-30.0
 62
     5
 63
     7
421
 16777215
 74
     1
 91
        4
 64
     7
 65
   257
 75
     1
175
     1
 42
1.0
 92
        8
 66
     7
 43
1.0
 76
     1
 77
     6
 78
     2
 67
     7
 79
     5
170
     0
171
     0
290
     0
174
     0
 93
        1
 44
-50.0
173
     0
291
     1
 45
0.0
1001
ACAD
1000
AcDbSavedByObjectVersion
1070
     0
  0
VISUALSTYLE
  5
1AD
102
{ACAD_REACTORS
330
19E
102
}
330
19E
100
AcDbVisualStyle
  2
Facepattern
 70
    15
 71
     2
 72
     2
 73
     0
 90
        0
 40
-0.6
 41
-30.0
 62
     5
 63
     7
421
 16777215
 74
     1
 91
        4
 64
     7
 65
   257
 75
     1
175
     1
 42
1.0
 92
        8
 66
     7
 43
1.0
 76
     1
 77
     6
 78
     2
 67
     7
 79
     5
170
     0
171
     0
290
     0
174
     0
 93
        1
 44
0.0
173
     0
291
     1
 45
0.0
1001
ACAD
1000
AcDbSavedByObjectVersion
1070
     0
  0
VISUALSTYLE
  5
19F
102
{ACAD_REACTORS
330
19E
102
}
330
19E
100
AcDbVisualStyle
  2
Flat
 70
     0
 71
     2
 72
     1
 73
     1
 90
        2
 40
-0.6
 41
30.0
 62
     5
 63
     7
421
 16777215
 74
     0
 91
        4
 64
     7
 65
   257
 75
     1
175
     1
 42
1.0
 92
        8
 66
     7
 43
1.0
 76
     1
 77
     6
 78
     2
 67
     7
 79
     5
170
     0
171
     0
290
     0
174
     0
 93
       13
 44
0.0
173
     0
291
     1
 45
0.0
1001
ACAD
1000
AcDbSavedByObjectVersion
1070
     0
  0
VISUALSTYLE
  5
1A0
102
{ACAD_REACTORS
330
19E
102
}
330
19E
100
AcDbVisualStyle
  2
FlatWithEdges
 70
     1
 71
     2
 72
     1
 73
     1
 90
        2
 40
-0.6
 41
30.0
 62
     5
 63
     7
421
 16777215
 74
     1
 91
        4
 64
     7
 65
   257
 75
     1
175
     1
 42
1.0
 92
        0
 66
   257
 43
1.0
 76
     1
 77
     6
 78
     2
 67
     7
 79
     5
170
     0
171
     0
290
     0
174
     0
 93
       13
 44
0.0
173
     0
291
     1
 45
0.0
1001
ACAD
1000
AcDbSavedByObjectVersion
1070
     0
  0
VISUALSTYLE
  5
1A1
102
{ACAD_REACTORS
330
19E
102
}
330
19E
100
AcDbVisualStyle
  2
Gouraud
 70
     2
 71
     2
 72
     2
 73
     1
 90
        2
 40
-0.6
 41
30.0
 62
     5
 63
     7
421
 16777215
 74
     0
 91
        4
 64
     7
 65
   257
 75
     1
175
     1
 42
1.0
 92
        0
 66
     7
 43
1.0
 76
     1
 77
     6
 78
     2
 67
     7
 79
     5
170
     0
171
     0
290
     0
174
     0
 93
       13
 44
0.0
173
     0
291
     1
 45
0.0
1001
ACAD
1000
AcDbSavedByObjectVersion
1070
     0
  0
VISUALSTYLE
  5
1A2
102
{ACAD_REACTORS
330
19E
102
}
330
19E
100
AcDbVisualStyle
  2
GouraudWithEdges
 70
     3
 71
     2
 72
     2
 73
     1
 90
        2
 40
-0.6
 41
30.0
 62
     5
 63
     7
421
 16777215
 74
     1
 91
        4
 64
     7
 65
   257
 75
     1
175
     1
 42
1.0
 92
        0
 66
   257
 43
1.0
 76
     1
 77
     6
 78
     2
 67
     7
 79
     5
170
     0
171
     0
290
     0
174
     0
 93
       13
 44
0.0
173
     0
291
     1
 45
0.0
1001
ACAD
1000
AcDbSavedByObjectVersion
1070
     0
  0
VISUALSTYLE
  5
1AC
102
{ACAD_REACTORS
330
19E
102
}
330
19E
100
AcDbVisualStyle
  2
Linepattern
 70
    14
 71
     2
 72
     2
 73
     0
 90
        0
 40
-0.6
 41
-30.0
 62
     5
 63
     7
421
 16777215
 74
     1
 91
        4
 64
     7
 65
   257
 75
     7
175
     7
 42
1.0
 92
        8
 66
     7
 43
1.0
 76
     1
 77
     6
 78
     2
 67
     7
 79
     5
170
     0
171
     0
290
     0
174
     0
 93
        1
 44
0.0
173
     0
291
     1
 45
0.0
1001
ACAD
1000
AcDbSavedByObjectVersion
1070
     0
  0
VISUALSTYLE
  5
1A8
102
{ACAD_REACTORS
330
19E
102
}
330
19E
100
AcDbVisualStyle
  2
Realistic
 70
     8
 71
     2
 72
     2
 73
     0
 90
        0
 40
-0.6
 41
-30.0
 62
     5
 63
     7
421
 16777215
 74
     1
 91
        0
 64
     7
 65
   257
 75
     1
175
     1
 42
1.0
 92
        8
 66
     8
424
  7895160
 43
1.0
 76
     1
 77
     6
 78
     2
 67
     7
 79
     5
170
     0
171
     0
290
     0
174
     0
 93
       13
 44
0.0
173
     0
291
     0
 45
0.0
1001
ACAD
1000
AcDbSavedByObjectVersion
1070
     0
  0
VISUALSTYLE
  5
1AB
102
{ACAD_REACTORS
330
19E
102
}
330
19E
100
AcDbVisualStyle
  2
Thicken
 70
    13
 71
     2
 72
     2
 73
     0
 90
        0
 40
-0.6
 41
-30.0
 62
     5
 63
     7
421
 16777215
 74
     1
 91
        4
 64
     7
 65
   257
 75
     1
175
     1
 42
1.0
 92
       12
 66
     7
 43
1.0
 76
     1
 77
     6
 78
     2
 67
     7
 79
     5
170
     0
171
     0
290
     0
174
     0
 93
        1
 44
0.0
173
     0
291
     1
 45
0.0
1001
ACAD
1000
AcDbSavedByObjectVersion
1070
     0
  0
DICTIONARYVAR
  5
235
102
{ACAD_REACTORS
330
1BE
102
}
330
1BE
100
DictionaryVariables
280
     0
  1
1:1
  0
DICTIONARYVAR
  5
234
102
{ACAD_REACTORS
330
1BE
102
}
330
1BE
100
DictionaryVariables
280
     0
  1
STANDARD
  0
DICTIONARYVAR
  5
1BF
102
{ACAD_REACTORS
330
1BE
102
}
330
1BE
100
DictionaryVariables
280
     0
  1
STANDARD
  0
XRECORD
  5
1BD
102
{ACAD_REACTORS
330
1BB
102
}
330
1BB
100
AcDbXrecord
280
     1
  0
DICTIONARY
  5
23B
330
19C
100
AcDbDictionary
280
     1
281
     1
  3
ACAD_XREC_ROUNDTRIP
360
23C
  0
DICTIONARY
  5
239
330
19B
100
AcDbDictionary
280
     1
281
     1
  3
ACAD_XREC_ROUNDTRIP
360
23A
  0
DICTIONARY
  5
23D
330
19D
100
AcDbDictionary
280
     1
281
     1
  3
ACAD_XREC_ROUNDTRIP
360
23E
  0
DICTIONARY
  5
236
330
1B1
100
AcDbDictionary
280
     1
281
     1
  3
ACAD_ROUNDTRIP_2008_TABLESTYLE_CELLSTYLEMAP
360
237
  3
ACAD_XREC_ROUNDTRIP
360
23F
  0
XRECORD
  5
23C
102
{ACAD_REACTORS
330
23B
102
}
330
23B
100
AcDbXrecord
280
     1
102
MATERIAL
148
0.0
149
0.0
149
0.0
 93
        0
 94
       63
282
     0
 72
     1
 77
     1
171
     1
175
     1
179
     1
273
     0
  0
XRECORD
  5
23A
102
{ACAD_REACTORS
330
239
102
}
330
239
100
AcDbXrecord
280
     1
102
MATERIAL
148
0.0
149
0.0
149
0.0
 93
        0
 94
       63
282
     0
 72
     1
 77
     1
171
     1
175
     1
179
     1
273
     0
  0
XRECORD
  5
23E
102
{ACAD_REACTORS
330
23D
102
}
330
23D
100
AcDbXrecord
280
     1
102
MATERIAL
148
0.0
149
0.0
149
0.0
 93
        0
 94
       63
282
     0
 72
     1
 77
     1
171
     1
175
     1
179
     1
273
     0
  0
CELLSTYLEMAP
  5
237
102
{ACAD_REACTORS
330
236
102
}
330
236
100
AcDbCellStyleMap
 90
        3
300
CELLSTYLE
  1
TABLEFORMAT_BEGIN
 90
        5
170
     1
 91
        0
 92
    32768
 62
   257
 93
        1
300
CONTENTFORMAT
  1
CONTENTFORMAT_BEGIN
 90
        0
 91
        0
 92
      512
 93
        0
300

 40
0.0
140
1.0
 94
        5
 62
     0
340
17
144
0.25
309
CONTENTFORMAT_END
171
     0
 94
        6
 95
        1
302
GRIDFORMAT
  1
GRIDFORMAT_BEGIN
 90
        0
 91
        1
 62
     0
 92
       -2
340
0
 93
        0
 40
0.045
309
GRIDFORMAT_END
 95
        2
302
GRIDFORMAT
  1
GRIDFORMAT_BEGIN
 90
        0
 91
        1
 62
     0
 92
       -2
340
0
 93
        0
 40
0.045
309
GRIDFORMAT_END
 95
        4
302
GRIDFORMAT
  1
GRIDFORMAT_BEGIN
 90
        0
 91
        1
 62
     0
 92
       -2
340
0
 93
        0
 40
0.045
309
GRIDFORMAT_END
 95
        8
302
GRIDFORMAT
  1
GRIDFORMAT_BEGIN
 90
        0
 91
        1
 62
     0
 92
       -2
340
0
 93
        0
 40
0.045
309
GRIDFORMAT_END
 95
       16
302
GRIDFORMAT
  1
GRIDFORMAT_BEGIN
 90
        0
 91
        1
 62
     0
 92
       -2
340
0
 93
        0
 40
0.045
309
GRIDFORMAT_END
 95
       32
302
GRIDFORMAT
  1
GRIDFORMAT_BEGIN
 90
        0
 91
        1
 62
     0
 92
       -2
340
0
 93
        0
 40
0.045
309
GRIDFORMAT_END
309
TABLEFORMAT_END
  1
CELLSTYLE_BEGIN
 90
        1
 91
        1
300
_TITLE
309
CELLSTYLE_END
300
CELLSTYLE
  1
TABLEFORMAT_BEGIN
 90
        5
170
     1
 91
        0
 92
        0
 62
   257
 93
        1
300
CONTENTFORMAT
  1
CONTENTFORMAT_BEGIN
 90
        0
 91
        0
 92
      512
 93
        0
300

 40
0.0
140
1.0
 94
        5
 62
     0
340
17
144
0.18
309
CONTENTFORMAT_END
171
     0
 94
        6
 95
        1
302
GRIDFORMAT
  1
GRIDFORMAT_BEGIN
 90
        0
 91
        1
 62
     0
 92
       -2
340
0
 93
        0
 40
0.045
309
GRIDFORMAT_END
 95
        2
302
GRIDFORMAT
  1
GRIDFORMAT_BEGIN
 90
        0
 91
        1
 62
     0
 92
       -2
340
0
 93
        0
 40
0.045
309
GRIDFORMAT_END
 95
        4
302
GRIDFORMAT
  1
GRIDFORMAT_BEGIN
 90
        0
 91
        1
 62
     0
 92
       -2
340
0
 93
        0
 40
0.045
309
GRIDFORMAT_END
 95
        8
302
GRIDFORMAT
  1
GRIDFORMAT_BEGIN
 90
        0
 91
        1
 62
     0
 92
       -2
340
0
 93
        0
 40
0.045
309
GRIDFORMAT_END
 95
       16
302
GRIDFORMAT
  1
GRIDFORMAT_BEGIN
 90
        0
 91
        1
 62
     0
 92
       -2
340
0
 93
        0
 40
0.045
309
GRIDFORMAT_END
 95
       32
302
GRIDFORMAT
  1
GRIDFORMAT_BEGIN
 90
        0
 91
        1
 62
     0
 92
       -2
340
0
 93
        0
 40
0.045
309
GRIDFORMAT_END
309
TABLEFORMAT_END
  1
CELLSTYLE_BEGIN
 90
        2
 91
        1
300
_HEADER
309
CELLSTYLE_END
300
CELLSTYLE
  1
TABLEFORMAT_BEGIN
 90
        5
170
     1
 91
        0
 92
        0
 62
   257
 93
        1
300
CONTENTFORMAT
  1
CONTENTFORMAT_BEGIN
 90
        0
 91
        0
 92
      512
 93
        0
300

 40
0.0
140
1.0
 94
        2
 62
     0
340
17
144
0.18
309
CONTENTFORMAT_END
171
     0
 94
        6
 95
        1
302
GRIDFORMAT
  1
GRIDFORMAT_BEGIN
 90
        0
 91
        1
 62
     0
 92
       -2
340
0
 93
        0
 40
0.045
309
GRIDFORMAT_END
 95
        2
302
GRIDFORMAT
  1
GRIDFORMAT_BEGIN
 90
        0
 91
        1
 62
     0
 92
       -2
340
0
 93
        0
 40
0.045
309
GRIDFORMAT_END
 95
        4
302
GRIDFORMAT
  1
GRIDFORMAT_BEGIN
 90
        0
 91
        1
 62
     0
 92
       -2
340
0
 93
        0
 40
0.045
309
GRIDFORMAT_END
 95
        8
302
GRIDFORMAT
  1
GRIDFORMAT_BEGIN
 90
        0
 91
        1
 62
     0
 92
       -2
340
0
 93
        0
 40
0.045
309
GRIDFORMAT_END
 95
       16
302
GRIDFORMAT
  1
GRIDFORMAT_BEGIN
 90
        0
 91
        1
 62
     0
 92
       -2
340
0
 93
        0
 40
0.045
309
GRIDFORMAT_END
 95
       32
302
GRIDFORMAT
  1
GRIDFORMAT_BEGIN
 90
        0
 91
        1
 62
     0
 92
       -2
340
0
 93
        0
 40
0.045
309
GRIDFORMAT_END
309
TABLEFORMAT_END
  1
CELLSTYLE_BEGIN
 90
        3
 91
        2
300
_DATA
309
CELLSTYLE_END
  0
XRECORD
  5
23F
102
{ACAD_REACTORS
330
236
102
}
330
236
100
AcDbXrecord
280
     1
102
ACAD_ROUNDTRIP_PRE2007_TABLESTYLE
 90
      512
 91
        0
  1

 92
      512
 93
        0
  2

 94
      512
 95
        0
  3

  0
ENDSEC
  0
EOF
