  0
SECTION
  2
HEADER
  9
$ACADVER
  1
AC1018
  9
$ACADMAINTVER
 70
   104
  9
$DWGCODEPAGE
  3
ANSI_1252
  9
$LASTSAVEDBY
  1
EARL
  9
$INSBASE
 10
0.0
 20
0.0
 30
0.0
  9
$EXTMIN
 10
-3.549964476756052
 20
3.859888440568898
 30
0.0
  9
$EXTMAX
 10
2.40966502002521
 20
7.992880047383229
 30
0.0
  9
$LIMMIN
 10
0.0
 20
0.0
  9
$LIMMAX
 10
0.0
 20
0.0
  9
$ORTHOMODE
 70
     0
  9
$REGENMODE
 70
     1
  9
$FILLMODE
 70
     1
  9
$QTEXTMODE
 70
     0
  9
$MIRRTEXT
 70
     1
  9
$LTSCALE
 40
1.0
  9
$ATTMODE
 70
     1
  9
$TEXTSIZE
 40
0.0
  9
$TRACEWID
 40
0.05
  9
$TEXTSTYLE
  7
Standard
  9
$CLAYER
  8
0
  9
$CELTYPE
  6
Continuous
  9
$CECOLOR
 62
   256
  9
$CELTSCALE
 40
1.0
  9
$DISPSILH
 70
     0
  9
$DIMSCALE
 40
1.0
  9
$DIMASZ
 40
0.18
  9
$DIMEXO
 40
0.0625
  9
$DIMDLI
 40
0.38
  9
$DIMRND
 40
0.0
  9
$DIMDLE
 40
0.0
  9
$DIMEXE
 40
0.18
  9
$DIMTP
 40
0.0
  9
$DIMTM
 40
0.0
  9
$DIMTXT
 40
0.18
  9
$DIMCEN
 40
0.09
  9
$DIMTSZ
 40
0.0
  9
$DIMTOL
 70
     0
  9
$DIMLIM
 70
     0
  9
$DIMTIH
 70
     1
  9
$DIMTOH
 70
     1
  9
$DIMSE1
 70
     0
  9
$DIMSE2
 70
     0
  9
$DIMTAD
 70
     0
  9
$DIMZIN
 70
     0
  9
$DIMBLK
  1

  9
$DIMASO
 70
     1
  9
$DIMSHO
 70
     1
  9
$DIMPOST
  1

  9
$DIMAPOST
  1

  9
$DIMALT
 70
     0
  9
$DIMALTD
 70
     2
  9
$DIMALTF
 40
25.4
  9
$DIMLFAC
 40
1.0
  9
$DIMTOFL
 70
     0
  9
$DIMTVP
 40
0.0
  9
$DIMTIX
 70
     0
  9
$DIMSOXD
 70
     0
  9
$DIMSAH
 70
     0
  9
$DIMBLK1
  1

  9
$DIMBLK2
  1

  9
$DIMSTYLE
  2
Standard
  9
$DIMCLRD
 70
     0
  9
$DIMCLRE
 70
     0
  9
$DIMCLRT
 70
     0
  9
$DIMTFAC
 40
1.0
  9
$DIMGAP
 40
0.09
  9
$DIMJUST
 70
     0
  9
$DIMSD1
 70
     0
  9
$DIMSD2
 70
     0
  9
$DIMTOLJ
 70
     1
  9
$DIMTZIN
 70
     0
  9
$DIMALTZ
 70
     0
  9
$DIMALTTZ
 70
     0
  9
$DIMUPT
 70
     0
  9
$DIMDEC
 70
     4
  9
$DIMTDEC
 70
     4
  9
$DIMALTU
 70
     2
  9
$DIMALTTD
 70
     2
  9
$DIMTXSTY
  7
Standard
  9
$DIMAUNIT
 70
     0
  9
$DIMADEC
 70
     0
  9
$DIMALTRND
 40
0.0
  9
$DIMAZIN
 70
     0
  9
$DIMDSEP
 70
    46
  9
$DIMATFIT
 70
     0
  9
$DIMFRAC
 70
     0
  9
$DIMLDRBLK
  1

  9
$DIMLUNIT
 70
     2
  9
$DIMLWD
 70
    -2
  9
$DIMLWE
 70
    -2
  9
$DIMTMOVE
 70
     0
  9
$LUNITS
 70
     2
  9
$LUPREC
 70
     4
  9
$SKETCHINC
 40
0.1
  9
$FILLETRAD
 40
0.0
  9
$AUNITS
 70
     0
  9
$AUPREC
 70
     0
  9
$MENU
  1
acad
  9
$ELEVATION
 40
0.0
  9
$PELEVATION
 40
0.0
  9
$THICKNESS
 40
0.0
  9
$LIMCHECK
 70
     0
  9
$CHAMFERA
 40
0.0
  9
$CHAMFERB
 40
0.0
  9
$CHAMFERC
 40
0.0
  9
$CHAMFERD
 40
0.0
  9
$SKPOLY
 70
     0
  9
$TDCREATE
 40
2453979.100960648
  9
$TDUCREATE
 40
2453979.267627315
  9
$TDUPDATE
 40
2455095.964609005
  9
$TDUUPDATE
 40
2455096.131275671
  9
$TDINDWG
 40
0.0162241551
  9
$TDUSRTIMER
 40
0.0162241551
  9
$USRTIMER
 70
     1
  9
$ANGBASE
 50
0.0
  9
$ANGDIR
 70
     0
  9
$PDMODE
 70
     0
  9
$PDSIZE
 40
0.0
  9
$PLINEWID
 40
0.0
  9
$SPLFRAME
 70
     0
  9
$SPLINETYPE
 70
     6
  9
$SPLINESEGS
 70
     8
  9
$HANDSEED
  5
19B
  9
$SURFTAB1
 70
     6
  9
$SURFTAB2
 70
     6
  9
$SURFTYPE
 70
     6
  9
$SURFU
 70
     6
  9
$SURFV
 70
     6
  9
$UCSBASE
  2

  9
$UCSNAME
  2

  9
$UCSORG
 10
0.0
 20
0.0
 30
0.0
  9
$UCSXDIR
 10
1.0
 20
0.0
 30
0.0
  9
$UCSYDIR
 10
0.0
 20
1.0
 30
0.0
  9
$UCSORTHOREF
  2

  9
$UCSORTHOVIEW
 70
     0
  9
$UCSORGTOP
 10
0.0
 20
0.0
 30
0.0
  9
$UCSORGBOTTOM
 10
0.0
 20
0.0
 30
0.0
  9
$UCSORGLEFT
 10
0.0
 20
0.0
 30
0.0
  9
$UCSORGRIGHT
 10
0.0
 20
0.0
 30
0.0
  9
$UCSORGFRONT
 10
0.0
 20
0.0
 30
0.0
  9
$UCSORGBACK
 10
0.0
 20
0.0
 30
0.0
  9
$PUCSBASE
  2

  9
$PUCSNAME
  2

  9
$PUCSORG
 10
0.0
 20
0.0
 30
0.0
  9
$PUCSXDIR
 10
1.0
 20
0.0
 30
0.0
  9
$PUCSYDIR
 10
0.0
 20
1.0
 30
0.0
  9
$PUCSORTHOREF
  2

  9
$PUCSORTHOVIEW
 70
     0
  9
$PUCSORGTOP
 10
0.0
 20
0.0
 30
0.0
  9
$PUCSORGBOTTOM
 10
0.0
 20
0.0
 30
0.0
  9
$PUCSORGLEFT
 10
0.0
 20
0.0
 30
0.0
  9
$PUCSORGRIGHT
 10
0.0
 20
0.0
 30
0.0
  9
$PUCSORGFRONT
 10
0.0
 20
0.0
 30
0.0
  9
$PUCSORGBACK
 10
0.0
 20
0.0
 30
0.0
  9
$USERI1
 70
     0
  9
$USERI2
 70
     0
  9
$USERI3
 70
     0
  9
$USERI4
 70
     0
  9
$USERI5
 70
     0
  9
$USERR1
 40
0.0
  9
$USERR2
 40
0.0
  9
$USERR3
 40
0.0
  9
$USERR4
 40
0.0
  9
$USERR5
 40
0.0
  9
$WORLDVIEW
 70
     1
  9
$SHADEDGE
 70
     3
  9
$SHADEDIF
 70
    70
  9
$TILEMODE
 70
     0
  9
$MAXACTVP
 70
    16
  9
$PINSBASE
 10
0.0
 20
0.0
 30
0.0
  9
$PLIMCHECK
 70
     0
  9
$PEXTMIN
 10
0.1248014133064252
 20
0.129760755438955
 30
-0.0015258207003583
  9
$PEXTMAX
 10
10.38442948422054
 20
7.875427039496241
 30
0.0000000349246037
  9
$PLIMMIN
 10
-0.2500002402958907
 20
-0.2499999962453767
  9
$PLIMMAX
 10
10.74999951940821
 20
8.249999763458731
  9
$UNITMODE
 70
     0
  9
$VISRETAIN
 70
     0
  9
$PLINEGEN
 70
     1
  9
$PSLTSCALE
 70
     0
  9
$TREEDEPTH
 70
  3020
  9
$CMLSTYLE
  2
Standard
  9
$CMLJUST
 70
     0
  9
$CMLSCALE
 40
1.0
  9
$PROXYGRAPHICS
 70
     0
  9
$MEASUREMENT
 70
     0
  9
$CELWEIGHT
370
    18
  9
$ENDCAPS
280
     0
  9
$JOINSTYLE
280
     0
  9
$LWDISPLAY
290
     0
  9
$INSUNITS
 70
     0
  9
$HYPERLINKBASE
  1

  9
$STYLESHEET
  1

  9
$XEDIT
290
     1
  9
$CEPSNTYPE
380
     0
  9
$PSTYLEMODE
290
     1
  9
$FINGERPRINTGUID
  2

  9
$VERSIONGUID
  2
{AC317C0E-E7C5-4DBA-A1D3-71F175142FC0}
  9
$EXTNAMES
290
     1
  9
$PSVPSCALE
 40
0.0
  9
$OLESTARTUP
290
     0
  9
$SORTENTS
280
   127
  9
$INDEXCTL
280
     0
  9
$HIDETEXT
280
     0
  9
$XCLIPFRAME
290
     0
  9
$HALOGAP
280
     0
  9
$OBSCOLOR
 70
   257
  9
$OBSLTYPE
280
     0
  9
$INTERSECTIONDISPLAY
280
     0
  9
$INTERSECTIONCOLOR
 70
   257
  9
$DIMASSOC
280
     1
  9
$PROJECTNAME
  1

  0
ENDSEC
  0
SECTION
  2
CLASSES
  0
CLASS
  1
IMAGE
  2
AcDbRasterImage
  3
ISM
 90
     2175
 91
        0
280
     0
281
     1
  0
CLASS
  1
DICTIONARYVAR
  2
AcDbDictionaryVar
  3
ObjectDBX Classes
 90
        0
 91
        5
280
     0
281
     0
  0
CLASS
  1
RASTERVARIABLES
  2
AcDbRasterVariables
  3
ISM
 90
        0
 91
        0
280
     0
281
     0
  0
CLASS
  1
IMAGEDEF
  2
AcDbRasterImageDef
  3
ISM
 90
        0
 91
        0
280
     0
281
     0
  0
CLASS
  1
IMAGEDEF_REACTOR
  2
AcDbRasterImageDefReactor
  3
ISM
 90
        1
 91
        0
280
     0
281
     0
  0
CLASS
  1
IDBUFFER
  2
AcDbIdBuffer
  3
ObjectDBX Classes
 90
        0
 91
        0
280
     0
281
     0
  0
CLASS
  1
SPATIAL_FILTER
  2
AcDbSpatialFilter
  3
ObjectDBX Classes
 90
        0
 91
        0
280
     0
281
     0
  0
CLASS
  1
SORTENTSTABLE
  2
AcDbSortentsTable
  3
ObjectDBX Classes
 90
        0
 91
        1
280
     0
281
     0
  0
CLASS
  1
LAYER_INDEX
  2
AcDbLayerIndex
  3
ObjectDBX Classes
 90
        0
 91
        0
280
     0
281
     0
  0
CLASS
  1
SPATIAL_INDEX
  2
AcDbSpatialIndex
  3
ObjectDBX Classes
 90
        0
 91
        0
280
     0
281
     0
  0
CLASS
  1
OBJECT_PTR
  2
CAseDLPNTableRecord
  3
ASE-LPNTableRecord
 90
        1
 91
        0
280
     0
281
     0
  0
CLASS
  1
PLOTSETTINGS
  2
AcDbPlotSettings
  3
ObjectDBX Classes
 90
        0
 91
        0
280
     0
281
     0
  0
CLASS
  1
ACDBDICTIONARYWDFLT
  2
AcDbDictionaryWithDefault
  3
ObjectDBX Classes
 90
        0
 91
        1
280
     0
281
     0
  0
CLASS
  1
WIPEOUT
  2
AcDbWipeout
  3
"WipeOut|Product Desc: Object Enabler for WipeOut entity                        |Company: Autodesk, Inc.                        |WEB Address: www.autodesk.com"
 90
     2175
 91
        0
280
     0
281
     1
  0
CLASS
  1
WIPEOUTVARIABLES
  2
AcDbWipeoutVariables
  3
"WipeOut|Product Desc:     WipeOut Dbx Application|Company:          Autodesk, Inc.|WEB Address:      www.autodesk.com"
 90
        0
 91
        1
280
     0
281
     0
  0
CLASS
  1
RTEXT
  2
RText
  3
RText|AutoCAD Express Tool|expresstools@autodesk.com
 90
     3071
 91
        0
280
     0
281
     1
  0
CLASS
  1
ARCALIGNEDTEXT
  2
AcDbArcAlignedText
  3
ATEXT|AutoCAD Express Tool|expresstools@autodesk.com
 90
        0
 91
        0
280
     0
281
     1
  0
CLASS
  1
TABLESTYLE
  2
AcDbTableStyle
  3
ObjectDBX Classes
 90
     4095
 91
        1
280
     0
281
     0
  0
CLASS
  1
MATERIAL
  2
AcDbMaterial
  3
ObjectDBX Classes
 90
     1153
 91
        3
280
     0
281
     0
  0
CLASS
  1
VISUALSTYLE
  2
AcDbVisualStyle
  3
ObjectDBX Classes
 90
     4095
 91
       16
280
     0
281
     0
  0
CLASS
  1
SCALE
  2
AcDbScale
  3
ObjectDBX Classes
 90
     1153
 91
       33
280
     0
281
     0
  0
CLASS
  1
MLEADERSTYLE
  2
AcDbMLeaderStyle
  3
ACDB_MLEADERSTYLE_CLASS
 90
     4095
 91
        1
280
     0
281
     0
  0
CLASS
  1
CELLSTYLEMAP
  2
AcDbCellStyleMap
  3
ObjectDBX Classes
 90
     1152
 91
        2
280
     0
281
     0
  0
ENDSEC
  0
SECTION
  2
TABLES
  0
TABLE
  2
VPORT
  5
7
330
0
100
AcDbSymbolTable
 70
     1
  0
VPORT
  5
101
330
7
100
AcDbSymbolTableRecord
100
AcDbViewportTableRecord
  2
*Active
 70
     0
 10
0.0
 20
0.0
 11
1.0
 21
1.0
 12
2.44887733366491
 22
4.943531390889734
 13
0.0
 23
0.0
 14
1.0
 24
1.0
 15
0.0
 25
0.0
 16
0.0
 26
0.0
 36
1.0
 17
0.0
 27
0.0
 37
0.0
 40
9.15836902063333
 41
2.518123667377398
 42
50.0
 43
0.0
 44
0.0
 50
0.0
 51
0.0
 71
     0
 72
   100
 73
     1
 74
     1
 75
     0
 76
     0
 77
     0
 78
     0
281
     0
 65
     0
110
0.0
120
0.0
130
0.0
111
1.0
121
0.0
131
0.0
112
0.0
122
1.0
132
0.0
 79
     0
146
0.0
  0
ENDTAB
  0
TABLE
  2
LTYPE
  5
4
330
0
100
AcDbSymbolTable
 70
     5
  0
LTYPE
  5
11
330
4
100
AcDbSymbolTableRecord
100
AcDbLinetypeTableRecord
  2
ByBlock
 70
     0
  3

 72
    65
 73
     0
 40
0.0
  0
LTYPE
  5
12
330
4
100
AcDbSymbolTableRecord
100
AcDbLinetypeTableRecord
  2
ByLayer
 70
     0
  3

 72
    65
 73
     0
 40
0.0
  0
LTYPE
  5
13
330
4
100
AcDbSymbolTableRecord
100
AcDbLinetypeTableRecord
  2
Continuous
 70
     0
  3
Solid line
 72
    65
 73
     0
 40
0.0
  0
LTYPE
  5
24
330
4
100
AcDbSymbolTableRecord
100
AcDbLinetypeTableRecord
  2
solid
 70
     0
  3

 72
    65
 73
     0
 40
0.0
  0
LTYPE
  5
25
330
4
100
AcDbSymbolTableRecord
100
AcDbLinetypeTableRecord
  2
dashed
 70
     0
  3

 72
    65
 73
     0
 40
0.0
  0
LTYPE
  5
26
330
4
100
AcDbSymbolTableRecord
100
AcDbLinetypeTableRecord
  2
center
 70
     0
  3

 72
    65
 73
     0
 40
0.0
  0
ENDTAB
  0
TABLE
  2
LAYER
  5
2
330
0
100
AcDbSymbolTable
 70
     2
  0
LAYER
  5
14
102
{ACAD_XDICTIONARY
360
169
102
}
330
2
100
AcDbSymbolTableRecord
100
AcDbLayerTableRecord
  2
0
 70
     0
 62
     7
  6
Continuous
370
    -3
390
1D
  0
LAYER
  5
27
102
{ACAD_XDICTIONARY
360
16B
102
}
330
2
100
AcDbSymbolTableRecord
100
AcDbLayerTableRecord
  2
1
 70
     0
 62
     1
  6
solid
370
    -3
390
1D
  0
ENDTAB
  0
TABLE
  2
STYLE
  5
3
330
0
100
AcDbSymbolTable
 70
     3
  0
STYLE
  5
17
330
3
100
AcDbSymbolTableRecord
100
AcDbTextStyleTableRecord
  2
Standard
 70
     0
 40
0.0
 41
1.0
 50
0.0
 71
     0
 42
0.0
  3
txt
  4

  0
ENDTAB
  0
TABLE
  2
VIEW
  5
5
330
0
100
AcDbSymbolTable
 70
     0
  0
ENDTAB
  0
TABLE
  2
UCS
  5
6
330
0
100
AcDbSymbolTable
 70
     0
  0
ENDTAB
  0
TABLE
  2
APPID
  5
8
330
0
100
AcDbSymbolTable
 70
     4
  0
APPID
  5
16
330
8
100
AcDbSymbolTableRecord
100
AcDbRegAppTableRecord
  2
ACAD
 70
     0
  0
APPID
  5
105
330
8
100
AcDbSymbolTableRecord
100
AcDbRegAppTableRecord
  2
ACAD_PSEXT
 70
     0
  0
APPID
  5
125
330
8
100
AcDbSymbolTableRecord
100
AcDbRegAppTableRecord
  2
DCO15
 70
     0
  0
APPID
  5
14C
330
8
100
AcDbSymbolTableRecord
100
AcDbRegAppTableRecord
  2
ACAD_MLEADERVER
 70
     0
  0
ENDTAB
  0
TABLE
  2
DIMSTYLE
  5
9
330
0
100
AcDbSymbolTable
 70
     4
100
AcDbDimStyleTable
 71
     1
340
18
  0
DIMSTYLE
105
18
330
9
100
AcDbSymbolTableRecord
100
AcDbDimStyleTableRecord
  2
Standard
 70
     0
289
     0
340
17
  0
ENDTAB
  0
TABLE
  2
BLOCK_RECORD
  5
1
330
0
100
AcDbSymbolTable
 70
     5
  0
BLOCK_RECORD
  5
A
102
{ACAD_XDICTIONARY
360
15A
102
}
330
1
100
AcDbSymbolTableRecord
100
AcDbBlockTableRecord
  2
*MODEL_SPACE
340
20
  0
BLOCK_RECORD
  5
B
330
1
100
AcDbSymbolTableRecord
100
AcDbBlockTableRecord
  2
*PAPER_SPACE
340
21
  0
BLOCK_RECORD
  5
71
330
1
100
AcDbSymbolTableRecord
100
AcDbBlockTableRecord
  2
*D0
340
0
  0
BLOCK_RECORD
  5
7C
330
1
100
AcDbSymbolTableRecord
100
AcDbBlockTableRecord
  2
*D1
340
0
  0
ENDTAB
  0
ENDSEC
  0
SECTION
  2
BLOCKS
  0
BLOCK
  5
D
330
A
100
AcDbEntity
  8
0
100
AcDbBlockBegin
  2
*MODEL_SPACE
 70
     0
 10
0.0
 20
0.0
 30
0.0
  3
*MODEL_SPACE
  1

  0
ENDBLK
  5
E
330
A
100
AcDbEntity
  8
0
100
AcDbBlockEnd
  0
BLOCK
  5
F
330
B
100
AcDbEntity
 67
     1
  8
0
100
AcDbBlockBegin
  2
*PAPER_SPACE
 70
     0
 10
0.0
 20
0.0
 30
0.0
  3
*PAPER_SPACE
  1

  0
ENDBLK
  5
10
330
B
100
AcDbEntity
 67
     1
  8
0
100
AcDbBlockEnd
  0
BLOCK
  5
72
330
71
100
AcDbEntity
  8
1
  6
solid
 62
     7
100
AcDbBlockBegin
  2
*D0
 70
     0
 10
0.0
 20
0.0
 30
0.0
  3
*D0
  1

  0
LINE
  5
73
330
71
100
AcDbEntity
  8
1
  6
solid
 62
     7
100
AcDbLine
 10
-2.3476083278656
 20
4.464747905731201
 30
0.0
 11
-2.95216864342272
 21
4.464747905731202
 31
0.0
  0
LINE
  5
74
330
71
100
AcDbEntity
  8
1
  6
solid
 62
     7
100
AcDbLine
 10
-1.935057997703552
 20
7.715701103210449
 30
0.0
 11
-2.952168643422717
 21
7.71570110321045
 31
0.0
  0
LINE
  5
75
330
71
100
AcDbEntity
  8
1
  6
solid
 62
     7
100
AcDbLine
 10
-2.88966864342272
 20
4.464747905731202
 30
0.0
 11
-2.889668643422719
 21
6.090224504470826
 31
0.0
  0
LINE
  5
76
330
71
100
AcDbEntity
  8
1
  6
solid
 62
     7
100
AcDbLine
 10
-2.889668643422717
 20
7.71570110321045
 30
0.0
 11
-2.889668643422719
 21
6.090224504470826
 31
0.0
  0
MTEXT
  5
77
330
71
100
AcDbEntity
  8
1
  6
solid
 62
     7
100
AcDbMText
 10
-3.279131143422718
 20
6.090224504470826
 30
0.0
 40
0.125
 41
0.0
 71
     5
 72
     1
  1
{\H0.125000;3 1/4}
 73
     1
 44
1.0
  0
SOLID
  5
78
330
71
100
AcDbEntity
  8
1
  6
solid
 62
     7
100
AcDbTrace
 10
-2.90216864342272
 20
4.489747905731202
 30
0.0
 11
-2.87716864342272
 21
4.489747905731202
 31
0.0
 12
-2.88966864342272
 22
4.464747905731202
 32
0.0
 13
-2.88966864342272
 23
4.464747905731202
 33
0.0
  0
SOLID
  5
79
330
71
100
AcDbEntity
  8
1
  6
solid
 62
     7
100
AcDbTrace
 10
-2.877168643422717
 20
7.690701103210449
 30
0.0
 11
-2.902168643422718
 21
7.69070110321045
 31
0.0
 12
-2.889668643422717
 22
7.71570110321045
 32
0.0
 13
-2.889668643422717
 23
7.71570110321045
 33
0.0
  0
ENDBLK
  5
7A
330
71
100
AcDbEntity
  8
1
  6
solid
 62
     7
100
AcDbBlockEnd
  0
BLOCK
  5
7D
330
7C
100
AcDbEntity
  8
1
  6
solid
 62
     7
100
AcDbBlockBegin
  2
*D1
 70
     0
 10
0.0
 20
0.0
 30
0.0
  3
*D1
  1

  0
LINE
  5
7E
330
7C
100
AcDbEntity
  8
1
  6
solid
 62
     7
100
AcDbLine
 10
-2.549436807632446
 20
6.158670902252197
 30
0.0
 11
-2.549436807632446
 21
4.141162094140178
 31
0.0
  0
LINE
  5
7F
330
7C
100
AcDbEntity
  8
1
  6
solid
 62
     7
100
AcDbLine
 10
-0.8724128603935241
 20
6.66771125793457
 30
0.0
 11
-0.8724128603935241
 21
4.141162094140178
 31
0.0
  0
LINE
  5
80
330
7C
100
AcDbEntity
  8
1
  6
solid
 62
     7
100
AcDbLine
 10
-2.549436807632446
 20
4.203662094140178
 30
0.0
 11
-1.710924834012985
 21
4.203662094140178
 31
0.0
  0
LINE
  5
81
330
7C
100
AcDbEntity
  8
1
  6
solid
 62
     7
100
AcDbLine
 10
-0.8724128603935241
 20
4.203662094140178
 30
0.0
 11
-1.710924834012985
 21
4.203662094140178
 31
0.0
  0
MTEXT
  5
82
330
7C
100
AcDbEntity
  8
1
  6
solid
 62
     7
100
AcDbMText
 10
-1.710924834012985
 20
4.307247190294024
 30
0.0
 40
0.125
 41
0.0
 71
     5
 72
     1
  1
{\H0.125000;1 11/16}
 73
     1
 44
1.0
  0
SOLID
  5
83
330
7C
100
AcDbEntity
  8
1
  6
solid
 62
     7
100
AcDbTrace
 10
-2.524436807632446
 20
4.216162094140178
 30
0.0
 11
-2.524436807632446
 21
4.191162094140178
 31
0.0
 12
-2.549436807632446
 22
4.203662094140178
 32
0.0
 13
-2.549436807632446
 23
4.203662094140178
 33
0.0
  0
SOLID
  5
84
330
7C
100
AcDbEntity
  8
1
  6
solid
 62
     7
100
AcDbTrace
 10
-0.8974128603935241
 20
4.191162094140178
 30
0.0
 11
-0.8974128603935241
 21
4.216162094140178
 31
0.0
 12
-0.8724128603935241
 22
4.203662094140178
 32
0.0
 13
-0.8724128603935241
 23
4.203662094140178
 33
0.0
  0
ENDBLK
  5
85
330
7C
100
AcDbEntity
  8
1
  6
solid
 62
     7
100
AcDbBlockEnd
  0
ENDSEC
  0
SECTION
  2
ENTITIES
  0
LINE
  5
28
330
A
100
AcDbEntity
  8
1
  6
solid
 62
     7
100
AcDbLine
 10
0.1876793034950679
 20
6.248185085858632
 30
0.0
 11
0.4070092705154372
 21
6.248898367939078
 31
0.0
  0
LINE
  5
29
330
A
100
AcDbEntity
  8
1
  6
solid
 62
     7
100
AcDbLine
 10
0.4070092645925766
 20
6.248898307366236
 30
0.0
 11
0.4070093077435259
 21
4.535615228109853
 31
0.0
  0
ARC
  5
2A
330
A
100
AcDbEntity
  8
1
  6
solid
 62
     7
100
AcDbCircle
 10
0.4994218994318351
 20
4.98690592705854
 30
0.0
 40
0.4606551706570782
100
AcDbArc
 50
258.4272972768999
 51
315.4582331297167
  0
ARC
  5
2B
330
A
100
AcDbEntity
  8
1
  6
solid
 62
     7
100
AcDbCircle
 10
0.2958568428488049
 20
5.035499849386644
 30
0.0
 40
0.6489054622166233
100
AcDbArc
 50
325.0523559716634
 51
364.9645833041448
  0
ARC
  5
2C
330
A
100
AcDbEntity
  8
1
  6
solid
 62
     7
100
AcDbCircle
 10
2.519429831310268
 20
5.000399250836632
 30
0.0
 40
1.57974001711696
100
AcDbArc
 50
132.2041127775834
 51
176.6883447467033
  0
ARC
  5
2D
330
A
100
AcDbEntity
  8
1
  6
solid
 62
     7
100
AcDbCircle
 10
0.5966961859438031
 20
7.117736006833172
 30
0.0
 40
1.280334004107979
100
AcDbArc
 50
312.2894096818733
 51
348.1223311102393
  0
ARC
  5
2E
330
A
100
AcDbEntity
  8
1
  6
solid
 62
     7
100
AcDbCircle
 10
1.062636327641734
 20
6.975769252144323
 30
0.0
 40
0.7963132100899902
100
AcDbArc
 50
351.2196197065549
 51
414.7966216725094
  0
ARC
  5
2F
330
A
100
AcDbEntity
  8
1
  6
solid
 62
     7
100
AcDbCircle
 10
0.9632598433309695
 20
6.676279020471787
 30
0.0
 40
1.102119251261511
100
AcDbArc
 50
59.55622976770161
 51
125.778268731132
  0
ARC
  5
30
330
A
100
AcDbEntity
  8
1
  6
solid
 62
     7
100
AcDbCircle
 10
0.4724884743601696
 20
7.380520629486473
 30
0.0
 40
0.2442263080608208
100
AcDbArc
 50
128.9656183174656
 51
217.9573033794555
  0
ARC
  5
31
330
A
100
AcDbEntity
  8
1
  6
solid
 62
     7
100
AcDbCircle
 10
-0.725575810717918
 20
6.377650641550975
 30
0.0
 40
1.318349491919462
100
AcDbArc
 50
27.4322784346214
 51
40.29758628516696
  0
ARC
  5
32
330
A
100
AcDbEntity
  8
1
  6
solid
 62
     7
100
AcDbCircle
 10
0.2326730773352231
 20
6.851780688367733
 30
0.0
 40
0.2502714660247372
100
AcDbArc
 50
-60.16781537812857
 51
32.16472067637958
  0
ARC
  5
33
330
A
100
AcDbEntity
  8
1
  6
solid
 62
     7
100
AcDbCircle
 10
0.4919127661476201
 20
6.345173976735053
 30
0.0
 40
0.3193193006046997
100
AcDbArc
 50
114.958260608716
 51
197.682133654888
  0
ARC
  5
34
330
A
100
AcDbEntity
  8
1
  6
solid
 62
     7
100
AcDbCircle
 10
0.8465723251422907
 20
5.249981625036574
 30
0.0
 40
0.6489054622166233
100
AcDbArc
 50
325.0523559716634
 51
364.9645833041448
  0
ARC
  5
35
330
A
100
AcDbEntity
  8
1
  6
solid
 62
     7
100
AcDbCircle
 10
3.070145313603754
 20
5.214881026486562
 30
0.0
 40
1.57974001711696
100
AcDbArc
 50
132.2041127775834
 51
176.6883447467033
  0
ARC
  5
36
330
A
100
AcDbEntity
  8
1
  6
solid
 62
     7
100
AcDbCircle
 10
1.147411668237288
 20
7.332217782483102
 30
0.0
 40
1.280334004107979
100
AcDbArc
 50
312.2894096818733
 51
348.1223311102393
  0
ARC
  5
37
330
A
100
AcDbEntity
  8
1
  6
solid
 62
     7
100
AcDbCircle
 10
1.61335180993522
 20
7.190251027794253
 30
0.0
 40
0.7963132100899902
100
AcDbArc
 50
351.2196197065549
 51
414.7966216725094
  0
ARC
  5
38
330
A
100
AcDbEntity
  8
1
  6
solid
 62
     7
100
AcDbCircle
 10
1.513975325624455
 20
6.890760796121717
 30
0.0
 40
1.102119251261511
100
AcDbArc
 50
59.55622976770161
 51
92.6672904316843
  0
LINE
  5
39
330
A
100
AcDbEntity
  8
1
  6
solid
 62
     7
100
AcDbLine
 10
1.462687696737601
 20
7.991686279796384
 30
0.0
 11
0.7548245391658756
 21
7.758508925796361
 31
0.0
  0
LINE
  5
3A
330
A
100
AcDbEntity
  8
1
  6
solid
 62
     7
100
AcDbLine
 10
1.378464396385636
 20
4.878270815592537
 30
0.0
 11
0.7513561116711846
 21
4.601247608133044
 31
0.0
  0
LINE
  5
3B
330
A
100
AcDbEntity
  8
1
  6
solid
 62
     7
100
AcDbLine
 10
0.6746121335261409
 20
6.535006791719339
 30
0.0
 11
0.6746121335261409
 21
6.691256791719339
 31
0.0
  0
LINE
  5
3C
330
A
100
AcDbEntity
  8
1
  6
solid
 62
     7
100
AcDbLine
 10
0.6746121335261409
 20
6.691256791719339
 30
0.0
 11
0.7054987614331175
 21
6.691256791719339
 31
0.0
  0
LINE
  5
3D
330
A
100
AcDbEntity
  8
1
  6
solid
 62
     7
100
AcDbLine
 10
0.7054987614331175
 20
6.691256791719339
 30
0.0
 11
0.7054987614331175
 21
6.562259698696083
 31
0.0
  0
LINE
  5
3E
330
A
100
AcDbEntity
  8
1
  6
solid
 62
     7
100
AcDbLine
 10
0.7054987614331175
 20
6.562259698696083
 30
0.0
 11
0.7836237614331175
 21
6.562259698696083
 31
0.0
  0
LINE
  5
3F
330
A
100
AcDbEntity
  8
1
  6
solid
 62
     7
100
AcDbLine
 10
0.7836237614331175
 20
6.562259698696083
 30
0.0
 11
0.7836237614331175
 21
6.535006791719339
 31
0.0
  0
LINE
  5
40
330
A
100
AcDbEntity
  8
1
  6
solid
 62
     7
100
AcDbLine
 10
0.6746121335261409
 20
6.535006791719339
 30
0.0
 11
0.7836237614331175
 21
6.535006791719339
 31
0.0
  0
LINE
  5
41
330
A
100
AcDbEntity
  8
1
  6
solid
 62
     7
100
AcDbLine
 10
0.9035348079447453
 20
6.565893419626315
 30
0.0
 11
0.9035348079447453
 21
6.535006791719339
 31
0.0
  0
LINE
  5
42
330
A
100
AcDbEntity
  8
1
  6
solid
 62
     7
100
AcDbLine
 10
0.9035348079447453
 20
6.535006791719339
 30
0.0
 11
0.7999737614331175
 21
6.535006791719339
 31
0.0
  0
SPLINE
  5
43
330
A
100
AcDbEntity
  8
1
  6
solid
 62
     7
100
AcDbSpline
210
0.0
220
0.0
230
1.0
 70
     8
 71
     2
 72
     7
 73
     4
 74
     0
 42
0.0000000001
 43
0.0000000001
 40
0.0
 40
0.0
 40
0.0
 40
1.0
 40
2.0
 40
2.0
 40
2.0
 10
0.7999737614331175
 20
6.535006791719339
 30
0.0
 10
0.8010528312005593
 20
6.550118419626316
 30
0.0
 10
0.818160970735443
 20
6.577594582417013
 30
0.0
 10
0.8422824823633499
 20
6.600674233579804
 30
0.0
  0
SPLINE
  5
44
330
A
100
AcDbEntity
  8
1
  6
solid
 62
     7
100
AcDbSpline
210
0.0
220
0.0
230
1.0
 70
     8
 71
     2
 72
     6
 73
     3
 74
     0
 42
0.0000000001
 43
0.0000000001
 40
0.0
 40
0.0
 40
0.0
 40
1.0
 40
1.0
 40
1.0
 10
0.8422824823633499
 20
6.600674233579804
 30
0.0
 10
0.8620446916656756
 20
6.619010280091432
 30
0.0
 10
0.8662179474796291
 20
6.625186442882129
 30
0.0
  0
SPLINE
  5
45
330
A
100
AcDbEntity
  8
1
  6
solid
 62
     7
100
AcDbSpline
210
0.0
220
0.0
230
1.0
 70
     8
 71
     2
 72
     6
 73
     3
 74
     0
 42
0.0000000001
 43
0.0000000001
 40
0.0
 40
0.0
 40
0.0
 40
1.0
 40
1.0
 40
1.0
 10
0.8662179474796291
 20
6.625186442882129
 30
0.0
 10
0.8726481800377687
 20
6.634252140556548
 30
0.0
 10
0.8726481800377687
 20
6.643187605672827
 30
0.0
  0
SPLINE
  5
46
330
A
100
AcDbEntity
  8
1
  6
solid
 62
     7
100
AcDbSpline
210
0.0
220
0.0
230
1.0
 70
     8
 71
     2
 72
     7
 73
     4
 74
     0
 42
0.0000000001
 43
0.0000000001
 40
0.0
 40
0.0
 40
0.0
 40
1.0
 40
2.0
 40
2.0
 40
2.0
 10
0.8726481800377687
 20
6.643187605672827
 30
0.0
 10
0.8726481800377687
 20
6.653363187068176
 30
0.0
 10
0.8624167846889314
 20
6.664003884742594
 30
0.0
 10
0.8535743428284662
 20
6.664003884742594
 30
0.0
  0
SPLINE
  5
47
330
A
100
AcDbEntity
  8
1
  6
solid
 62
     7
100
AcDbSpline
210
0.0
220
0.0
230
1.0
 70
     8
 71
     2
 72
     7
 73
     4
 74
     0
 42
0.0000000001
 43
0.0000000001
 40
0.0
 40
0.0
 40
0.0
 40
1.0
 40
2.0
 40
2.0
 40
2.0
 10
0.8535743428284662
 20
6.664003884742594
 30
0.0
 10
0.84543248236335
 20
6.664003884742594
 30
0.0
 10
0.8350150405028848
 20
6.652457954510036
 30
0.0
 10
0.8344941102703268
 20
6.640384698696083
 30
0.0
  0
LINE
  5
48
330
A
100
AcDbEntity
  8
1
  6
solid
 62
     7
100
AcDbLine
 10
0.8344941102703268
 20
6.640384698696083
 30
0.0
 11
0.80360748236335
 21
6.642908535905385
 31
0.0
  0
SPLINE
  5
49
330
A
100
AcDbEntity
  8
1
  6
solid
 62
     7
100
AcDbSpline
210
0.0
220
0.0
230
1.0
 70
     8
 71
     2
 72
     7
 73
     4
 74
     0
 42
0.0000000001
 43
0.0000000001
 40
0.0
 40
0.0
 40
0.0
 40
1.0
 40
2.0
 40
2.0
 40
2.0
 10
0.80360748236335
 20
6.642908535905385
 30
0.0
 10
0.8059452730610244
 20
6.668474814975152
 30
0.0
 10
0.833514459107536
 20
6.691256791719339
 30
0.0
 10
0.8546470172470709
 20
6.691256791719339
 30
0.0
  0
SPLINE
  5
4A
330
A
100
AcDbEntity
  8
1
  6
solid
 62
     7
100
AcDbSpline
210
0.0
220
0.0
230
1.0
 70
     8
 71
     2
 72
     7
 73
     4
 74
     0
 42
0.0000000001
 43
0.0000000001
 40
0.0
 40
0.0
 40
0.0
 40
1.0
 40
2.0
 40
2.0
 40
2.0
 10
0.8546470172470709
 20
6.691256791719339
 30
0.0
 10
0.8770819009680012
 20
6.691256791719339
 30
0.0
 10
0.9035348079447453
 20
6.666620745207711
 30
0.0
 10
0.9035348079447453
 20
6.648545163812362
 30
0.0
  0
SPLINE
  5
4B
330
A
100
AcDbEntity
  8
1
  6
solid
 62
     7
100
AcDbSpline
210
0.0
220
0.0
230
1.0
 70
     8
 71
     2
 72
     7
 73
     4
 74
     0
 42
0.0000000001
 43
0.0000000001
 40
0.0
 40
0.0
 40
0.0
 40
1.0
 40
2.0
 40
2.0
 40
2.0
 10
0.9035348079447453
 20
6.648545163812362
 30
0.0
 10
0.9035348079447453
 20
6.638698070789106
 30
0.0
 10
0.8955667846889314
 20
6.619661442882129
 30
0.0
 10
0.8877970172470709
 20
6.609888768463525
 30
0.0
  0
SPLINE
  5
4C
330
A
100
AcDbEntity
  8
1
  6
solid
 62
     7
100
AcDbSpline
210
0.0
220
0.0
230
1.0
 70
     8
 71
     2
 72
     8
 73
     5
 74
     0
 42
0.0000000001
 43
0.0000000001
 40
0.0
 40
0.0
 40
0.0
 40
1.0
 40
2.0
 40
3.0
 40
3.0
 40
3.0
 10
0.8877970172470709
 20
6.609888768463525
 30
0.0
 10
0.882439459107536
 20
6.602974814975152
 30
0.0
 10
0.853685970735443
 20
6.577650396370501
 30
0.0
 10
0.8463441102703267
 20
6.569731791719338
 30
0.0
 10
0.8442109707354429
 20
6.565893419626315
 30
0.0
  0
LINE
  5
4D
330
A
100
AcDbEntity
  8
1
  6
solid
 62
     7
100
AcDbLine
 10
0.9035348079447453
 20
6.565893419626315
 30
0.0
 11
0.8442109707354429
 21
6.565893419626315
 31
0.0
  0
LINE
  5
4E
330
A
100
AcDbEntity
  8
1
  6
solid
 62
     7
100
AcDbLine
 10
0.9198848079447452
 20
6.580632954510036
 30
0.0
 11
0.9471377149214895
 21
6.584062024277478
 31
0.0
  0
SPLINE
  5
4F
330
A
100
AcDbEntity
  8
1
  6
solid
 62
     7
100
AcDbSpline
210
0.0
220
0.0
230
1.0
 70
     8
 71
     2
 72
     7
 73
     4
 74
     0
 42
0.0000000001
 43
0.0000000001
 40
0.0
 40
0.0
 40
0.0
 40
1.0
 40
2.0
 40
2.0
 40
2.0
 10
0.9471377149214895
 20
6.584062024277478
 30
0.0
 10
0.9480307381773034
 20
6.573160861486781
 30
0.0
 10
0.9618028312005593
 20
6.560442838230967
 30
0.0
 10
0.9700191102703266
 20
6.560442838230967
 30
0.0
  0
SPLINE
  5
50
330
A
100
AcDbEntity
  8
1
  6
solid
 62
     7
100
AcDbSpline
210
0.0
220
0.0
230
1.0
 70
     8
 71
     2
 72
     7
 73
     4
 74
     0
 42
0.0000000001
 43
0.0000000001
 40
0.0
 40
0.0
 40
0.0
 40
1.0
 40
2.0
 40
2.0
 40
2.0
 10
0.9700191102703266
 20
6.560442838230967
 30
0.0
 10
0.9803063195726522
 20
6.560442838230967
 30
0.0
 10
0.9943760870145126
 20
6.572460280091432
 30
0.0
 10
0.9943760870145126
 20
6.58514109404492
 30
0.0
  0
SPLINE
  5
51
330
A
100
AcDbEntity
  8
1
  6
solid
 62
     7
100
AcDbSpline
210
0.0
220
0.0
230
1.0
 70
     8
 71
     2
 72
     7
 73
     4
 74
     0
 42
0.0000000001
 43
0.0000000001
 40
0.0
 40
0.0
 40
0.0
 40
1.0
 40
2.0
 40
2.0
 40
2.0
 10
0.9943760870145126
 20
6.58514109404492
 30
0.0
 10
0.9943760870145126
 20
6.597319582417013
 30
0.0
 10
0.9819371335261406
 20
6.609498070789106
 30
0.0
 10
0.9717243428284662
 20
6.609498070789106
 30
0.0
  0
SPLINE
  5
52
330
A
100
AcDbEntity
  8
1
  6
solid
 62
     7
100
AcDbSpline
210
0.0
220
0.0
230
1.0
 70
     8
 71
     2
 72
     6
 73
     3
 74
     0
 42
0.0000000001
 43
0.0000000001
 40
0.0
 40
0.0
 40
0.0
 40
1.0
 40
1.0
 40
1.0
 10
0.9717243428284662
 20
6.609498070789106
 30
0.0
 10
0.9599115521307918
 20
6.609498070789106
 30
0.0
 10
0.9497731800377685
 20
6.598596907998408
 30
0.0
  0
LINE
  5
53
330
A
100
AcDbEntity
  8
1
  6
solid
 62
     7
100
AcDbLine
 10
0.9497731800377685
 20
6.598596907998408
 30
0.0
 11
0.9235185288749779
 21
6.601418419626315
 31
0.0
  0
LINE
  5
54
330
A
100
AcDbEntity
  8
1
  6
solid
 62
     7
100
AcDbLine
 10
0.9235185288749779
 20
6.601418419626315
 30
0.0
 11
0.9416871335261406
 21
6.689439931254223
 31
0.0
  0
LINE
  5
55
330
A
100
AcDbEntity
  8
1
  6
solid
 62
     7
100
AcDbLine
 10
0.9416871335261406
 20
6.689439931254223
 30
0.0
 11
1.017995273061024
 21
6.689439931254223
 31
0.0
  0
LINE
  5
56
330
A
100
AcDbEntity
  8
1
  6
solid
 62
     7
100
AcDbLine
 10
1.017995273061024
 20
6.689439931254223
 30
0.0
 11
1.017995273061024
 21
6.658553303347246
 31
0.0
  0
LINE
  5
57
330
A
100
AcDbEntity
  8
1
  6
solid
 62
     7
100
AcDbLine
 10
1.017995273061024
 20
6.658553303347246
 30
0.0
 11
0.9660319009680012
 21
6.658553303347246
 31
0.0
  0
LINE
  5
58
330
A
100
AcDbEntity
  8
1
  6
solid
 62
     7
100
AcDbLine
 10
0.9660319009680012
 20
6.658553303347246
 30
0.0
 11
0.9600603893400942
 21
6.63011609404492
 31
0.0
  0
SPLINE
  5
59
330
A
100
AcDbEntity
  8
1
  6
solid
 62
     7
100
AcDbSpline
210
0.0
220
0.0
230
1.0
 70
     8
 71
     2
 72
     6
 73
     3
 74
     0
 42
0.0000000001
 43
0.0000000001
 40
0.0
 40
0.0
 40
0.0
 40
1.0
 40
1.0
 40
1.0
 10
0.9600603893400942
 20
6.63011609404492
 30
0.0
 10
0.969460970735443
 20
6.63675097776585
 30
0.0
 10
0.9791406218982336
 20
6.63675097776585
 30
0.0
  0
SPLINE
  5
5A
330
A
100
AcDbEntity
  8
1
  6
solid
 62
     7
100
AcDbSpline
210
0.0
220
0.0
230
1.0
 70
     8
 71
     2
 72
     7
 73
     4
 74
     0
 42
0.0000000001
 43
0.0000000001
 40
0.0
 40
0.0
 40
0.0
 40
1.0
 40
2.0
 40
2.0
 40
2.0
 10
0.9791406218982336
 20
6.63675097776585
 30
0.0
 10
0.9985121335261407
 20
6.63675097776585
 30
0.0
 10
1.025262714921489
 20
6.608388187068176
 30
0.0
 10
1.025262714921489
 20
6.586232373114688
 30
0.0
  0
SPLINE
  5
5B
330
A
100
AcDbEntity
  8
1
  6
solid
 62
     7
100
AcDbSpline
210
0.0
220
0.0
230
1.0
 70
     8
 71
     2
 72
     6
 73
     3
 74
     0
 42
0.0000000001
 43
0.0000000001
 40
0.0
 40
0.0
 40
0.0
 40
1.0
 40
1.0
 40
1.0
 10
1.025262714921489
 20
6.586232373114688
 30
0.0
 10
1.025262714921489
 20
6.567747489393757
 30
0.0
 10
1.013530738177303
 20
6.552530628928641
 30
0.0
  0
SPLINE
  5
5C
330
A
100
AcDbEntity
  8
1
  6
solid
 62
     7
100
AcDbSpline
210
0.0
220
0.0
230
1.0
 70
     8
 71
     2
 72
     6
 73
     3
 74
     0
 42
0.0000000001
 43
0.0000000001
 40
0.0
 40
0.0
 40
0.0
 40
1.0
 40
1.0
 40
1.0
 10
1.013530738177303
 20
6.552530628928641
 30
0.0
 10
0.9984935288749777
 20
6.533189931254223
 30
0.0
 10
0.9713150405028848
 20
6.533189931254223
 30
0.0
  0
SPLINE
  5
5D
330
A
100
AcDbEntity
  8
1
  6
solid
 62
     7
100
AcDbSpline
210
0.0
220
0.0
230
1.0
 70
     8
 71
     2
 72
     7
 73
     4
 74
     0
 42
0.0000000001
 43
0.0000000001
 40
0.0
 40
0.0
 40
0.0
 40
1.0
 40
2.0
 40
2.0
 40
2.0
 10
0.9713150405028848
 20
6.533189931254223
 30
0.0
 10
0.9495871335261407
 20
6.533189931254223
 30
0.0
 10
0.9222598079447452
 20
6.558849233579803
 30
0.0
 10
0.9198848079447452
 20
6.580632954510036
 30
0.0
  0
LINE
  5
5E
330
A
100
AcDbEntity
  8
1
  6
solid
 62
     7
100
AcDbLine
 10
1.041612714921489
 20
6.658553303347246
 30
0.0
 11
1.041612714921489
 21
6.689439931254223
 31
0.0
  0
LINE
  5
5F
330
A
100
AcDbEntity
  8
1
  6
solid
 62
     7
100
AcDbLine
 10
1.041612714921489
 20
6.689439931254223
 30
0.0
 11
1.145173761433117
 21
6.689439931254223
 31
0.0
  0
LINE
  5
60
330
A
100
AcDbEntity
  8
1
  6
solid
 62
     7
100
AcDbLine
 10
1.145173761433117
 20
6.689439931254223
 30
0.0
 11
1.145173761433117
 21
6.66582074520771
 31
0.0
  0
SPLINE
  5
61
330
A
100
AcDbEntity
  8
1
  6
solid
 62
     7
100
AcDbSpline
210
0.0
220
0.0
230
1.0
 70
     8
 71
     2
 72
     8
 73
     5
 74
     0
 42
0.0000000001
 43
0.0000000001
 40
0.0
 40
0.0
 40
0.0
 40
1.0
 40
2.0
 40
3.0
 40
3.0
 40
3.0
 10
1.145173761433117
 20
6.66582074520771
 30
0.0
 10
1.132455738177303
 20
6.653363187068176
 30
0.0
 10
1.105835389340094
 20
6.606850396370502
 30
0.0
 10
1.091802831200559
 20
6.555289931254223
 30
0.0
 10
1.092484807944745
 20
6.535006791719339
 30
0.0
  0
LINE
  5
62
330
A
100
AcDbEntity
  8
1
  6
solid
 62
     7
100
AcDbLine
 10
1.092484807944745
 20
6.535006791719339
 30
0.0
 11
1.061598180037768
 21
6.535006791719339
 31
0.0
  0
SPLINE
  5
63
330
A
100
AcDbEntity
  8
1
  6
solid
 62
     7
100
AcDbSpline
210
0.0
220
0.0
230
1.0
 70
     8
 71
     2
 72
     7
 73
     4
 74
     0
 42
0.0000000001
 43
0.0000000001
 40
0.0
 40
0.0
 40
0.0
 40
1.0
 40
2.0
 40
2.0
 40
2.0
 10
1.061598180037768
 20
6.535006791719339
 30
0.0
 10
1.062100505619164
 20
6.566414349858874
 30
0.0
 10
1.088150505619164
 20
6.63215621032399
 30
0.0
 10
1.110727831200559
 20
6.658553303347246
 30
0.0
  0
LINE
  5
64
330
A
100
AcDbEntity
  8
1
  6
solid
 62
     7
100
AcDbLine
 10
1.041612714921489
 20
6.658553303347246
 30
0.0
 11
1.110727831200559
 21
6.658553303347246
 31
0.0
  0
LINE
  5
65
330
A
100
AcDbEntity
  8
1
  6
solid
 62
     7
100
AcDbLine
 10
-2.534350883403331
 20
6.186682069293288
 30
0.0
 11
-2.315020916382962
 21
6.187395351373734
 31
0.0
  0
LINE
  5
66
330
A
100
AcDbEntity
  8
1
  6
solid
 62
     7
100
AcDbLine
 10
-2.315020922305822
 20
6.187395290800892
 30
0.0
 11
-2.315020879154873
 21
4.474112211544509
 31
0.0
  0
ARC
  5
67
330
A
100
AcDbEntity
  8
1
  6
solid
 62
     7
100
AcDbCircle
 10
-2.222608287466564
 20
4.925402910493196
 30
0.0
 40
0.4606551706570782
100
AcDbArc
 50
258.4272972768999
 51
315.4582331297167
  0
ARC
  5
68
330
A
100
AcDbEntity
  8
1
  6
solid
 62
     7
100
AcDbCircle
 10
-2.426173344049594
 20
4.9739968328213
 30
0.0
 40
0.6489054622166233
100
AcDbArc
 50
325.0523559716634
 51
364.9645833041448
  0
ARC
  5
69
330
A
100
AcDbEntity
  8
1
  6
solid
 62
     7
100
AcDbCircle
 10
-0.2026003555881308
 20
4.938896234271288
 30
0.0
 40
1.57974001711696
100
AcDbArc
 50
132.2041127775834
 51
176.6883447467033
  0
ARC
  5
6A
330
A
100
AcDbEntity
  8
1
  6
solid
 62
     7
100
AcDbCircle
 10
-2.125334000954596
 20
7.056232990267828
 30
0.0
 40
1.280334004107979
100
AcDbArc
 50
312.2894096818733
 51
348.1223311102393
  0
ARC
  5
6B
330
A
100
AcDbEntity
  8
1
  6
solid
 62
     7
100
AcDbCircle
 10
-1.659393859256665
 20
6.914266235578979
 30
0.0
 40
0.7963132100899902
100
AcDbArc
 50
351.2196197065549
 51
414.7966216725094
  0
ARC
  5
6C
330
A
100
AcDbEntity
  8
1
  6
solid
 62
     7
100
AcDbCircle
 10
-1.75877034356743
 20
6.614776003906443
 30
0.0
 40
1.102119251261511
100
AcDbArc
 50
59.55622976770161
 51
125.778268731132
  0
ARC
  5
6D
330
A
100
AcDbEntity
  8
1
  6
solid
 62
     7
100
AcDbCircle
 10
-2.249541712538229
 20
7.319017612921129
 30
0.0
 40
0.2442263080608208
100
AcDbArc
 50
128.9656183174656
 51
217.9573033794555
  0
ARC
  5
6E
330
A
100
AcDbEntity
  8
1
  6
solid
 62
     7
100
AcDbCircle
 10
-3.447605997616317
 20
6.316147624985632
 30
0.0
 40
1.318349491919462
100
AcDbArc
 50
27.4322784346214
 51
40.29758628516696
  0
ARC
  5
6F
330
A
100
AcDbEntity
  8
1
  6
solid
 62
     7
100
AcDbCircle
 10
-2.489357109563176
 20
6.790277671802389
 30
0.0
 40
0.2502714660247372
100
AcDbArc
 50
-60.16781537812857
 51
32.16472067637958
  0
ARC
  5
70
330
A
100
AcDbEntity
  8
1
  6
solid
 62
     7
100
AcDbCircle
 10
-2.230117420750779
 20
6.283670960169709
 30
0.0
 40
0.3193193006046997
100
AcDbArc
 50
114.958260608716
 51
197.682133654888
  0
LINE
  5
87
330
A
100
AcDbEntity
  8
1
  6
solid
 62
     7
100
AcDbLine
 10
0.3498305056304769
 20
3.861705301034015
 30
0.0
 11
0.3189438777235001
 21
3.861705301034015
 31
0.0
  0
LINE
  5
88
330
A
100
AcDbEntity
  8
1
  6
solid
 62
     7
100
AcDbLine
 10
0.3189438777235001
 20
3.861705301034015
 30
0.0
 11
0.3189438777235001
 21
3.972775649871224
 31
0.0
  0
SPLINE
  5
89
330
A
100
AcDbEntity
  8
1
  6
solid
 62
     7
100
AcDbSpline
210
0.0
220
0.0
230
1.0
 70
     8
 71
     2
 72
     6
 73
     3
 74
     0
 42
0.0000000001
 43
0.0000000001
 40
0.0
 40
0.0
 40
0.0
 40
1.0
 40
1.0
 40
1.0
 10
0.3189438777235001
 20
3.972775649871224
 30
0.0
 10
0.3027037614444303
 20
3.955072161499131
 30
0.0
 10
0.2807898079560582
 20
3.94709774289448
 30
0.0
  0
LINE
  5
8A
330
A
100
AcDbEntity
  8
1
  6
solid
 62
     7
100
AcDbLine
 10
0.2807898079560582
 20
3.94709774289448
 30
0.0
 11
0.2807898079560582
 21
3.977984370801457
 31
0.0
  0
SPLINE
  5
8B
330
A
100
AcDbEntity
  8
1
  6
solid
 62
     7
100
AcDbSpline
210
0.0
220
0.0
230
1.0
 70
     8
 71
     2
 72
     7
 73
     4
 74
     0
 42
0.0000000001
 43
0.0000000001
 40
0.0
 40
0.0
 40
0.0
 40
1.0
 40
2.0
 40
2.0
 40
2.0
 10
0.2807898079560582
 20
3.977984370801457
 30
0.0
 10
0.2922677149328024
 20
3.981785533592154
 30
0.0
 10
0.3197996916769885
 20
4.003476231266573
 30
0.0
 10
0.3250456219095466
 20
4.017955301034015
 30
0.0
  0
LINE
  5
8C
330
A
100
AcDbEntity
  8
1
  6
solid
 62
     7
100
AcDbLine
 10
0.3250456219095466
 20
4.017955301034015
 30
0.0
 11
0.3498305056304769
 21
4.017955301034015
 31
0.0
  0
LINE
  5
8D
330
A
100
AcDbEntity
  8
1
  6
solid
 62
     7
100
AcDbLine
 10
0.3498305056304769
 20
3.861705301034015
 30
0.0
 11
0.3498305056304769
 21
4.017955301034015
 31
0.0
  0
LINE
  5
8E
330
A
100
AcDbEntity
  8
1
  6
solid
 62
     7
100
AcDbLine
 10
0.3807205056304768
 20
3.903493091731689
 30
0.0
 11
0.3807205056304768
 21
3.930745998708433
 31
0.0
  0
LINE
  5
8F
330
A
100
AcDbEntity
  8
1
  6
solid
 62
     7
100
AcDbLine
 10
0.3807205056304768
 20
3.930745998708433
 30
0.0
 11
0.4406769009793141
 21
3.930745998708433
 31
0.0
  0
LINE
  5
90
330
A
100
AcDbEntity
  8
1
  6
solid
 62
     7
100
AcDbLine
 10
0.4406769009793141
 20
3.930745998708433
 30
0.0
 11
0.4406769009793141
 21
3.903493091731689
 31
0.0
  0
LINE
  5
91
330
A
100
AcDbEntity
  8
1
  6
solid
 62
     7
100
AcDbLine
 10
0.3807205056304768
 20
3.903493091731689
 30
0.0
 11
0.4406769009793141
 21
3.903493091731689
 31
0.0
  0
LINE
  5
92
330
A
100
AcDbEntity
  8
1
  6
solid
 62
     7
100
AcDbLine
 10
0.5406075986537326
 20
3.861705301034015
 30
0.0
 11
0.509720970746756
 21
3.861705301034015
 31
0.0
  0
LINE
  5
93
330
A
100
AcDbEntity
  8
1
  6
solid
 62
     7
100
AcDbLine
 10
0.509720970746756
 20
3.861705301034015
 30
0.0
 11
0.509720970746756
 21
3.972775649871224
 31
0.0
  0
SPLINE
  5
94
330
A
100
AcDbEntity
  8
1
  6
solid
 62
     7
100
AcDbSpline
210
0.0
220
0.0
230
1.0
 70
     8
 71
     2
 72
     6
 73
     3
 74
     0
 42
0.0000000001
 43
0.0000000001
 40
0.0
 40
0.0
 40
0.0
 40
1.0
 40
1.0
 40
1.0
 10
0.509720970746756
 20
3.972775649871224
 30
0.0
 10
0.4934808544676862
 20
3.955072161499131
 30
0.0
 10
0.4715669009793141
 20
3.94709774289448
 30
0.0
  0
LINE
  5
95
330
A
100
AcDbEntity
  8
1
  6
solid
 62
     7
100
AcDbLine
 10
0.4715669009793141
 20
3.94709774289448
 30
0.0
 11
0.4715669009793141
 21
3.977984370801457
 31
0.0
  0
SPLINE
  5
96
330
A
100
AcDbEntity
  8
1
  6
solid
 62
     7
100
AcDbSpline
210
0.0
220
0.0
230
1.0
 70
     8
 71
     2
 72
     7
 73
     4
 74
     0
 42
0.0000000001
 43
0.0000000001
 40
0.0
 40
0.0
 40
0.0
 40
1.0
 40
2.0
 40
2.0
 40
2.0
 10
0.4715669009793141
 20
3.977984370801457
 30
0.0
 10
0.4830448079560582
 20
3.981785533592154
 30
0.0
 10
0.5105767847002443
 20
4.003476231266573
 30
0.0
 10
0.5158227149328024
 20
4.017955301034015
 30
0.0
  0
LINE
  5
97
330
A
100
AcDbEntity
  8
1
  6
solid
 62
     7
100
AcDbLine
 10
0.5158227149328024
 20
4.017955301034015
 30
0.0
 11
0.5406075986537326
 21
4.017955301034015
 31
0.0
  0
LINE
  5
98
330
A
100
AcDbEntity
  8
1
  6
solid
 62
     7
100
AcDbLine
 10
0.5406075986537326
 20
3.861705301034015
 30
0.0
 11
0.5406075986537326
 21
4.017955301034015
 31
0.0
  0
LINE
  5
99
330
A
100
AcDbEntity
  8
1
  6
solid
 62
     7
100
AcDbLine
 10
0.6405382963281513
 20
3.861705301034015
 30
0.0
 11
0.6096516684211747
 21
3.861705301034015
 31
0.0
  0
LINE
  5
9A
330
A
100
AcDbEntity
  8
1
  6
solid
 62
     7
100
AcDbLine
 10
0.6096516684211747
 20
3.861705301034015
 30
0.0
 11
0.6096516684211747
 21
3.972775649871224
 31
0.0
  0
SPLINE
  5
9B
330
A
100
AcDbEntity
  8
1
  6
solid
 62
     7
100
AcDbSpline
210
0.0
220
0.0
230
1.0
 70
     8
 71
     2
 72
     6
 73
     3
 74
     0
 42
0.0000000001
 43
0.0000000001
 40
0.0
 40
0.0
 40
0.0
 40
1.0
 40
1.0
 40
1.0
 10
0.6096516684211747
 20
3.972775649871224
 30
0.0
 10
0.5934115521421047
 20
3.955072161499131
 30
0.0
 10
0.5714975986537328
 20
3.94709774289448
 30
0.0
  0
LINE
  5
9C
330
A
100
AcDbEntity
  8
1
  6
solid
 62
     7
100
AcDbLine
 10
0.5714975986537328
 20
3.94709774289448
 30
0.0
 11
0.5714975986537328
 21
3.977984370801457
 31
0.0
  0
SPLINE
  5
9D
330
A
100
AcDbEntity
  8
1
  6
solid
 62
     7
100
AcDbSpline
210
0.0
220
0.0
230
1.0
 70
     8
 71
     2
 72
     7
 73
     4
 74
     0
 42
0.0000000001
 43
0.0000000001
 40
0.0
 40
0.0
 40
0.0
 40
1.0
 40
2.0
 40
2.0
 40
2.0
 10
0.5714975986537328
 20
3.977984370801457
 30
0.0
 10
0.5829755056304769
 20
3.981785533592154
 30
0.0
 10
0.610507482374663
 20
4.003476231266573
 30
0.0
 10
0.6157534126072211
 20
4.017955301034015
 30
0.0
  0
LINE
  5
9E
330
A
100
AcDbEntity
  8
1
  6
solid
 62
     7
100
AcDbLine
 10
0.6157534126072211
 20
4.017955301034015
 30
0.0
 11
0.6405382963281513
 21
4.017955301034015
 31
0.0
  0
LINE
  5
9F
330
A
100
AcDbEntity
  8
1
  6
solid
 62
     7
100
AcDbLine
 10
0.6405382963281513
 20
3.861705301034015
 30
0.0
 11
0.6405382963281513
 21
4.017955301034015
 31
0.0
  0
LINE
  5
A0
330
A
100
AcDbEntity
  8
1
  6
solid
 62
     7
100
AcDbLine
 10
0.6703928312118723
 20
3.861705301034015
 30
0.0
 11
0.7067486451653606
 21
4.017955301034015
 31
0.0
  0
LINE
  5
A1
330
A
100
AcDbEntity
  8
1
  6
solid
 62
     7
100
AcDbLine
 10
0.7067486451653606
 20
4.017955301034015
 30
0.0
 11
0.7313846916769885
 21
4.017955301034015
 31
0.0
  0
LINE
  5
A2
330
A
100
AcDbEntity
  8
1
  6
solid
 62
     7
100
AcDbLine
 10
0.7313846916769885
 20
4.017955301034015
 30
0.0
 11
0.6950474823746628
 21
3.861705301034015
 31
0.0
  0
LINE
  5
A3
330
A
100
AcDbEntity
  8
1
  6
solid
 62
     7
100
AcDbLine
 10
0.6703928312118723
 20
3.861705301034015
 30
0.0
 11
0.6950474823746628
 21
3.861705301034015
 31
0.0
  0
LINE
  5
A4
330
A
100
AcDbEntity
  8
1
  6
solid
 62
     7
100
AcDbLine
 10
0.8313153893514069
 20
3.861705301034015
 30
0.0
 11
0.8004287614444303
 21
3.861705301034015
 31
0.0
  0
LINE
  5
A5
330
A
100
AcDbEntity
  8
1
  6
solid
 62
     7
100
AcDbLine
 10
0.8004287614444303
 20
3.861705301034015
 30
0.0
 11
0.8004287614444303
 21
3.972775649871224
 31
0.0
  0
SPLINE
  5
A6
330
A
100
AcDbEntity
  8
1
  6
solid
 62
     7
100
AcDbSpline
210
0.0
220
0.0
230
1.0
 70
     8
 71
     2
 72
     6
 73
     3
 74
     0
 42
0.0000000001
 43
0.0000000001
 40
0.0
 40
0.0
 40
0.0
 40
1.0
 40
1.0
 40
1.0
 10
0.8004287614444303
 20
3.972775649871224
 30
0.0
 10
0.7841886451653605
 20
3.955072161499131
 30
0.0
 10
0.7622746916769885
 20
3.94709774289448
 30
0.0
  0
LINE
  5
A7
330
A
100
AcDbEntity
  8
1
  6
solid
 62
     7
100
AcDbLine
 10
0.7622746916769885
 20
3.94709774289448
 30
0.0
 11
0.7622746916769885
 21
3.977984370801457
 31
0.0
  0
SPLINE
  5
A8
330
A
100
AcDbEntity
  8
1
  6
solid
 62
     7
100
AcDbSpline
210
0.0
220
0.0
230
1.0
 70
     8
 71
     2
 72
     7
 73
     4
 74
     0
 42
0.0000000001
 43
0.0000000001
 40
0.0
 40
0.0
 40
0.0
 40
1.0
 40
2.0
 40
2.0
 40
2.0
 10
0.7622746916769885
 20
3.977984370801457
 30
0.0
 10
0.7737525986537327
 20
3.981785533592154
 30
0.0
 10
0.8012845753979187
 20
4.003476231266573
 30
0.0
 10
0.8065305056304767
 20
4.017955301034015
 30
0.0
  0
LINE
  5
A9
330
A
100
AcDbEntity
  8
1
  6
solid
 62
     7
100
AcDbLine
 10
0.8065305056304767
 20
4.017955301034015
 30
0.0
 11
0.8313153893514069
 21
4.017955301034015
 31
0.0
  0
LINE
  5
AA
330
A
100
AcDbEntity
  8
1
  6
solid
 62
     7
100
AcDbLine
 10
0.8313153893514069
 20
3.861705301034015
 30
0.0
 11
0.8313153893514069
 21
4.017955301034015
 31
0.0
  0
LINE
  5
AB
330
A
100
AcDbEntity
  8
1
  6
solid
 62
     7
100
AcDbLine
 10
0.9621327149328024
 20
3.975336696382852
 30
0.0
 11
0.9312460870258256
 21
3.972533789406108
 31
0.0
  0
SPLINE
  5
AC
330
A
100
AcDbEntity
  8
1
  6
solid
 62
     7
100
AcDbSpline
210
0.0
220
0.0
230
1.0
 70
     8
 71
     2
 72
     7
 73
     4
 74
     0
 42
0.0000000001
 43
0.0000000001
 40
0.0
 40
0.0
 40
0.0
 40
1.0
 40
2.0
 40
2.0
 40
2.0
 10
0.9312460870258256
 20
3.972533789406108
 30
0.0
 10
0.9299315521421046
 20
3.981766928940992
 30
0.0
 10
0.9210705056304767
 20
3.990702394057271
 30
0.0
 10
0.9139891102816395
 20
3.990702394057271
 30
0.0
  0
SPLINE
  5
AD
330
A
100
AcDbEntity
  8
1
  6
solid
 62
     7
100
AcDbSpline
210
0.0
220
0.0
230
1.0
 70
     8
 71
     2
 72
     7
 73
     4
 74
     0
 42
0.0000000001
 43
0.0000000001
 40
0.0
 40
0.0
 40
0.0
 40
1.0
 40
2.0
 40
2.0
 40
2.0
 10
0.9139891102816395
 20
3.990702394057271
 30
0.0
 10
0.9047931800490815
 20
3.990702394057271
 30
0.0
 10
0.8920193428397793
 20
3.972570998708433
 30
0.0
 10
0.8902955056304769
 20
3.944338440568898
 30
0.0
  0
SPLINE
  5
AE
330
A
100
AcDbEntity
  8
1
  6
solid
 62
     7
100
AcDbSpline
210
0.0
220
0.0
230
1.0
 70
     8
 71
     2
 72
     6
 73
     3
 74
     0
 42
0.0000000001
 43
0.0000000001
 40
0.0
 40
0.0
 40
0.0
 40
1.0
 40
1.0
 40
1.0
 10
0.8902955056304769
 20
3.944338440568898
 30
0.0
 10
0.9021763195839652
 20
3.957998905685177
 30
0.0
 10
0.9189745753979186
 20
3.957998905685177
 30
0.0
  0
SPLINE
  5
AF
330
A
100
AcDbEntity
  8
1
  6
solid
 62
     7
100
AcDbSpline
210
0.0
220
0.0
230
1.0
 70
     8
 71
     2
 72
     7
 73
     4
 74
     0
 42
0.0000000001
 43
0.0000000001
 40
0.0
 40
0.0
 40
0.0
 40
1.0
 40
2.0
 40
2.0
 40
2.0
 10
0.9189745753979186
 20
3.957998905685177
 30
0.0
 10
0.9378129474909419
 20
3.957998905685177
 30
0.0
 10
0.965766435863035
 20
3.930969254522387
 30
0.0
 10
0.965766435863035
 20
3.909501812661922
 30
0.0
  0
SPLINE
  5
B0
330
A
100
AcDbEntity
  8
1
  6
solid
 62
     7
100
AcDbSpline
210
0.0
220
0.0
230
1.0
 70
     8
 71
     2
 72
     7
 73
     4
 74
     0
 42
0.0000000001
 43
0.0000000001
 40
0.0
 40
0.0
 40
0.0
 40
1.0
 40
2.0
 40
2.0
 40
2.0
 10
0.965766435863035
 20
3.909501812661922
 30
0.0
 10
0.965766435863035
 20
3.887178556847968
 30
0.0
 10
0.9374408544676862
 20
3.859888440568898
 30
0.0
 10
0.9155827149328024
 20
3.859888440568898
 30
0.0
  0
SPLINE
  5
B1
330
A
100
AcDbEntity
  8
1
  6
solid
 62
     7
100
AcDbSpline
210
0.0
220
0.0
230
1.0
 70
     8
 71
     2
 72
     7
 73
     4
 74
     0
 42
0.0000000001
 43
0.0000000001
 40
0.0
 40
0.0
 40
0.0
 40
1.0
 40
2.0
 40
2.0
 40
2.0
 10
0.9155827149328024
 20
3.859888440568898
 30
0.0
 10
0.8920565521421048
 20
3.859888440568898
 30
0.0
 10
0.862205389351407
 20
3.896281463824712
 30
0.0
 10
0.862205389351407
 20
3.937257045220061
 30
0.0
  0
SPLINE
  5
B2
330
A
100
AcDbEntity
  8
1
  6
solid
 62
     7
100
AcDbSpline
210
0.0
220
0.0
230
1.0
 70
     8
 71
     2
 72
     7
 73
     4
 74
     0
 42
0.0000000001
 43
0.0000000001
 40
0.0
 40
0.0
 40
0.0
 40
1.0
 40
2.0
 40
2.0
 40
2.0
 10
0.862205389351407
 20
3.937257045220061
 30
0.0
 10
0.862205389351407
 20
3.980173324289829
 30
0.0
 10
0.8933524823746628
 20
4.017955301034015
 30
0.0
 10
0.9178646916769885
 20
4.017955301034015
 30
0.0
  0
SPLINE
  5
B3
330
A
100
AcDbEntity
  8
1
  6
solid
 62
     7
100
AcDbSpline
210
0.0
220
0.0
230
1.0
 70
     8
 71
     2
 72
     7
 73
     4
 74
     0
 42
0.0000000001
 43
0.0000000001
 40
0.0
 40
0.0
 40
0.0
 40
1.0
 40
2.0
 40
2.0
 40
2.0
 10
0.9178646916769885
 20
4.017955301034015
 30
0.0
 10
0.935605389351407
 20
4.017955301034015
 30
0.0
 10
0.9588152730723374
 20
3.996301812661922
 30
0.0
 10
0.9621327149328024
 20
3.975336696382852
 30
0.0
  0
SPLINE
  5
B4
330
A
100
AcDbEntity
  8
1
  6
solid
 62
     7
100
AcDbSpline
210
0.0
220
0.0
230
1.0
 70
     8
 71
     2
 72
     7
 73
     4
 74
     0
 42
0.0000000001
 43
0.0000000001
 40
0.0
 40
0.0
 40
0.0
 40
1.0
 40
2.0
 40
2.0
 40
2.0
 10
0.8930920172583839
 20
3.909873905685178
 30
0.0
 10
0.8930920172583839
 20
3.898823905685178
 30
0.0
 10
0.9063495753979186
 20
3.887141347545643
 30
0.0
 10
0.9151734126072209
 20
3.887141347545643
 30
0.0
  0
SPLINE
  5
B5
330
A
100
AcDbEntity
  8
1
  6
solid
 62
     7
100
AcDbSpline
210
0.0
220
0.0
230
1.0
 70
     8
 71
     2
 72
     7
 73
     4
 74
     0
 42
0.0000000001
 43
0.0000000001
 40
0.0
 40
0.0
 40
0.0
 40
1.0
 40
2.0
 40
2.0
 40
2.0
 10
0.9151734126072209
 20
3.887141347545643
 30
0.0
 10
0.923166435863035
 20
3.887141347545643
 30
0.0
 10
0.9348798079560582
 20
3.896765184754945
 30
0.0
 10
0.9348798079560582
 20
3.907926812661921
 30
0.0
  0
SPLINE
  5
B6
330
A
100
AcDbEntity
  8
1
  6
solid
 62
     7
100
AcDbSpline
210
0.0
220
0.0
230
1.0
 70
     8
 71
     2
 72
     7
 73
     4
 74
     0
 42
0.0000000001
 43
0.0000000001
 40
0.0
 40
0.0
 40
0.0
 40
1.0
 40
2.0
 40
2.0
 40
2.0
 10
0.9348798079560582
 20
3.907926812661921
 30
0.0
 10
0.9348798079560582
 20
3.919919254522387
 30
0.0
 10
0.9226082963281513
 20
3.930745998708433
 30
0.0
 10
0.9135612033048953
 20
3.930745998708433
 30
0.0
  0
SPLINE
  5
B7
330
A
100
AcDbEntity
  8
1
  6
solid
 62
     7
100
AcDbSpline
210
0.0
220
0.0
230
1.0
 70
     8
 71
     2
 72
     7
 73
     4
 74
     0
 42
0.0000000001
 43
0.0000000001
 40
0.0
 40
0.0
 40
0.0
 40
1.0
 40
2.0
 40
2.0
 40
2.0
 10
0.9135612033048953
 20
3.930745998708433
 30
0.0
 10
0.9047373660955932
 20
3.930745998708433
 30
0.0
 10
0.8930920172583839
 20
3.920235533592154
 30
0.0
 10
0.8930920172583839
 20
3.909873905685178
 30
0.0
  0
LINE
  5
B8
330
A
100
AcDbEntity
  8
1
  6
solid
 62
     7
100
AcDbLine
 10
1.02995864516536
 20
3.861705301034015
 30
0.0
 11
1.070078412607221
 21
3.920384370801457
 31
0.0
  0
LINE
  5
B9
330
A
100
AcDbEntity
  8
1
  6
solid
 62
     7
100
AcDbLine
 10
1.070078412607221
 20
3.920384370801457
 30
0.0
 11
1.033592366095593
 21
3.97616751033634
 31
0.0
  0
LINE
  5
BA
330
A
100
AcDbEntity
  8
1
  6
solid
 62
     7
100
AcDbLine
 10
1.033592366095593
 20
3.97616751033634
 30
0.0
 11
1.070357482374662
 21
3.97616751033634
 31
0.0
  0
LINE
  5
BB
330
A
100
AcDbEntity
  8
1
  6
solid
 62
     7
100
AcDbLine
 10
1.070357482374662
 20
3.97616751033634
 30
0.0
 11
1.087614459118849
 21
3.944264021964247
 31
0.0
  0
LINE
  5
BC
330
A
100
AcDbEntity
  8
1
  6
solid
 62
     7
100
AcDbLine
 10
1.087614459118849
 20
3.944264021964247
 30
0.0
 11
1.105820273072337
 21
3.97616751033634
 31
0.0
  0
LINE
  5
BD
330
A
100
AcDbEntity
  8
1
  6
solid
 62
     7
100
AcDbLine
 10
1.105820273072337
 20
3.97616751033634
 30
0.0
 11
1.142603994002569
 21
3.97616751033634
 31
0.0
  0
LINE
  5
BE
330
A
100
AcDbEntity
  8
1
  6
solid
 62
     7
100
AcDbLine
 10
1.142603994002569
 20
3.97616751033634
 30
0.0
 11
1.104803412607221
 21
3.92184774289448
 31
0.0
  0
LINE
  5
BF
330
A
100
AcDbEntity
  8
1
  6
solid
 62
     7
100
AcDbLine
 10
1.104803412607221
 20
3.92184774289448
 30
0.0
 11
1.146237714932802
 21
3.861705301034015
 31
0.0
  0
LINE
  5
C0
330
A
100
AcDbEntity
  8
1
  6
solid
 62
     7
100
AcDbLine
 10
1.146237714932802
 20
3.861705301034015
 30
0.0
 11
1.109453994002569
 21
3.861705301034015
 31
0.0
  0
LINE
  5
C1
330
A
100
AcDbEntity
  8
1
  6
solid
 62
     7
100
AcDbLine
 10
1.109453994002569
 20
3.861705301034015
 30
0.0
 11
1.087614459118849
 21
3.896839603359596
 31
0.0
  0
LINE
  5
C2
330
A
100
AcDbEntity
  8
1
  6
solid
 62
     7
100
AcDbLine
 10
1.087614459118849
 20
3.896839603359596
 30
0.0
 11
1.06672376144443
 21
3.861705301034015
 31
0.0
  0
LINE
  5
C3
330
A
100
AcDbEntity
  8
1
  6
solid
 62
     7
100
AcDbLine
 10
1.02995864516536
 20
3.861705301034015
 30
0.0
 11
1.06672376144443
 21
3.861705301034015
 31
0.0
  0
LINE
  5
C4
330
A
100
AcDbEntity
  8
1
  6
solid
 62
     7
100
AcDbLine
 10
1.211056087025825
 20
3.907126812661921
 30
0.0
 11
1.241942714932802
 21
3.910760533592154
 31
0.0
  0
SPLINE
  5
C5
330
A
100
AcDbEntity
  8
1
  6
solid
 62
     7
100
AcDbSpline
210
0.0
220
0.0
230
1.0
 70
     8
 71
     2
 72
     7
 73
     4
 74
     0
 42
0.0000000001
 43
0.0000000001
 40
0.0
 40
0.0
 40
0.0
 40
1.0
 40
2.0
 40
2.0
 40
2.0
 10
1.241942714932802
 20
3.910760533592154
 30
0.0
 10
1.242798528886291
 20
3.898861114987503
 30
0.0
 10
1.254735156793267
 20
3.887141347545643
 30
0.0
 10
1.262597947490942
 20
3.887141347545643
 30
0.0
  0
SPLINE
  5
C6
330
A
100
AcDbEntity
  8
1
  6
solid
 62
     7
100
AcDbSpline
210
0.0
220
0.0
230
1.0
 70
     8
 71
     2
 72
     7
 73
     4
 74
     0
 42
0.0000000001
 43
0.0000000001
 40
0.0
 40
0.0
 40
0.0
 40
1.0
 40
2.0
 40
2.0
 40
2.0
 10
1.262597947490942
 20
3.887141347545643
 30
0.0
 10
1.271477598653732
 20
3.887141347545643
 30
0.0
 10
1.283730505630477
 20
3.899195998708433
 30
0.0
 10
1.283730505630477
 20
3.909985533592154
 30
0.0
  0
SPLINE
  5
C7
330
A
100
AcDbEntity
  8
1
  6
solid
 62
     7
100
AcDbSpline
210
0.0
220
0.0
230
1.0
 70
     8
 71
     2
 72
     7
 73
     4
 74
     0
 42
0.0000000001
 43
0.0000000001
 40
0.0
 40
0.0
 40
0.0
 40
1.0
 40
2.0
 40
2.0
 40
2.0
 10
1.283730505630477
 20
3.909985533592154
 30
0.0
 10
1.283730505630477
 20
3.920384370801457
 30
0.0
 10
1.272866552142104
 20
3.932562859173549
 30
0.0
 10
1.264638063770011
 20
3.932562859173549
 30
0.0
  0
SPLINE
  5
C8
330
A
100
AcDbEntity
  8
1
  6
solid
 62
     7
100
AcDbSpline
210
0.0
220
0.0
230
1.0
 70
     8
 71
     2
 72
     6
 73
     3
 74
     0
 42
0.0000000001
 43
0.0000000001
 40
0.0
 40
0.0
 40
0.0
 40
1.0
 40
1.0
 40
1.0
 10
1.264638063770011
 20
3.932562859173549
 30
0.0
 10
1.259392133537453
 20
3.932562859173549
 30
0.0
 10
1.2528438777235
 20
3.929840766150294
 30
0.0
  0
LINE
  5
C9
330
A
100
AcDbEntity
  8
1
  6
solid
 62
     7
100
AcDbLine
 10
1.2528438777235
 20
3.929840766150294
 30
0.0
 11
1.255274691676988
 21
3.956182045220061
 31
0.0
  0
SPLINE
  5
CA
330
A
100
AcDbEntity
  8
1
  6
solid
 62
     7
100
AcDbSpline
210
0.0
220
0.0
230
1.0
 70
     8
 71
     2
 72
     7
 73
     4
 74
     0
 42
0.0000000001
 43
0.0000000001
 40
0.0
 40
0.0
 40
0.0
 40
1.0
 40
2.0
 40
2.0
 40
2.0
 10
1.255274691676988
 20
3.956182045220061
 30
0.0
 10
1.265692133537453
 20
3.95533262661541
 30
0.0
 10
1.276463063770011
 20
3.965880301034015
 30
0.0
 10
1.276463063770011
 20
3.974629719638666
 30
0.0
  0
SPLINE
  5
CB
330
A
100
AcDbEntity
  8
1
  6
solid
 62
     7
100
AcDbSpline
210
0.0
220
0.0
230
1.0
 70
     8
 71
     2
 72
     7
 73
     4
 74
     0
 42
0.0000000001
 43
0.0000000001
 40
0.0
 40
0.0
 40
0.0
 40
1.0
 40
2.0
 40
2.0
 40
2.0
 10
1.276463063770011
 20
3.974629719638666
 30
0.0
 10
1.276463063770011
 20
3.981897161499131
 30
0.0
 10
1.26817876144443
 20
3.990702394057271
 30
0.0
 10
1.262039807956058
 20
3.990702394057271
 30
0.0
  0
SPLINE
  5
CC
330
A
100
AcDbEntity
  8
1
  6
solid
 62
     7
100
AcDbSpline
210
0.0
220
0.0
230
1.0
 70
     8
 71
     2
 72
     7
 73
     4
 74
     0
 42
0.0000000001
 43
0.0000000001
 40
0.0
 40
0.0
 40
0.0
 40
1.0
 40
2.0
 40
2.0
 40
2.0
 10
1.262039807956058
 20
3.990702394057271
 30
0.0
 10
1.255311900979314
 20
3.990702394057271
 30
0.0
 10
1.246227598653732
 20
3.980266347545643
 30
0.0
 10
1.245576435863035
 20
3.970716928940992
 30
0.0
  0
LINE
  5
CD
330
A
100
AcDbEntity
  8
1
  6
solid
 62
     7
100
AcDbLine
 10
1.245576435863035
 20
3.970716928940992
 30
0.0
 11
1.214689807956058
 21
3.974908789406108
 31
0.0
  0
SPLINE
  5
CE
330
A
100
AcDbEntity
  8
1
  6
solid
 62
     7
100
AcDbSpline
210
0.0
220
0.0
230
1.0
 70
     8
 71
     2
 72
     8
 73
     5
 74
     0
 42
0.0000000001
 43
0.0000000001
 40
0.0
 40
0.0
 40
0.0
 40
1.0
 40
2.0
 40
3.0
 40
3.0
 40
3.0
 10
1.214689807956058
 20
3.974908789406108
 30
0.0
 10
1.217157831211872
 20
3.989648324289829
 30
0.0
 10
1.228375273072337
 20
4.00753785917355
 30
0.0
 10
1.249247366095593
 20
4.017955301034015
 30
0.0
 10
1.261283412607221
 20
4.017955301034015
 30
0.0
  0
SPLINE
  5
CF
330
A
100
AcDbEntity
  8
1
  6
solid
 62
     7
100
AcDbSpline
210
0.0
220
0.0
230
1.0
 70
     8
 71
     2
 72
     6
 73
     3
 74
     0
 42
0.0000000001
 43
0.0000000001
 40
0.0
 40
0.0
 40
0.0
 40
1.0
 40
1.0
 40
1.0
 10
1.261283412607221
 20
4.017955301034015
 30
0.0
 10
1.282974110281639
 20
4.017955301034015
 30
0.0
 10
1.296541552142104
 20
4.003662277778201
 30
0.0
  0
SPLINE
  5
D0
330
A
100
AcDbEntity
  8
1
  6
solid
 62
     7
100
AcDbSpline
210
0.0
220
0.0
230
1.0
 70
     8
 71
     2
 72
     6
 73
     3
 74
     0
 42
0.0000000001
 43
0.0000000001
 40
0.0
 40
0.0
 40
0.0
 40
1.0
 40
1.0
 40
1.0
 10
1.296541552142104
 20
4.003662277778201
 30
0.0
 10
1.307349691676988
 20
3.991688440568898
 30
0.0
 10
1.307349691676988
 20
3.977134952196805
 30
0.0
  0
SPLINE
  5
D1
330
A
100
AcDbEntity
  8
1
  6
solid
 62
     7
100
AcDbSpline
210
0.0
220
0.0
230
1.0
 70
     8
 71
     2
 72
     6
 73
     3
 74
     0
 42
0.0000000001
 43
0.0000000001
 40
0.0
 40
0.0
 40
0.0
 40
1.0
 40
1.0
 40
1.0
 10
1.307349691676988
 20
3.977134952196805
 30
0.0
 10
1.307349691676988
 20
3.956665766150294
 30
0.0
 10
1.284065389351407
 20
3.944208208010759
 30
0.0
  0
SPLINE
  5
D2
330
A
100
AcDbEntity
  8
1
  6
solid
 62
     7
100
AcDbSpline
210
0.0
220
0.0
230
1.0
 70
     8
 71
     2
 72
     7
 73
     4
 74
     0
 42
0.0000000001
 43
0.0000000001
 40
0.0
 40
0.0
 40
0.0
 40
1.0
 40
2.0
 40
2.0
 40
2.0
 10
1.284065389351407
 20
3.944208208010759
 30
0.0
 10
1.29750899400257
 20
3.941740184754945
 30
0.0
 10
1.314617133537453
 20
3.922015184754945
 30
0.0
 10
1.314617133537453
 20
3.907926812661921
 30
0.0
  0
SPLINE
  5
D3
330
A
100
AcDbEntity
  8
1
  6
solid
 62
     7
100
AcDbSpline
210
0.0
220
0.0
230
1.0
 70
     8
 71
     2
 72
     7
 73
     4
 74
     0
 42
0.0000000001
 43
0.0000000001
 40
0.0
 40
0.0
 40
0.0
 40
1.0
 40
2.0
 40
2.0
 40
2.0
 10
1.314617133537453
 20
3.907926812661921
 30
0.0
 10
1.314617133537453
 20
3.887848324289829
 30
0.0
 10
1.284325854467686
 20
3.859888440568898
 30
0.0
 10
1.262170040514198
 20
3.859888440568898
 30
0.0
  0
SPLINE
  5
D4
330
A
100
AcDbEntity
  8
1
  6
solid
 62
     7
100
AcDbSpline
210
0.0
220
0.0
230
1.0
 70
     8
 71
     2
 72
     7
 73
     4
 74
     0
 42
0.0000000001
 43
0.0000000001
 40
0.0
 40
0.0
 40
0.0
 40
1.0
 40
2.0
 40
2.0
 40
2.0
 10
1.262170040514198
 20
3.859888440568898
 30
0.0
 10
1.240795621909546
 20
3.859888440568898
 30
0.0
 10
1.213152017258384
 20
3.885770998708433
 30
0.0
 10
1.211056087025825
 20
3.907126812661921
 30
0.0
  0
LINE
  5
D5
330
A
100
AcDbEntity
  8
1
  6
solid
 62
     7
100
AcDbLine
 10
1.345507133537453
 20
3.903493091731689
 30
0.0
 11
1.345507133537453
 21
3.930745998708433
 31
0.0
  0
LINE
  5
D6
330
A
100
AcDbEntity
  8
1
  6
solid
 62
     7
100
AcDbLine
 10
1.345507133537453
 20
3.930745998708433
 30
0.0
 11
1.405463528886291
 21
3.930745998708433
 31
0.0
  0
LINE
  5
D7
330
A
100
AcDbEntity
  8
1
  6
solid
 62
     7
100
AcDbLine
 10
1.405463528886291
 20
3.930745998708433
 30
0.0
 11
1.405463528886291
 21
3.903493091731689
 31
0.0
  0
LINE
  5
D8
330
A
100
AcDbEntity
  8
1
  6
solid
 62
     7
100
AcDbLine
 10
1.345507133537453
 20
3.903493091731689
 30
0.0
 11
1.405463528886291
 21
3.903493091731689
 31
0.0
  0
LINE
  5
D9
330
A
100
AcDbEntity
  8
1
  6
solid
 62
     7
100
AcDbLine
 10
1.505394226560709
 20
3.861705301034015
 30
0.0
 11
1.474507598653732
 21
3.861705301034015
 31
0.0
  0
LINE
  5
DA
330
A
100
AcDbEntity
  8
1
  6
solid
 62
     7
100
AcDbLine
 10
1.474507598653732
 20
3.861705301034015
 30
0.0
 11
1.474507598653732
 21
3.972775649871224
 31
0.0
  0
SPLINE
  5
DB
330
A
100
AcDbEntity
  8
1
  6
solid
 62
     7
100
AcDbSpline
210
0.0
220
0.0
230
1.0
 70
     8
 71
     2
 72
     6
 73
     3
 74
     0
 42
0.0000000001
 43
0.0000000001
 40
0.0
 40
0.0
 40
0.0
 40
1.0
 40
1.0
 40
1.0
 10
1.474507598653732
 20
3.972775649871224
 30
0.0
 10
1.458267482374663
 20
3.955072161499131
 30
0.0
 10
1.43635352888629
 20
3.94709774289448
 30
0.0
  0
LINE
  5
DC
330
A
100
AcDbEntity
  8
1
  6
solid
 62
     7
100
AcDbLine
 10
1.43635352888629
 20
3.94709774289448
 30
0.0
 11
1.43635352888629
 21
3.977984370801457
 31
0.0
  0
SPLINE
  5
DD
330
A
100
AcDbEntity
  8
1
  6
solid
 62
     7
100
AcDbSpline
210
0.0
220
0.0
230
1.0
 70
     8
 71
     2
 72
     7
 73
     4
 74
     0
 42
0.0000000001
 43
0.0000000001
 40
0.0
 40
0.0
 40
0.0
 40
1.0
 40
2.0
 40
2.0
 40
2.0
 10
1.43635352888629
 20
3.977984370801457
 30
0.0
 10
1.447831435863035
 20
3.981785533592154
 30
0.0
 10
1.475363412607221
 20
4.003476231266573
 30
0.0
 10
1.480609342839779
 20
4.017955301034015
 30
0.0
  0
LINE
  5
DE
330
A
100
AcDbEntity
  8
1
  6
solid
 62
     7
100
AcDbLine
 10
1.480609342839779
 20
4.017955301034015
 30
0.0
 11
1.505394226560709
 21
4.017955301034015
 31
0.0
  0
LINE
  5
DF
330
A
100
AcDbEntity
  8
1
  6
solid
 62
     7
100
AcDbLine
 10
1.505394226560709
 20
3.861705301034015
 30
0.0
 11
1.505394226560709
 21
4.017955301034015
 31
0.0
  0
LINE
  5
E0
330
A
100
AcDbEntity
  8
1
  6
solid
 62
     7
100
AcDbLine
 10
1.53524876144443
 20
3.861705301034015
 30
0.0
 11
1.571604575397918
 21
4.017955301034015
 31
0.0
  0
LINE
  5
E1
330
A
100
AcDbEntity
  8
1
  6
solid
 62
     7
100
AcDbLine
 10
1.571604575397918
 20
4.017955301034015
 30
0.0
 11
1.596240621909546
 21
4.017955301034015
 31
0.0
  0
LINE
  5
E2
330
A
100
AcDbEntity
  8
1
  6
solid
 62
     7
100
AcDbLine
 10
1.596240621909546
 20
4.017955301034015
 30
0.0
 11
1.559903412607221
 21
3.861705301034015
 31
0.0
  0
LINE
  5
E3
330
A
100
AcDbEntity
  8
1
  6
solid
 62
     7
100
AcDbLine
 10
1.53524876144443
 20
3.861705301034015
 30
0.0
 11
1.559903412607221
 21
3.861705301034015
 31
0.0
  0
LINE
  5
E4
330
A
100
AcDbEntity
  8
1
  6
solid
 62
     7
100
AcDbLine
 10
1.6889038777235
 20
3.861705301034015
 30
0.0
 11
1.6889038777235
 21
3.892591928940992
 31
0.0
  0
LINE
  5
E5
330
A
100
AcDbEntity
  8
1
  6
solid
 62
     7
100
AcDbLine
 10
1.6889038777235
 20
3.892591928940992
 30
0.0
 11
1.627130621909546
 21
3.892591928940992
 31
0.0
  0
LINE
  5
E6
330
A
100
AcDbEntity
  8
1
  6
solid
 62
     7
100
AcDbLine
 10
1.627130621909546
 20
3.892591928940992
 30
0.0
 11
1.627130621909546
 21
3.91732739405727
 31
0.0
  0
LINE
  5
E7
330
A
100
AcDbEntity
  8
1
  6
solid
 62
     7
100
AcDbLine
 10
1.627130621909546
 20
3.91732739405727
 30
0.0
 11
1.692835273072337
 21
4.016138440568899
 31
0.0
  0
LINE
  5
E8
330
A
100
AcDbEntity
  8
1
  6
solid
 62
     7
100
AcDbLine
 10
1.692835273072337
 20
4.016138440568899
 30
0.0
 11
1.719790505630476
 21
4.016138440568899
 31
0.0
  0
LINE
  5
E9
330
A
100
AcDbEntity
  8
1
  6
solid
 62
     7
100
AcDbLine
 10
1.719790505630476
 20
4.016138440568899
 30
0.0
 11
1.719790505630476
 21
3.91802797545262
 31
0.0
  0
LINE
  5
EA
330
A
100
AcDbEntity
  8
1
  6
solid
 62
     7
100
AcDbLine
 10
1.719790505630476
 20
3.91802797545262
 30
0.0
 11
1.739775970746755
 21
3.91802797545262
 31
0.0
  0
LINE
  5
EB
330
A
100
AcDbEntity
  8
1
  6
solid
 62
     7
100
AcDbLine
 10
1.739775970746755
 20
3.91802797545262
 30
0.0
 11
1.739775970746755
 21
3.892591928940992
 31
0.0
  0
LINE
  5
EC
330
A
100
AcDbEntity
  8
1
  6
solid
 62
     7
100
AcDbLine
 10
1.739775970746755
 20
3.892591928940992
 30
0.0
 11
1.719790505630476
 21
3.892591928940992
 31
0.0
  0
LINE
  5
ED
330
A
100
AcDbEntity
  8
1
  6
solid
 62
     7
100
AcDbLine
 10
1.719790505630476
 20
3.892591928940992
 30
0.0
 11
1.719790505630476
 21
3.861705301034015
 31
0.0
  0
LINE
  5
EE
330
A
100
AcDbEntity
  8
1
  6
solid
 62
     7
100
AcDbLine
 10
1.6889038777235
 20
3.861705301034015
 30
0.0
 11
1.719790505630476
 21
3.861705301034015
 31
0.0
  0
LINE
  5
EF
330
A
100
AcDbEntity
  8
1
  6
solid
 62
     7
100
AcDbLine
 10
1.6889038777235
 20
3.91802797545262
 30
0.0
 11
1.6889038777235
 21
3.967808789406108
 31
0.0
  0
LINE
  5
F0
330
A
100
AcDbEntity
  8
1
  6
solid
 62
     7
100
AcDbLine
 10
1.6889038777235
 20
3.967808789406108
 30
0.0
 11
1.654960273072337
 21
3.91802797545262
 31
0.0
  0
LINE
  5
F1
330
A
100
AcDbEntity
  8
1
  6
solid
 62
     7
100
AcDbLine
 10
1.6889038777235
 20
3.91802797545262
 30
0.0
 11
1.654960273072337
 21
3.91802797545262
 31
0.0
  0
LINE
  5
153
330
A
100
AcDbEntity
  8
1
  6
solid
 62
     7
370
    18
100
AcDbLine
 10
-2.479761712640705
 20
4.464747905731201
 30
0.0
 11
-2.95216864342272
 21
4.464747905731202
 31
0.0
  0
LINE
  5
154
330
A
100
AcDbEntity
  8
1
  6
solid
 62
     7
370
    18
100
AcDbLine
 10
-2.382796821228785
 20
7.715701103210449
 30
0.0
 11
-2.952168643422717
 21
7.71570110321045
 31
0.0
  0
LINE
  5
155
330
A
100
AcDbEntity
  8
1
  6
solid
 62
     7
370
    18
100
AcDbLine
 10
-2.88966864342272
 20
4.464747905731202
 30
0.0
 11
-2.889668643422719
 21
5.842284040741388
 31
0.0
  0
LINE
  5
156
330
A
100
AcDbEntity
  8
1
  6
solid
 62
     7
370
    18
100
AcDbLine
 10
-2.889668643422717
 20
7.71570110321045
 30
0.0
 11
-2.889668643422719
 21
6.289255286131378
 31
0.0
  0
MTEXT
  5
157
330
A
100
AcDbEntity
  8
1
  6
solid
 62
     7
370
    18
100
AcDbMText
 10
-2.989998870448236
 20
6.090224504470826
 30
0.0
 40
0.125
 41
0.0
 71
     5
 72
     1
  1
{\H0.125000;3 1/4}
 73
     1
 44
1.0
  0
SOLID
  5
158
330
A
100
AcDbEntity
  8
1
  6
solid
 62
     7
370
    18
100
AcDbTrace
 10
-2.90216864342272
 20
4.489747905731202
 30
0.0
 11
-2.87716864342272
 21
4.489747905731202
 31
0.0
 12
-2.88966864342272
 22
4.464747905731202
 32
0.0
 13
-2.88966864342272
 23
4.464747905731202
 33
0.0
  0
SOLID
  5
159
330
A
100
AcDbEntity
  8
1
  6
solid
 62
     7
370
    18
100
AcDbTrace
 10
-2.877168643422717
 20
7.690701103210449
 30
0.0
 11
-2.902168643422718
 21
7.69070110321045
 31
0.0
 12
-2.889668643422717
 22
7.71570110321045
 32
0.0
 13
-2.889668643422717
 23
7.71570110321045
 33
0.0
  0
LINE
  5
162
330
A
100
AcDbEntity
  8
1
  6
solid
 62
     7
370
    18
100
AcDbLine
 10
-2.549436807632446
 20
4.329736383083266
 30
0.0
 11
-2.549436807632446
 21
4.141162094140178
 31
0.0
  0
LINE
  5
163
330
A
100
AcDbEntity
  8
1
  6
solid
 62
     7
370
    18
100
AcDbLine
 10
-0.8724128603935241
 20
6.381984542507499
 30
0.0
 11
-0.8724128603935241
 21
4.141162094140178
 31
0.0
  0
LINE
  5
164
330
A
100
AcDbEntity
  8
1
  6
solid
 62
     7
370
    18
100
AcDbLine
 10
-2.549436807632446
 20
4.203662094140178
 30
0.0
 11
-2.130180820822715
 21
4.203662094140178
 31
0.0
  0
LINE
  5
165
330
A
100
AcDbEntity
  8
1
  6
solid
 62
     7
370
    18
100
AcDbLine
 10
-0.8724128603935241
 20
4.203662094140178
 30
0.0
 11
-1.291668847203254
 21
4.203662094140178
 31
0.0
  0
MTEXT
  5
166
330
A
100
AcDbEntity
  8
1
  6
solid
 62
     7
370
    18
100
AcDbMText
 10
-1.727861939485055
 20
4.210930525309848
 30
0.0
 40
0.125
 41
0.0
 71
     5
 72
     1
  1
{\H0.125000;1 11/16}
 73
     1
 44
1.0
  0
SOLID
  5
167
330
A
100
AcDbEntity
  8
1
  6
solid
 62
     7
370
    18
100
AcDbTrace
 10
-2.524436807632446
 20
4.216162094140178
 30
0.0
 11
-2.524436807632446
 21
4.191162094140178
 31
0.0
 12
-2.549436807632446
 22
4.203662094140178
 32
0.0
 13
-2.549436807632446
 23
4.203662094140178
 33
0.0
  0
SOLID
  5
168
330
A
100
AcDbEntity
  8
1
  6
solid
 62
     7
370
    18
100
AcDbTrace
 10
-0.8974128603935241
 20
4.191162094140178
 30
0.0
 11
-0.8974128603935241
 21
4.216162094140178
 31
0.0
 12
-0.8724128603935241
 22
4.203662094140178
 32
0.0
 13
-0.8724128603935241
 23
4.203662094140178
 33
0.0
  0
VIEWPORT
  5
104
330
B
100
AcDbEntity
 67
     1
  8
0
  6
Continuous
370
     0
100
AcDbViewport
 10
5.254615448763483
 20
4.002593897467598
 30
0.0
 40
14.81279399820137
 41
7.83753861235395
 68
     1
 69
     1
 12
5.254615448763483
 22
4.002593897467598
 13
0.0
 23
0.0
 14
0.5
 24
0.5
 15
0.5
 25
0.5
 16
0.0
 26
0.0
 36
1.0
 17
0.0
 27
0.0
 37
0.0
 42
50.0
 43
0.0
 44
0.0
 45
7.83753861235395
 50
0.0
 51
0.0
 72
   100
 90
    32800
  1

281
     0
 71
     1
 74
     0
110
0.0
120
0.0
130
0.0
111
1.0
121
0.0
131
0.0
112
0.0
122
1.0
132
0.0
 79
     0
146
0.0
170
     0
  0
VIEWPORT
  5
107
330
B
100
AcDbEntity
 67
     1
  8
0
  6
Continuous
370
     0
100
AcDbViewport
 10
5.254491942294929
 20
4.002580141683052
 30
0.0
 40
10.2587906551762
 41
7.744661887090284
 68
     2
 69
     2
 12
0.0032307702359198
 22
0.0018558058460653
 13
0.0
 23
0.0
 14
1.0
 24
1.0
 15
0.0
 25
0.0
 16
0.0
 26
0.0
 36
9.041613254334373
 17
-0.5701497283654207
 27
5.926384243976064
 37
0.0
 42
50.0
 43
0.0
 44
0.0
 45
5.569950255301185
 50
0.0
 51
0.0
 72
   100
 90
    32800
  1

281
     0
 71
     1
 74
     0
110
0.0
120
0.0
130
0.0
111
1.0
121
0.0
131
0.0
112
0.0
122
1.0
132
0.0
 79
     0
146
0.0
170
     0
  0
ENDSEC
  0
SECTION
  2
OBJECTS
  0
DICTIONARY
  5
19
330
0
100
AcDbDictionary
281
     1
  3
ACAD_COLOR
350
F4
  3
ACAD_GROUP
350
1A
  3
ACAD_LAYOUT
350
1E
  3
ACAD_MATERIAL
350
F3
  3
ACAD_MLEADERSTYLE
350
14A
  3
ACAD_MLINESTYLE
350
1B
  3
ACAD_PLOTSETTINGS
350
22
  3
ACAD_PLOTSTYLENAME
350
1F
  3
ACAD_SCALELIST
350
128
  3
ACAD_TABLESTYLE
350
F5
  3
ACAD_VISUALSTYLE
350
10C
  3
ACAD_WIPEOUT_VARS
350
23
  3
ACDB_RECOMPOSE_DATA
350
193
  3
AcDbVariableDictionary
350
FA
  3
ASE_INDEX_DICTIONARY
350
124
  0
DICTIONARY
  5
169
330
14
100
AcDbDictionary
280
     1
281
     1
  3
ADSK_XREC_LAYER_RECONCILED
360
16A
  0
DICTIONARY
  5
16B
330
27
100
AcDbDictionary
280
     1
281
     1
  3
ADSK_XREC_LAYER_RECONCILED
360
16C
  0
DICTIONARY
  5
15A
330
A
100
AcDbDictionary
280
     1
281
     1
  3
ACAD_SORTENTS
360
15B
  0
DICTIONARY
  5
F4
102
{ACAD_REACTORS
330
19
102
}
330
19
100
AcDbDictionary
281
     1
  0
DICTIONARY
  5
1A
102
{ACAD_REACTORS
330
19
102
}
330
19
100
AcDbDictionary
281
     1
  0
DICTIONARY
  5
1E
102
{ACAD_REACTORS
330
19
102
}
330
19
100
AcDbDictionary
281
     1
  3
Layout1
350
21
  3
Model
350
20
  0
DICTIONARY
  5
F3
102
{ACAD_REACTORS
330
19
102
}
330
19
100
AcDbDictionary
281
     1
  3
ByBlock
350
10A
  3
ByLayer
350
109
  3
Global
350
10B
  0
DICTIONARY
  5
14A
102
{ACAD_REACTORS
330
19
102
}
330
19
100
AcDbDictionary
281
     1
  3
Standard
350
14B
  0
DICTIONARY
  5
1B
102
{ACAD_REACTORS
330
19
102
}
330
19
100
AcDbDictionary
281
     1
  3
Standard
350
1C
  0
DICTIONARY
  5
22
102
{ACAD_REACTORS
330
19
102
}
330
19
100
AcDbDictionary
281
     1
  0
ACDBDICTIONARYWDFLT
  5
1F
102
{ACAD_REACTORS
330
19
102
}
330
19
100
AcDbDictionary
281
     1
  3
Normal
350
1D
100
AcDbDictionaryWithDefault
340
1D
  0
DICTIONARY
  5
128
102
{ACAD_REACTORS
330
19
102
}
330
19
100
AcDbDictionary
281
     1
  3
A0
350
129
  3
A1
350
12A
  3
A2
350
12B
  3
A3
350
12C
  3
A4
350
12D
  3
A5
350
12E
  3
A6
350
12F
  3
A7
350
130
  3
A8
350
131
  3
A9
350
132
  3
B0
350
133
  3
B1
350
134
  3
B2
350
135
  3
B3
350
136
  3
B4
350
137
  3
B5
350
138
  3
B6
350
139
  3
B7
350
13A
  3
B8
350
13B
  3
B9
350
13C
  3
C0
350
13D
  3
C1
350
13E
  3
C2
350
13F
  3
C3
350
140
  3
C4
350
141
  3
C5
350
142
  3
C6
350
143
  3
C7
350
144
  3
C8
350
145
  3
C9
350
146
  3
D0
350
147
  3
D1
350
148
  3
D2
350
149
  0
DICTIONARY
  5
F5
102
{ACAD_REACTORS
330
19
102
}
330
19
100
AcDbDictionary
281
     1
  3
Standard
350
F6
  0
DICTIONARY
  5
10C
102
{ACAD_REACTORS
330
19
102
}
330
19
100
AcDbDictionary
281
     1
  3
2dWireframe
350
112
  3
3D Hidden
350
114
  3
3dWireframe
350
113
  3
Basic
350
111
  3
Brighten
350
118
  3
ColorChange
350
11C
  3
Conceptual
350
115
  3
Dim
350
117
  3
Facepattern
350
11B
  3
Flat
350
10D
  3
FlatWithEdges
350
10E
  3
Gouraud
350
10F
  3
GouraudWithEdges
350
110
  3
Linepattern
350
11A
  3
Realistic
350
116
  3
Thicken
350
119
  0
WIPEOUTVARIABLES
  5
23
330
19
100
AcDbWipeoutVariables
 70
     1
  0
XRECORD
  5
193
102
{ACAD_REACTORS
330
19
102
}
330
19
100
AcDbXrecord
280
     1
 90
        1
330
F6
  0
DICTIONARY
  5
FA
102
{ACAD_REACTORS
330
19
102
}
330
19
100
AcDbDictionary
281
     1
  3
CANNOSCALE
350
190
  3
CMLEADERSTYLE
350
18F
  3
CTABLESTYLE
350
FB
  0
DICTIONARY
  5
124
102
{ACAD_REACTORS
330
19
102
}
330
19
100
AcDbDictionary
281
     1
  3
ASEBlockHierarchyIndexRecord
350
126
1001
DCO15
1040
1644055366.757
  0
XRECORD
  5
16A
102
{ACAD_REACTORS
330
169
102
}
330
169
100
AcDbXrecord
280
     1
290
     1
  0
XRECORD
  5
16C
102
{ACAD_REACTORS
330
16B
102
}
330
16B
100
AcDbXrecord
280
     1
290
     1
  0
SORTENTSTABLE
  5
15B
102
{ACAD_REACTORS
330
15A
102
}
330
15A
100
AcDbSortentsTable
330
A
331
D9
  5
E7
331
159
  5
8C
331
EA
  5
159
331
C8
  5
D6
331
A6
  5
B4
331
6C
  5
6C
331
4A
  5
4A
331
B7
  5
C5
331
95
  5
A3
331
5B
  5
5B
331
39
  5
39
331
28
  5
28
331
F1
  5
168
331
157
  5
8A
331
E8
  5
157
331
C6
  5
D4
331
A4
  5
B2
331
6A
  5
6A
331
48
  5
48
331
D7
  5
E5
331
B5
  5
C3
331
93
  5
A1
331
59
  5
59
331
37
  5
37
331
155
  5
88
331
E6
  5
155
331
C4
  5
D2
331
A2
  5
B0
331
68
  5
68
331
46
  5
46
331
166
  5
92
331
D5
  5
E3
331
B3
  5
C1
331
91
  5
9F
331
57
  5
57
331
35
  5
35
331
153
  5
86
331
E4
  5
153
331
C2
  5
D0
331
A0
  5
AE
331
66
  5
66
331
44
  5
44
331
164
  5
90
331
D3
  5
E1
331
B1
  5
BF
331
8F
  5
9D
331
55
  5
55
331
33
  5
33
331
E2
  5
F0
331
C0
  5
CE
331
9E
  5
AC
331
64
  5
64
331
42
  5
42
331
162
  5
8E
331
D1
  5
DF
331
AF
  5
BD
331
8D
  5
9B
331
53
  5
53
331
31
  5
31
331
E0
  5
EE
331
BE
  5
CC
331
9C
  5
AA
331
62
  5
62
331
40
  5
40
331
CF
  5
DD
331
AD
  5
BB
331
8B
  5
99
331
51
  5
51
331
2F
  5
2F
331
DE
  5
EC
331
BC
  5
CA
331
9A
  5
A8
331
60
  5
60
331
EF
  5
166
331
CD
  5
DB
331
AB
  5
B9
331
89
  5
97
331
4F
  5
4F
331
3E
  5
3E
331
2D
  5
2D
331
DC
  5
EA
331
BA
  5
C8
331
98
  5
A6
331
ED
  5
164
331
CB
  5
D9
331
A9
  5
B7
331
87
  5
95
331
6F
  5
6F
331
4D
  5
4D
331
5E
  5
5E
331
3C
  5
3C
331
2B
  5
2B
331
DA
  5
E8
331
B8
  5
C6
331
EB
  5
162
331
C9
  5
D7
331
A7
  5
B5
331
6D
  5
6D
331
4B
  5
4B
331
96
  5
A4
331
5C
  5
5C
331
3A
  5
3A
331
29
  5
29
331
D8
  5
E6
331
158
  5
8B
331
E9
  5
158
331
C7
  5
D5
331
A5
  5
B3
331
6B
  5
6B
331
49
  5
49
331
B6
  5
C4
331
94
  5
A2
331
5A
  5
5A
331
38
  5
38
331
F0
  5
167
331
156
  5
89
331
E7
  5
156
331
C5
  5
D3
331
A3
  5
B1
331
69
  5
69
331
47
  5
47
331
167
  5
93
331
D6
  5
E4
331
B4
  5
C2
331
92
  5
A0
331
58
  5
58
331
36
  5
36
331
154
  5
87
331
E5
  5
154
331
C3
  5
D1
331
A1
  5
AF
331
67
  5
67
331
45
  5
45
331
165
  5
91
331
D4
  5
E2
331
B2
  5
C0
331
90
  5
9E
331
56
  5
56
331
34
  5
34
331
E3
  5
F1
331
C1
  5
CF
331
9F
  5
AD
331
65
  5
65
331
43
  5
43
331
163
  5
8F
331
D2
  5
E0
331
B0
  5
BE
331
8E
  5
9C
331
54
  5
54
331
32
  5
32
331
E1
  5
EF
331
BF
  5
CD
331
9D
  5
AB
331
63
  5
63
331
41
  5
41
331
D0
  5
DE
331
AE
  5
BC
331
8C
  5
9A
331
52
  5
52
331
30
  5
30
331
168
  5
94
331
DF
  5
ED
331
BD
  5
CB
331
9B
  5
A9
331
61
  5
61
331
CE
  5
DC
331
AC
  5
BA
331
8A
  5
98
331
50
  5
50
331
3F
  5
3F
331
2E
  5
2E
331
DD
  5
EB
331
BB
  5
C9
331
99
  5
A7
331
EE
  5
165
331
CC
  5
DA
331
AA
  5
B8
331
88
  5
96
331
70
  5
70
331
4E
  5
4E
331
5F
  5
5F
331
3D
  5
3D
331
2C
  5
2C
331
DB
  5
E9
331
B9
  5
C7
331
EC
  5
163
331
CA
  5
D8
331
A8
  5
B6
331
6E
  5
6E
331
4C
  5
4C
331
97
  5
A5
331
5D
  5
5D
331
3B
  5
3B
331
2A
  5
2A
  0
LAYOUT
  5
21
102
{ACAD_REACTORS
330
1E
102
}
330
1E
100
AcDbPlotSettings
  1

  2
none_device
  4
Letter_(8.50_x_11.00_Inches)
  6

 40
6.349999904632568
 41
6.349999904632568
 42
6.350006103515625
 43
6.350006103515625
 44
215.8999938964844
 45
279.3999938964844
 46
0.0
 47
0.0
 48
0.0
 49
0.0
140
0.0
141
0.0
142
1.0
143
1.0
 70
     0
 72
     0
 73
     1
 74
     0
  7

 75
     0
147
1.0
 76
     0
 77
     2
 78
   300
148
0.0
149
0.0
100
AcDbLayout
  1
Layout1
 70
     0
 71
     1
 10
-0.2500002402958907
 20
-0.2499999962453767
 11
10.74999951940821
 21
8.249999763458731
 12
0.0
 22
0.0
 32
0.0
 14
0.1248014133064252
 24
0.129760755438955
 34
-0.0015258207003583
 15
10.38442948422054
 25
7.875427039496241
 35
0.0000000349246037
146
0.0
 13
0.0
 23
0.0
 33
0.0
 16
1.0
 26
0.0
 36
0.0
 17
0.0
 27
1.0
 37
0.0
 76
     0
330
B
331
104
1001
ACAD_PSEXT
1000
None
1000
None
1000
Not applicable
1000
The layout will not be plotted unless a new plotter configuration name is selected.
1070
     0
  0
LAYOUT
  5
20
102
{ACAD_REACTORS
330
1E
102
}
330
1E
100
AcDbPlotSettings
  1

  2

  4

  6

 40
0.0
 41
0.0
 42
0.0
 43
0.0
 44
0.0
 45
0.0
 46
0.0
 47
0.0
 48
0.0
 49
0.0
140
0.0
141
0.0
142
1.0
143
1.0
 70
  1024
 72
     0
 73
     0
 74
     0
  7

 75
     0
147
1.0
 76
     0
 77
     2
 78
   300
148
0.0
149
0.0
100
AcDbLayout
  1
Model
 70
     0
 71
     0
 10
0.0
 20
0.0
 11
0.0
 21
0.0
 12
0.0
 22
0.0
 32
0.0
 14
0.0
 24
0.0
 34
0.0
 15
0.0
 25
0.0
 35
0.0
146
0.0
 13
0.0
 23
0.0
 33
0.0
 16
0.0
 26
0.0
 36
0.0
 17
0.0
 27
0.0
 37
0.0
 76
     0
330
A
  0
MATERIAL
  5
10A
102
{ACAD_XDICTIONARY
360
197
102
}
102
{ACAD_REACTORS
330
F3
102
}
330
F3
100
AcDbMaterial
  1
ByBlock
 73
     1
 78
     1
172
     1
176
     1
270
     1
274
     1
  0
MATERIAL
  5
109
102
{ACAD_XDICTIONARY
360
195
102
}
102
{ACAD_REACTORS
330
F3
102
}
330
F3
100
AcDbMaterial
  1
ByLayer
 73
     1
 78
     1
172
     1
176
     1
270
     1
274
     1
  0
MATERIAL
  5
10B
102
{ACAD_XDICTIONARY
360
199
102
}
102
{ACAD_REACTORS
330
F3
102
}
330
F3
100
AcDbMaterial
  1
Global
 73
     1
 78
     1
172
     1
176
     1
270
     1
274
     1
  0
MLEADERSTYLE
  5
14B
102
{ACAD_REACTORS
330
14A
102
}
330
14A
100
AcDbMLeaderStyle
170
     2
171
     1
172
     0
 90
        2
 40
0.0
 41
0.0
173
     1
 91
-1056964608
340
11
 92
       -2
290
     1
 42
0.09
291
     1
 43
0.36
  3
Standard
 44
0.18
300

342
17
174
     1
178
     6
175
     1
176
     0
 93
-1056964608
 45
0.18
292
     0
297
     0
 46
0.18
 94
-1056964608
 47
1.0
 49
1.0
140
1.0
293
     1
141
0.0
294
     1
177
     0
142
1.0
295
     0
296
     0
143
0.125
1001
ACAD_MLEADERVER
1070
     2
  0
MLINESTYLE
  5
1C
102
{ACAD_REACTORS
330
1B
102
}
330
1B
100
AcDbMlineStyle
  2
STANDARD
 70
     0
  3

 62
     0
 51
90.0
 52
90.0
 71
     2
 49
0.5
 62
   256
  6
BYLAYER
 49
-0.5
 62
   256
  6
BYLAYER
  0
ACDBPLACEHOLDER
  5
1D
102
{ACAD_REACTORS
330
1F
102
}
330
1F
  0
SCALE
  5
129
102
{ACAD_REACTORS
330
128
102
}
330
128
100
AcDbScale
 70
     0
300
1:1
140
1.0
141
1.0
290
     1
  0
SCALE
  5
12A
102
{ACAD_REACTORS
330
128
102
}
330
128
100
AcDbScale
 70
     0
300
1:2
140
1.0
141
2.0
290
     0
  0
SCALE
  5
12B
102
{ACAD_REACTORS
330
128
102
}
330
128
100
AcDbScale
 70
     0
300
1:4
140
1.0
141
4.0
290
     0
  0
SCALE
  5
12C
102
{ACAD_REACTORS
330
128
102
}
330
128
100
AcDbScale
 70
     0
300
1:5
140
1.0
141
5.0
290
     0
  0
SCALE
  5
12D
102
{ACAD_REACTORS
330
128
102
}
330
128
100
AcDbScale
 70
     0
300
1:8
140
1.0
141
8.0
290
     0
  0
SCALE
  5
12E
102
{ACAD_REACTORS
330
128
102
}
330
128
100
AcDbScale
 70
     0
300
1:10
140
1.0
141
10.0
290
     0
  0
SCALE
  5
12F
102
{ACAD_REACTORS
330
128
102
}
330
128
100
AcDbScale
 70
     0
300
1:16
140
1.0
141
16.0
290
     0
  0
SCALE
  5
130
102
{ACAD_REACTORS
330
128
102
}
330
128
100
AcDbScale
 70
     0
300
1:20
140
1.0
141
20.0
290
     0
  0
SCALE
  5
131
102
{ACAD_REACTORS
330
128
102
}
330
128
100
AcDbScale
 70
     0
300
1:30
140
1.0
141
30.0
290
     0
  0
SCALE
  5
132
102
{ACAD_REACTORS
330
128
102
}
330
128
100
AcDbScale
 70
     0
300
1:40
140
1.0
141
40.0
290
     0
  0
SCALE
  5
133
102
{ACAD_REACTORS
330
128
102
}
330
128
100
AcDbScale
 70
     0
300
1:50
140
1.0
141
50.0
290
     0
  0
SCALE
  5
134
102
{ACAD_REACTORS
330
128
102
}
330
128
100
AcDbScale
 70
     0
300
1:100
140
1.0
141
100.0
290
     0
  0
SCALE
  5
135
102
{ACAD_REACTORS
330
128
102
}
330
128
100
AcDbScale
 70
     0
300
2:1
140
2.0
141
1.0
290
     0
  0
SCALE
  5
136
102
{ACAD_REACTORS
330
128
102
}
330
128
100
AcDbScale
 70
     0
300
4:1
140
4.0
141
1.0
290
     0
  0
SCALE
  5
137
102
{ACAD_REACTORS
330
128
102
}
330
128
100
AcDbScale
 70
     0
300
8:1
140
8.0
141
1.0
290
     0
  0
SCALE
  5
138
102
{ACAD_REACTORS
330
128
102
}
330
128
100
AcDbScale
 70
     0
300
10:1
140
10.0
141
1.0
290
     0
  0
SCALE
  5
139
102
{ACAD_REACTORS
330
128
102
}
330
128
100
AcDbScale
 70
     0
300
100:1
140
100.0
141
1.0
290
     0
  0
SCALE
  5
13A
102
{ACAD_REACTORS
330
128
102
}
330
128
100
AcDbScale
 70
     0
300
1/128" = 1'-0"
140
0.0078125
141
12.0
290
     0
  0
SCALE
  5
13B
102
{ACAD_REACTORS
330
128
102
}
330
128
100
AcDbScale
 70
     0
300
1/64" = 1'-0"
140
0.015625
141
12.0
290
     0
  0
SCALE
  5
13C
102
{ACAD_REACTORS
330
128
102
}
330
128
100
AcDbScale
 70
     0
300
1/32" = 1'-0"
140
0.03125
141
12.0
290
     0
  0
SCALE
  5
13D
102
{ACAD_REACTORS
330
128
102
}
330
128
100
AcDbScale
 70
     0
300
1/16" = 1'-0"
140
0.0625
141
12.0
290
     0
  0
SCALE
  5
13E
102
{ACAD_REACTORS
330
128
102
}
330
128
100
AcDbScale
 70
     0
300
3/32" = 1'-0"
140
0.09375
141
12.0
290
     0
  0
SCALE
  5
13F
102
{ACAD_REACTORS
330
128
102
}
330
128
100
AcDbScale
 70
     0
300
1/8" = 1'-0"
140
0.125
141
12.0
290
     0
  0
SCALE
  5
140
102
{ACAD_REACTORS
330
128
102
}
330
128
100
AcDbScale
 70
     0
300
3/16" = 1'-0"
140
0.1875
141
12.0
290
     0
  0
SCALE
  5
141
102
{ACAD_REACTORS
330
128
102
}
330
128
100
AcDbScale
 70
     0
300
1/4" = 1'-0"
140
0.25
141
12.0
290
     0
  0
SCALE
  5
142
102
{ACAD_REACTORS
330
128
102
}
330
128
100
AcDbScale
 70
     0
300
3/8" = 1'-0"
140
0.375
141
12.0
290
     0
  0
SCALE
  5
143
102
{ACAD_REACTORS
330
128
102
}
330
128
100
AcDbScale
 70
     0
300
1/2" = 1'-0"
140
0.5
141
12.0
290
     0
  0
SCALE
  5
144
102
{ACAD_REACTORS
330
128
102
}
330
128
100
AcDbScale
 70
     0
300
3/4" = 1'-0"
140
0.75
141
12.0
290
     0
  0
SCALE
  5
145
102
{ACAD_REACTORS
330
128
102
}
330
128
100
AcDbScale
 70
     0
300
1" = 1'-0"
140
1.0
141
12.0
290
     0
  0
SCALE
  5
146
102
{ACAD_REACTORS
330
128
102
}
330
128
100
AcDbScale
 70
     0
300
1-1/2" = 1'-0"
140
1.5
141
12.0
290
     0
  0
SCALE
  5
147
102
{ACAD_REACTORS
330
128
102
}
330
128
100
AcDbScale
 70
     0
300
3" = 1'-0"
140
3.0
141
12.0
290
     0
  0
SCALE
  5
148
102
{ACAD_REACTORS
330
128
102
}
330
128
100
AcDbScale
 70
     0
300
6" = 1'-0"
140
6.0
141
12.0
290
     0
  0
SCALE
  5
149
102
{ACAD_REACTORS
330
128
102
}
330
128
100
AcDbScale
 70
     0
300
1'-0" = 1'-0"
140
12.0
141
12.0
290
     0
  0
TABLESTYLE
  5
F6
102
{ACAD_XDICTIONARY
360
191
102
}
102
{ACAD_REACTORS
330
F5
102
}
330
F5
100
AcDbTableStyle
  3
Standard
 70
     0
 71
     0
 40
0.06
 41
0.06
280
     0
281
     0
  7
Standard
140
0.18
170
     2
 62
     0
 63
     7
283
     0
274
    -2
284
     1
 64
     0
275
    -2
285
     1
 65
     0
276
    -2
286
     1
 66
     0
277
    -2
287
     1
 67
     0
278
    -2
288
     1
 68
     0
279
    -2
289
     1
 69
     0
  7
Standard
140
0.25
170
     5
 62
     0
 63
     7
283
     0
274
    -2
284
     1
 64
     0
275
    -2
285
     1
 65
     0
276
    -2
286
     1
 66
     0
277
    -2
287
     1
 67
     0
278
    -2
288
     1
 68
     0
279
    -2
289
     1
 69
     0
  7
Standard
140
0.18
170
     5
 62
     0
 63
     7
283
     0
274
    -2
284
     1
 64
     0
275
    -2
285
     1
 65
     0
276
    -2
286
     1
 66
     0
277
    -2
287
     1
 67
     0
278
    -2
288
     1
 68
     0
279
    -2
289
     1
 69
     0
  0
VISUALSTYLE
  5
112
102
{ACAD_REACTORS
330
10C
102
}
330
10C
100
AcDbVisualStyle
  2
2dWireframe
 70
     4
 71
     0
 72
     2
 73
     0
 90
        0
 40
-0.6
 41
-30.0
 62
     5
 63
     7
421
 16777215
 74
     1
 91
        4
 64
     7
 65
   257
 75
     1
175
     1
 42
1.0
 92
        0
 66
   257
 43
1.0
 76
     1
 77
     6
 78
     2
 67
     7
 79
     5
170
     0
171
     0
290
     0
174
     0
 93
        1
 44
0.0
173
     0
291
     0
 45
0.0
1001
ACAD
1000
AcDbSavedByObjectVersion
1070
     0
  0
VISUALSTYLE
  5
114
102
{ACAD_REACTORS
330
10C
102
}
330
10C
100
AcDbVisualStyle
  2
3D Hidden
 70
     6
 71
     1
 72
     2
 73
     2
 90
        0
 40
-0.6
 41
-30.0
 62
     5
 63
     7
421
 16777215
 74
     2
 91
        2
 64
     7
 65
   257
 75
     2
175
     1
 42
40.0
 92
        0
 66
   257
 43
1.0
 76
     1
 77
     6
 78
     2
 67
     7
 79
     3
170
     0
171
     0
290
     0
174
     0
 93
        1
 44
0.0
173
     0
291
     0
 45
0.0
1001
ACAD
1000
AcDbSavedByObjectVersion
1070
     0
  0
VISUALSTYLE
  5
113
102
{ACAD_REACTORS
330
10C
102
}
330
10C
100
AcDbVisualStyle
  2
3dWireframe
 70
     5
 71
     0
 72
     2
 73
     0
 90
        0
 40
-0.6
 41
-30.0
 62
     5
 63
     7
421
 16777215
 74
     1
 91
        4
 64
     7
 65
   257
 75
     1
175
     1
 42
1.0
 92
        0
 66
   257
 43
1.0
 76
     1
 77
     6
 78
     2
 67
     7
 79
     5
170
     0
171
     0
290
     0
174
     0
 93
        1
 44
0.0
173
     0
291
     0
 45
0.0
1001
ACAD
1000
AcDbSavedByObjectVersion
1070
     0
  0
VISUALSTYLE
  5
111
102
{ACAD_REACTORS
330
10C
102
}
330
10C
100
AcDbVisualStyle
  2
Basic
 70
     7
 71
     1
 72
     0
 73
     1
 90
        0
 40
-0.6
 41
-30.0
 62
     5
 63
     7
421
 16777215
 74
     0
 91
        4
 64
     7
 65
   257
 75
     1
175
     1
 42
1.0
 92
        8
 66
     7
 43
1.0
 76
     1
 77
     6
 78
     2
 67
     7
 79
     5
170
     0
171
     0
290
     0
174
     0
 93
        1
 44
0.0
173
     0
291
     1
 45
0.0
1001
ACAD
1000
AcDbSavedByObjectVersion
1070
     0
  0
VISUALSTYLE
  5
118
102
{ACAD_REACTORS
330
10C
102
}
330
10C
100
AcDbVisualStyle
  2
Brighten
 70
    12
 71
     2
 72
     2
 73
     0
 90
        0
 40
-0.6
 41
-30.0
 62
     5
 63
     7
421
 16777215
 74
     1
 91
        4
 64
     7
 65
   257
 75
     1
175
     1
 42
1.0
 92
        8
 66
     7
 43
1.0
 76
     1
 77
     6
 78
     2
 67
     7
 79
     5
170
     0
171
     0
290
     0
174
     0
 93
        1
 44
50.0
173
     0
291
     1
 45
0.0
1001
ACAD
1000
AcDbSavedByObjectVersion
1070
     0
  0
VISUALSTYLE
  5
11C
102
{ACAD_REACTORS
330
10C
102
}
330
10C
100
AcDbVisualStyle
  2
ColorChange
 70
    16
 71
     2
 72
     2
 73
     3
 90
        0
 40
-0.6
 41
-30.0
 62
     5
 63
     8
421
  8421504
 74
     1
 91
        4
 64
     7
 65
   257
 75
     1
175
     1
 42
1.0
 92
        8
 66
     8
424
  8421504
 43
1.0
 76
     1
 77
     6
 78
     2
 67
     7
 79
     5
170
     0
171
     0
290
     0
174
     0
 93
        1
 44
0.0
173
     0
291
     1
 45
0.0
1001
ACAD
1000
AcDbSavedByObjectVersion
1070
     0
  0
VISUALSTYLE
  5
115
102
{ACAD_REACTORS
330
10C
102
}
330
10C
100
AcDbVisualStyle
  2
Conceptual
 70
     9
 71
     3
 72
     2
 73
     0
 90
        0
 40
-0.6
 41
-30.0
 62
     5
 63
     7
421
 16777215
 74
     2
 91
        2
 64
     7
 65
   257
 75
     1
175
     1
 42
40.0
 92
        8
 66
     7
 43
1.0
 76
     1
 77
     6
 78
     2
 67
     7
 79
     3
170
     0
171
     0
290
     0
174
     0
 93
        1
 44
0.0
173
     0
291
     0
 45
0.0
1001
ACAD
1000
AcDbSavedByObjectVersion
1070
     0
  0
VISUALSTYLE
  5
117
102
{ACAD_REACTORS
330
10C
102
}
330
10C
100
AcDbVisualStyle
  2
Dim
 70
    11
 71
     2
 72
     2
 73
     0
 90
        0
 40
-0.6
 41
-30.0
 62
     5
 63
     7
421
 16777215
 74
     1
 91
        4
 64
     7
 65
   257
 75
     1
175
     1
 42
1.0
 92
        8
 66
     7
 43
1.0
 76
     1
 77
     6
 78
     2
 67
     7
 79
     5
170
     0
171
     0
290
     0
174
     0
 93
        1
 44
-50.0
173
     0
291
     1
 45
0.0
1001
ACAD
1000
AcDbSavedByObjectVersion
1070
     0
  0
VISUALSTYLE
  5
11B
102
{ACAD_REACTORS
330
10C
102
}
330
10C
100
AcDbVisualStyle
  2
Facepattern
 70
    15
 71
     2
 72
     2
 73
     0
 90
        0
 40
-0.6
 41
-30.0
 62
     5
 63
     7
421
 16777215
 74
     1
 91
        4
 64
     7
 65
   257
 75
     1
175
     1
 42
1.0
 92
        8
 66
     7
 43
1.0
 76
     1
 77
     6
 78
     2
 67
     7
 79
     5
170
     0
171
     0
290
     0
174
     0
 93
        1
 44
0.0
173
     0
291
     1
 45
0.0
1001
ACAD
1000
AcDbSavedByObjectVersion
1070
     0
  0
VISUALSTYLE
  5
10D
102
{ACAD_REACTORS
330
10C
102
}
330
10C
100
AcDbVisualStyle
  2
Flat
 70
     0
 71
     2
 72
     1
 73
     1
 90
        2
 40
-0.6
 41
30.0
 62
     5
 63
     7
421
 16777215
 74
     0
 91
        4
 64
     7
 65
   257
 75
     1
175
     1
 42
1.0
 92
        8
 66
     7
 43
1.0
 76
     1
 77
     6
 78
     2
 67
     7
 79
     5
170
     0
171
     0
290
     0
174
     0
 93
       13
 44
0.0
173
     0
291
     1
 45
0.0
1001
ACAD
1000
AcDbSavedByObjectVersion
1070
     0
  0
VISUALSTYLE
  5
10E
102
{ACAD_REACTORS
330
10C
102
}
330
10C
100
AcDbVisualStyle
  2
FlatWithEdges
 70
     1
 71
     2
 72
     1
 73
     1
 90
        2
 40
-0.6
 41
30.0
 62
     5
 63
     7
421
 16777215
 74
     1
 91
        4
 64
     7
 65
   257
 75
     1
175
     1
 42
1.0
 92
        0
 66
   257
 43
1.0
 76
     1
 77
     6
 78
     2
 67
     7
 79
     5
170
     0
171
     0
290
     0
174
     0
 93
       13
 44
0.0
173
     0
291
     1
 45
0.0
1001
ACAD
1000
AcDbSavedByObjectVersion
1070
     0
  0
VISUALSTYLE
  5
10F
102
{ACAD_REACTORS
330
10C
102
}
330
10C
100
AcDbVisualStyle
  2
Gouraud
 70
     2
 71
     2
 72
     2
 73
     1
 90
        2
 40
-0.6
 41
30.0
 62
     5
 63
     7
421
 16777215
 74
     0
 91
        4
 64
     7
 65
   257
 75
     1
175
     1
 42
1.0
 92
        0
 66
     7
 43
1.0
 76
     1
 77
     6
 78
     2
 67
     7
 79
     5
170
     0
171
     0
290
     0
174
     0
 93
       13
 44
0.0
173
     0
291
     1
 45
0.0
1001
ACAD
1000
AcDbSavedByObjectVersion
1070
     0
  0
VISUALSTYLE
  5
110
102
{ACAD_REACTORS
330
10C
102
}
330
10C
100
AcDbVisualStyle
  2
GouraudWithEdges
 70
     3
 71
     2
 72
     2
 73
     1
 90
        2
 40
-0.6
 41
30.0
 62
     5
 63
     7
421
 16777215
 74
     1
 91
        4
 64
     7
 65
   257
 75
     1
175
     1
 42
1.0
 92
        0
 66
   257
 43
1.0
 76
     1
 77
     6
 78
     2
 67
     7
 79
     5
170
     0
171
     0
290
     0
174
     0
 93
       13
 44
0.0
173
     0
291
     1
 45
0.0
1001
ACAD
1000
AcDbSavedByObjectVersion
1070
     0
  0
VISUALSTYLE
  5
11A
102
{ACAD_REACTORS
330
10C
102
}
330
10C
100
AcDbVisualStyle
  2
Linepattern
 70
    14
 71
     2
 72
     2
 73
     0
 90
        0
 40
-0.6
 41
-30.0
 62
     5
 63
     7
421
 16777215
 74
     1
 91
        4
 64
     7
 65
   257
 75
     7
175
     7
 42
1.0
 92
        8
 66
     7
 43
1.0
 76
     1
 77
     6
 78
     2
 67
     7
 79
     5
170
     0
171
     0
290
     0
174
     0
 93
        1
 44
0.0
173
     0
291
     1
 45
0.0
1001
ACAD
1000
AcDbSavedByObjectVersion
1070
     0
  0
VISUALSTYLE
  5
116
102
{ACAD_REACTORS
330
10C
102
}
330
10C
100
AcDbVisualStyle
  2
Realistic
 70
     8
 71
     2
 72
     2
 73
     0
 90
        0
 40
-0.6
 41
-30.0
 62
     5
 63
     7
421
 16777215
 74
     1
 91
        0
 64
     7
 65
   257
 75
     1
175
     1
 42
1.0
 92
        8
 66
     8
424
  7895160
 43
1.0
 76
     1
 77
     6
 78
     2
 67
     7
 79
     5
170
     0
171
     0
290
     0
174
     0
 93
       13
 44
0.0
173
     0
291
     0
 45
0.0
1001
ACAD
1000
AcDbSavedByObjectVersion
1070
     0
  0
VISUALSTYLE
  5
119
102
{ACAD_REACTORS
330
10C
102
}
330
10C
100
AcDbVisualStyle
  2
Thicken
 70
    13
 71
     2
 72
     2
 73
     0
 90
        0
 40
-0.6
 41
-30.0
 62
     5
 63
     7
421
 16777215
 74
     1
 91
        4
 64
     7
 65
   257
 75
     1
175
     1
 42
1.0
 92
       12
 66
     7
 43
1.0
 76
     1
 77
     6
 78
     2
 67
     7
 79
     5
170
     0
171
     0
290
     0
174
     0
 93
        1
 44
0.0
173
     0
291
     1
 45
0.0
1001
ACAD
1000
AcDbSavedByObjectVersion
1070
     0
  0
DICTIONARYVAR
  5
190
102
{ACAD_REACTORS
330
FA
102
}
330
FA
100
DictionaryVariables
280
     0
  1
1:1
  0
DICTIONARYVAR
  5
18F
102
{ACAD_REACTORS
330
FA
102
}
330
FA
100
DictionaryVariables
280
     0
  1
STANDARD
  0
DICTIONARYVAR
  5
FB
102
{ACAD_REACTORS
330
FA
102
}
330
FA
100
DictionaryVariables
280
     0
  1
STANDARD
  0
XRECORD
  5
126
102
{ACAD_REACTORS
330
124
102
}
330
124
100
AcDbXrecord
280
     1
  0
DICTIONARY
  5
197
330
10A
100
AcDbDictionary
280
     1
281
     1
  3
ACAD_XREC_ROUNDTRIP
360
198
  0
DICTIONARY
  5
195
330
109
100
AcDbDictionary
280
     1
281
     1
  3
ACAD_XREC_ROUNDTRIP
360
196
  0
DICTIONARY
  5
199
330
10B
100
AcDbDictionary
280
     1
281
     1
  3
ACAD_XREC_ROUNDTRIP
360
19A
  0
DICTIONARY
  5
191
330
F6
100
AcDbDictionary
280
     1
281
     1
  3
ACAD_ROUNDTRIP_2008_TABLESTYLE_CELLSTYLEMAP
360
192
  3
ACAD_XREC_ROUNDTRIP
360
194
  0
XRECORD
  5
198
102
{ACAD_REACTORS
330
197
102
}
330
197
100
AcDbXrecord
280
     1
102
MATERIAL
148
0.0
149
0.0
149
0.0
 93
        0
 94
       63
282
     0
 72
     1
 77
     1
171
     1
175
     1
179
     1
273
     0
  0
XRECORD
  5
196
102
{ACAD_REACTORS
330
195
102
}
330
195
100
AcDbXrecord
280
     1
102
MATERIAL
148
0.0
149
0.0
149
0.0
 93
        0
 94
       63
282
     0
 72
     1
 77
     1
171
     1
175
     1
179
     1
273
     0
  0
XRECORD
  5
19A
102
{ACAD_REACTORS
330
199
102
}
330
199
100
AcDbXrecord
280
     1
102
MATERIAL
148
0.0
149
0.0
149
0.0
 93
        0
 94
       63
282
     0
 72
     1
 77
     1
171
     1
175
     1
179
     1
273
     0
  0
CELLSTYLEMAP
  5
192
102
{ACAD_REACTORS
330
191
102
}
330
191
100
AcDbCellStyleMap
 90
        3
300
CELLSTYLE
  1
TABLEFORMAT_BEGIN
 90
        5
170
     1
 91
        0
 92
    32768
 62
   257
 93
        1
300
CONTENTFORMAT
  1
CONTENTFORMAT_BEGIN
 90
        0
 91
        0
 92
        4
 93
        0
300

 40
0.0
140
1.0
 94
        5
 62
     0
340
17
144
0.25
309
CONTENTFORMAT_END
171
     0
 94
        6
 95
        1
302
GRIDFORMAT
  1
GRIDFORMAT_BEGIN
 90
        0
 91
        1
 62
     0
 92
       -2
340
0
 93
        0
 40
0.045
309
GRIDFORMAT_END
 95
        2
302
GRIDFORMAT
  1
GRIDFORMAT_BEGIN
 90
        0
 91
        1
 62
     0
 92
       -2
340
0
 93
        0
 40
0.045
309
GRIDFORMAT_END
 95
        4
302
GRIDFORMAT
  1
GRIDFORMAT_BEGIN
 90
        0
 91
        1
 62
     0
 92
       -2
340
0
 93
        0
 40
0.045
309
GRIDFORMAT_END
 95
        8
302
GRIDFORMAT
  1
GRIDFORMAT_BEGIN
 90
        0
 91
        1
 62
     0
 92
       -2
340
0
 93
        0
 40
0.045
309
GRIDFORMAT_END
 95
       16
302
GRIDFORMAT
  1
GRIDFORMAT_BEGIN
 90
        0
 91
        1
 62
     0
 92
       -2
340
0
 93
        0
 40
0.045
309
GRIDFORMAT_END
 95
       32
302
GRIDFORMAT
  1
GRIDFORMAT_BEGIN
 90
        0
 91
        1
 62
     0
 92
       -2
340
0
 93
        0
 40
0.045
309
GRIDFORMAT_END
309
TABLEFORMAT_END
  1
CELLSTYLE_BEGIN
 90
        1
 91
        1
300
_TITLE
309
CELLSTYLE_END
300
CELLSTYLE
  1
TABLEFORMAT_BEGIN
 90
        5
170
     1
 91
        0
 92
        0
 62
   257
 93
        1
300
CONTENTFORMAT
  1
CONTENTFORMAT_BEGIN
 90
        0
 91
        0
 92
        4
 93
        0
300

 40
0.0
140
1.0
 94
        5
 62
     0
340
17
144
0.18
309
CONTENTFORMAT_END
171
     0
 94
        6
 95
        1
302
GRIDFORMAT
  1
GRIDFORMAT_BEGIN
 90
        0
 91
        1
 62
     0
 92
       -2
340
0
 93
        0
 40
0.045
309
GRIDFORMAT_END
 95
        2
302
GRIDFORMAT
  1
GRIDFORMAT_BEGIN
 90
        0
 91
        1
 62
     0
 92
       -2
340
0
 93
        0
 40
0.045
309
GRIDFORMAT_END
 95
        4
302
GRIDFORMAT
  1
GRIDFORMAT_BEGIN
 90
        0
 91
        1
 62
     0
 92
       -2
340
0
 93
        0
 40
0.045
309
GRIDFORMAT_END
 95
        8
302
GRIDFORMAT
  1
GRIDFORMAT_BEGIN
 90
        0
 91
        1
 62
     0
 92
       -2
340
0
 93
        0
 40
0.045
309
GRIDFORMAT_END
 95
       16
302
GRIDFORMAT
  1
GRIDFORMAT_BEGIN
 90
        0
 91
        1
 62
     0
 92
       -2
340
0
 93
        0
 40
0.045
309
GRIDFORMAT_END
 95
       32
302
GRIDFORMAT
  1
GRIDFORMAT_BEGIN
 90
        0
 91
        1
 62
     0
 92
       -2
340
0
 93
        0
 40
0.045
309
GRIDFORMAT_END
309
TABLEFORMAT_END
  1
CELLSTYLE_BEGIN
 90
        2
 91
        1
300
_HEADER
309
CELLSTYLE_END
300
CELLSTYLE
  1
TABLEFORMAT_BEGIN
 90
        5
170
     1
 91
        0
 92
        0
 62
   257
 93
        1
300
CONTENTFORMAT
  1
CONTENTFORMAT_BEGIN
 90
        0
 91
        0
 92
        4
 93
        0
300

 40
0.0
140
1.0
 94
        2
 62
     0
340
17
144
0.18
309
CONTENTFORMAT_END
171
     0
 94
        6
 95
        1
302
GRIDFORMAT
  1
GRIDFORMAT_BEGIN
 90
        0
 91
        1
 62
     0
 92
       -2
340
0
 93
        0
 40
0.045
309
GRIDFORMAT_END
 95
        2
302
GRIDFORMAT
  1
GRIDFORMAT_BEGIN
 90
        0
 91
        1
 62
     0
 92
       -2
340
0
 93
        0
 40
0.045
309
GRIDFORMAT_END
 95
        4
302
GRIDFORMAT
  1
GRIDFORMAT_BEGIN
 90
        0
 91
        1
 62
     0
 92
       -2
340
0
 93
        0
 40
0.045
309
GRIDFORMAT_END
 95
        8
302
GRIDFORMAT
  1
GRIDFORMAT_BEGIN
 90
        0
 91
        1
 62
     0
 92
       -2
340
0
 93
        0
 40
0.045
309
GRIDFORMAT_END
 95
       16
302
GRIDFORMAT
  1
GRIDFORMAT_BEGIN
 90
        0
 91
        1
 62
     0
 92
       -2
340
0
 93
        0
 40
0.045
309
GRIDFORMAT_END
 95
       32
302
GRIDFORMAT
  1
GRIDFORMAT_BEGIN
 90
        0
 91
        1
 62
     0
 92
       -2
340
0
 93
        0
 40
0.045
309
GRIDFORMAT_END
309
TABLEFORMAT_END
  1
CELLSTYLE_BEGIN
 90
        3
 91
        2
300
_DATA
309
CELLSTYLE_END
  0
XRECORD
  5
194
102
{ACAD_REACTORS
330
191
102
}
330
191
100
AcDbXrecord
280
     1
102
ACAD_ROUNDTRIP_PRE2007_TABLESTYLE
 90
        4
 91
        0
  1

 92
        4
 93
        0
  2

 94
        4
 95
        0
  3

  0
ENDSEC
  0
EOF
