  0
SECTION
  2
HEADER
  9
$ACADVER
  1
AC1018
  9
$ACADMAINTVER
 70
   104
  9
$DWGCODEPAGE
  3
ANSI_1252
  9
$LASTSAVEDBY
  1
EARL
  9
$INSBASE
 10
0.0
 20
0.0
 30
0.0
  9
$EXTMIN
 10
-3.031007587909698
 20
-2.620441198348999
 30
0.0
  9
$EXTMAX
 10
3.34748555676141
 20
1.693516731262207
 30
0.0
  9
$LIMMIN
 10
0.0
 20
0.0
  9
$LIMMAX
 10
0.0
 20
0.0
  9
$ORTHOMODE
 70
     1
  9
$REGENMODE
 70
     1
  9
$FILLMODE
 70
     1
  9
$QTEXTMODE
 70
     0
  9
$MIRRTEXT
 70
     1
  9
$LTSCALE
 40
1.0
  9
$ATTMODE
 70
     1
  9
$TEXTSIZE
 40
0.0
  9
$TRACEWID
 40
0.05
  9
$TEXTSTYLE
  7
Standard
  9
$CLAYER
  8
0
  9
$CELTYPE
  6
Continuous
  9
$CECOLOR
 62
   256
  9
$CELTSCALE
 40
1.0
  9
$DISPSILH
 70
     0
  9
$DIMSCALE
 40
1.0
  9
$DIMASZ
 40
0.18
  9
$DIMEXO
 40
0.0625
  9
$DIMDLI
 40
0.38
  9
$DIMRND
 40
0.0
  9
$DIMDLE
 40
0.0
  9
$DIMEXE
 40
0.18
  9
$DIMTP
 40
0.0
  9
$DIMTM
 40
0.0
  9
$DIMTXT
 40
0.18
  9
$DIMCEN
 40
0.09
  9
$DIMTSZ
 40
0.0
  9
$DIMTOL
 70
     0
  9
$DIMLIM
 70
     0
  9
$DIMTIH
 70
     1
  9
$DIMTOH
 70
     1
  9
$DIMSE1
 70
     0
  9
$DIMSE2
 70
     0
  9
$DIMTAD
 70
     0
  9
$DIMZIN
 70
     0
  9
$DIMBLK
  1

  9
$DIMASO
 70
     1
  9
$DIMSHO
 70
     1
  9
$DIMPOST
  1

  9
$DIMAPOST
  1

  9
$DIMALT
 70
     0
  9
$DIMALTD
 70
     2
  9
$DIMALTF
 40
25.4
  9
$DIMLFAC
 40
1.0
  9
$DIMTOFL
 70
     0
  9
$DIMTVP
 40
0.0
  9
$DIMTIX
 70
     0
  9
$DIMSOXD
 70
     0
  9
$DIMSAH
 70
     0
  9
$DIMBLK1
  1

  9
$DIMBLK2
  1

  9
$DIMSTYLE
  2
Standard
  9
$DIMCLRD
 70
     0
  9
$DIMCLRE
 70
     0
  9
$DIMCLRT
 70
     0
  9
$DIMTFAC
 40
1.0
  9
$DIMGAP
 40
0.09
  9
$DIMJUST
 70
     0
  9
$DIMSD1
 70
     0
  9
$DIMSD2
 70
     0
  9
$DIMTOLJ
 70
     1
  9
$DIMTZIN
 70
     0
  9
$DIMALTZ
 70
     0
  9
$DIMALTTZ
 70
     0
  9
$DIMUPT
 70
     0
  9
$DIMDEC
 70
     4
  9
$DIMTDEC
 70
     4
  9
$DIMALTU
 70
     2
  9
$DIMALTTD
 70
     2
  9
$DIMTXSTY
  7
Standard
  9
$DIMAUNIT
 70
     0
  9
$DIMADEC
 70
     0
  9
$DIMALTRND
 40
0.0
  9
$DIMAZIN
 70
     0
  9
$DIMDSEP
 70
    46
  9
$DIMATFIT
 70
     0
  9
$DIMFRAC
 70
     0
  9
$DIMLDRBLK
  1

  9
$DIMLUNIT
 70
     2
  9
$DIMLWD
 70
    -2
  9
$DIMLWE
 70
    -2
  9
$DIMTMOVE
 70
     0
  9
$LUNITS
 70
     2
  9
$LUPREC
 70
     4
  9
$SKETCHINC
 40
0.1
  9
$FILLETRAD
 40
0.0
  9
$AUNITS
 70
     0
  9
$AUPREC
 70
     0
  9
$MENU
  1
acad
  9
$ELEVATION
 40
0.0
  9
$PELEVATION
 40
0.0
  9
$THICKNESS
 40
0.0
  9
$LIMCHECK
 70
     0
  9
$CHAMFERA
 40
0.0
  9
$CHAMFERB
 40
0.0
  9
$CHAMFERC
 40
0.0
  9
$CHAMFERD
 40
0.0
  9
$SKPOLY
 70
     0
  9
$TDCREATE
 40
2455006.472118056
  9
$TDUCREATE
 40
2455006.638784723
  9
$TDUPDATE
 40
2455105.549870324
  9
$TDUUPDATE
 40
2455105.716536991
  9
$TDINDWG
 40
0.0007658449
  9
$TDUSRTIMER
 40
0.0007658449
  9
$USRTIMER
 70
     1
  9
$ANGBASE
 50
0.0
  9
$ANGDIR
 70
     0
  9
$PDMODE
 70
     0
  9
$PDSIZE
 40
0.0
  9
$PLINEWID
 40
0.0
  9
$SPLFRAME
 70
     0
  9
$SPLINETYPE
 70
     6
  9
$SPLINESEGS
 70
     8
  9
$HANDSEED
  5
21D
  9
$SURFTAB1
 70
     6
  9
$SURFTAB2
 70
     6
  9
$SURFTYPE
 70
     6
  9
$SURFU
 70
     6
  9
$SURFV
 70
     6
  9
$UCSBASE
  2

  9
$UCSNAME
  2

  9
$UCSORG
 10
0.0
 20
0.0
 30
0.0
  9
$UCSXDIR
 10
1.0
 20
0.0
 30
0.0
  9
$UCSYDIR
 10
0.0
 20
1.0
 30
0.0
  9
$UCSORTHOREF
  2

  9
$UCSORTHOVIEW
 70
     0
  9
$UCSORGTOP
 10
0.0
 20
0.0
 30
0.0
  9
$UCSORGBOTTOM
 10
0.0
 20
0.0
 30
0.0
  9
$UCSORGLEFT
 10
0.0
 20
0.0
 30
0.0
  9
$UCSORGRIGHT
 10
0.0
 20
0.0
 30
0.0
  9
$UCSORGFRONT
 10
0.0
 20
0.0
 30
0.0
  9
$UCSORGBACK
 10
0.0
 20
0.0
 30
0.0
  9
$PUCSBASE
  2

  9
$PUCSNAME
  2

  9
$PUCSORG
 10
0.0
 20
0.0
 30
0.0
  9
$PUCSXDIR
 10
1.0
 20
0.0
 30
0.0
  9
$PUCSYDIR
 10
0.0
 20
1.0
 30
0.0
  9
$PUCSORTHOREF
  2

  9
$PUCSORTHOVIEW
 70
     0
  9
$PUCSORGTOP
 10
0.0
 20
0.0
 30
0.0
  9
$PUCSORGBOTTOM
 10
0.0
 20
0.0
 30
0.0
  9
$PUCSORGLEFT
 10
0.0
 20
0.0
 30
0.0
  9
$PUCSORGRIGHT
 10
0.0
 20
0.0
 30
0.0
  9
$PUCSORGFRONT
 10
0.0
 20
0.0
 30
0.0
  9
$PUCSORGBACK
 10
0.0
 20
0.0
 30
0.0
  9
$USERI1
 70
     0
  9
$USERI2
 70
     0
  9
$USERI3
 70
     0
  9
$USERI4
 70
     0
  9
$USERI5
 70
     0
  9
$USERR1
 40
0.0
  9
$USERR2
 40
0.0
  9
$USERR3
 40
0.0
  9
$USERR4
 40
0.0
  9
$USERR5
 40
0.0
  9
$WORLDVIEW
 70
     1
  9
$SHADEDGE
 70
     3
  9
$SHADEDIF
 70
    70
  9
$TILEMODE
 70
     0
  9
$MAXACTVP
 70
    16
  9
$PINSBASE
 10
0.0
 20
0.0
 30
0.0
  9
$PLIMCHECK
 70
     0
  9
$PEXTMIN
 10
-0.1078511654042842
 20
0.0100667395321708
 30
-0.0015258207003583
  9
$PEXTMAX
 10
10.30543006492962
 20
8.015599872014011
 30
0.0000000349246037
  9
$PLIMMIN
 10
-0.3306119115190196
 20
-0.2812499079328949
  9
$PLIMMAX
 10
10.66938784818509
 20
8.218749851771214
  9
$UNITMODE
 70
     0
  9
$VISRETAIN
 70
     0
  9
$PLINEGEN
 70
     1
  9
$PSLTSCALE
 70
     0
  9
$TREEDEPTH
 70
  3020
  9
$CMLSTYLE
  2
Standard
  9
$CMLJUST
 70
     0
  9
$CMLSCALE
 40
1.0
  9
$PROXYGRAPHICS
 70
     0
  9
$MEASUREMENT
 70
     0
  9
$CELWEIGHT
370
     0
  9
$ENDCAPS
280
     0
  9
$JOINSTYLE
280
     0
  9
$LWDISPLAY
290
     0
  9
$INSUNITS
 70
     0
  9
$HYPERLINKBASE
  1

  9
$STYLESHEET
  1

  9
$XEDIT
290
     1
  9
$CEPSNTYPE
380
     0
  9
$PSTYLEMODE
290
     1
  9
$FINGERPRINTGUID
  2

  9
$VERSIONGUID
  2
{D9DAD432-B5A0-4D8C-A7D7-E85FBD0D8EC5}
  9
$EXTNAMES
290
     1
  9
$PSVPSCALE
 40
0.0
  9
$OLESTARTUP
290
     0
  9
$SORTENTS
280
   127
  9
$INDEXCTL
280
     0
  9
$HIDETEXT
280
     0
  9
$XCLIPFRAME
290
     0
  9
$HALOGAP
280
     0
  9
$OBSCOLOR
 70
   257
  9
$OBSLTYPE
280
     0
  9
$INTERSECTIONDISPLAY
280
     0
  9
$INTERSECTIONCOLOR
 70
   257
  9
$DIMASSOC
280
     1
  9
$PROJECTNAME
  1

  0
ENDSEC
  0
SECTION
  2
CLASSES
  0
CLASS
  1
IMAGE
  2
AcDbRasterImage
  3
ISM
 90
     2175
 91
        0
280
     0
281
     1
  0
CLASS
  1
DICTIONARYVAR
  2
AcDbDictionaryVar
  3
ObjectDBX Classes
 90
        0
 91
        5
280
     0
281
     0
  0
CLASS
  1
RASTERVARIABLES
  2
AcDbRasterVariables
  3
ISM
 90
        0
 91
        0
280
     0
281
     0
  0
CLASS
  1
IMAGEDEF
  2
AcDbRasterImageDef
  3
ISM
 90
        0
 91
        0
280
     0
281
     0
  0
CLASS
  1
IMAGEDEF_REACTOR
  2
AcDbRasterImageDefReactor
  3
ISM
 90
        1
 91
        0
280
     0
281
     0
  0
CLASS
  1
IDBUFFER
  2
AcDbIdBuffer
  3
ObjectDBX Classes
 90
        0
 91
        0
280
     0
281
     0
  0
CLASS
  1
SPATIAL_FILTER
  2
AcDbSpatialFilter
  3
ObjectDBX Classes
 90
        0
 91
        0
280
     0
281
     0
  0
CLASS
  1
SORTENTSTABLE
  2
AcDbSortentsTable
  3
ObjectDBX Classes
 90
        0
 91
        1
280
     0
281
     0
  0
CLASS
  1
LAYER_INDEX
  2
AcDbLayerIndex
  3
ObjectDBX Classes
 90
        0
 91
        0
280
     0
281
     0
  0
CLASS
  1
SPATIAL_INDEX
  2
AcDbSpatialIndex
  3
ObjectDBX Classes
 90
        0
 91
        0
280
     0
281
     0
  0
CLASS
  1
OBJECT_PTR
  2
CAseDLPNTableRecord
  3
"ASE-LPNTableRecord"
 90
        1
 91
        0
280
     0
281
     0
  0
CLASS
  1
PLOTSETTINGS
  2
AcDbPlotSettings
  3
ObjectDBX Classes
 90
        0
 91
        0
280
     0
281
     0
  0
CLASS
  1
ACDBDICTIONARYWDFLT
  2
AcDbDictionaryWithDefault
  3
ObjectDBX Classes
 90
        0
 91
        1
280
     0
281
     0
  0
CLASS
  1
WIPEOUT
  2
AcDbWipeout
  3
"WipeOut|Product Desc: Object Enabler for WipeOut entity                        |Company: Autodesk, Inc.                        |WEB Address: www.autodesk.com"
 90
     2175
 91
        0
280
     0
281
     1
  0
CLASS
  1
WIPEOUTVARIABLES
  2
AcDbWipeoutVariables
  3
"WipeOut|Product Desc:     WipeOut Dbx Application|Company:          Autodesk, Inc.|WEB Address:      www.autodesk.com"
 90
        0
 91
        1
280
     0
281
     0
  0
CLASS
  1
RTEXT
  2
RText
  3
RText|AutoCAD Express Tool|expresstools@autodesk.com
 90
        0
 91
        0
280
     0
281
     1
  0
CLASS
  1
ARCALIGNEDTEXT
  2
AcDbArcAlignedText
  3
ATEXT|AutoCAD Express Tool|expresstools@autodesk.com
 90
        0
 91
        0
280
     0
281
     1
  0
CLASS
  1
MATERIAL
  2
AcDbMaterial
  3
ObjectDBX Classes
 90
     1153
 91
        3
280
     0
281
     0
  0
CLASS
  1
VISUALSTYLE
  2
AcDbVisualStyle
  3
ObjectDBX Classes
 90
     4095
 91
       16
280
     0
281
     0
  0
CLASS
  1
TABLESTYLE
  2
AcDbTableStyle
  3
ObjectDBX Classes
 90
     4095
 91
        1
280
     0
281
     0
  0
CLASS
  1
SCALE
  2
AcDbScale
  3
ObjectDBX Classes
 90
     1153
 91
       33
280
     0
281
     0
  0
CLASS
  1
MLEADERSTYLE
  2
AcDbMLeaderStyle
  3
ACDB_MLEADERSTYLE_CLASS
 90
     4095
 91
        1
280
     0
281
     0
  0
CLASS
  1
CELLSTYLEMAP
  2
AcDbCellStyleMap
  3
ObjectDBX Classes
 90
     1152
 91
        2
280
     0
281
     0
  0
ENDSEC
  0
SECTION
  2
TABLES
  0
TABLE
  2
VPORT
  5
7
330
0
100
AcDbSymbolTable
 70
     1
  0
VPORT
  5
15
330
7
100
AcDbSymbolTableRecord
100
AcDbViewportTableRecord
  2
*ACTIVE
 70
     0
 10
0.0
 20
0.0
 11
1.0
 21
1.0
 12
12.11780667605996
 22
4.579183999999999
 13
0.0
 23
0.0
 14
1.0
 24
1.0
 15
0.0
 25
0.0
 16
0.0
 26
0.0
 36
1.0
 17
0.0
 27
0.0
 37
0.0
 40
9.158369
 41
1.895442359249329
 42
50.0
 43
0.0
 44
0.0
 50
0.0
 51
0.0
 71
     0
 72
   100
 73
     1
 74
     1
 75
     0
 76
     0
 77
     0
 78
     0
281
     0
 65
     0
110
0.0
120
0.0
130
0.0
111
1.0
121
0.0
131
0.0
112
0.0
122
1.0
132
0.0
 79
     0
146
0.0
  0
ENDTAB
  0
TABLE
  2
LTYPE
  5
4
330
0
100
AcDbSymbolTable
 70
     5
  0
LTYPE
  5
11
330
4
100
AcDbSymbolTableRecord
100
AcDbLinetypeTableRecord
  2
ByBlock
 70
     0
  3

 72
    65
 73
     0
 40
0.0
  0
LTYPE
  5
12
330
4
100
AcDbSymbolTableRecord
100
AcDbLinetypeTableRecord
  2
ByLayer
 70
     0
  3

 72
    65
 73
     0
 40
0.0
  0
LTYPE
  5
13
330
4
100
AcDbSymbolTableRecord
100
AcDbLinetypeTableRecord
  2
Continuous
 70
     0
  3
Solid line
 72
    65
 73
     0
 40
0.0
  0
LTYPE
  5
24
330
4
100
AcDbSymbolTableRecord
100
AcDbLinetypeTableRecord
  2
solid
 70
     0
  3

 72
    65
 73
     0
 40
0.0
  0
LTYPE
  5
25
330
4
100
AcDbSymbolTableRecord
100
AcDbLinetypeTableRecord
  2
dashed
 70
     0
  3

 72
    65
 73
     0
 40
0.0
  0
LTYPE
  5
26
330
4
100
AcDbSymbolTableRecord
100
AcDbLinetypeTableRecord
  2
center
 70
     0
  3

 72
    65
 73
     0
 40
0.0
  0
ENDTAB
  0
TABLE
  2
LAYER
  5
2
330
0
100
AcDbSymbolTable
 70
     3
  0
LAYER
  5
14
102
{ACAD_XDICTIONARY
360
1DB
102
}
330
2
100
AcDbSymbolTableRecord
100
AcDbLayerTableRecord
  2
0
 70
     0
 62
     7
  6
Continuous
370
    -3
390
1D
  0
LAYER
  5
27
102
{ACAD_XDICTIONARY
360
1DD
102
}
330
2
100
AcDbSymbolTableRecord
100
AcDbLayerTableRecord
  2
1
 70
     0
 62
     1
  6
solid
370
    -3
390
1D
  0
LAYER
  5
2B
102
{ACAD_XDICTIONARY
360
1DF
102
}
330
2
100
AcDbSymbolTableRecord
100
AcDbLayerTableRecord
  2
0
 70
     0
 62
     1
  6
solid
370
    -3
390
1D
  0
ENDTAB
  0
TABLE
  2
STYLE
  5
3
330
0
100
AcDbSymbolTable
 70
     2
  0
STYLE
  5
17
330
3
100
AcDbSymbolTableRecord
100
AcDbTextStyleTableRecord
  2
Standard
 70
     0
 40
0.0
 41
1.0
 50
0.0
 71
     0
 42
0.0
  3
txt
  4

  0
ENDTAB
  0
TABLE
  2
VIEW
  5
5
330
0
100
AcDbSymbolTable
 70
     0
  0
ENDTAB
  0
TABLE
  2
UCS
  5
6
330
0
100
AcDbSymbolTable
 70
     0
  0
ENDTAB
  0
TABLE
  2
APPID
  5
8
330
0
100
AcDbSymbolTable
 70
     3
  0
APPID
  5
16
330
8
100
AcDbSymbolTableRecord
100
AcDbRegAppTableRecord
  2
ACAD
 70
     0
  0
APPID
  5
1AA
330
8
100
AcDbSymbolTableRecord
100
AcDbRegAppTableRecord
  2
ACAD_PSEXT
 70
     0
  0
APPID
  5
1D4
330
8
100
AcDbSymbolTableRecord
100
AcDbRegAppTableRecord
  2
ACAD_MLEADERVER
 70
     0
  0
ENDTAB
  0
TABLE
  2
DIMSTYLE
  5
9
330
0
100
AcDbSymbolTable
 70
     3
100
AcDbDimStyleTable
 71
     1
340
18
  0
DIMSTYLE
105
18
330
9
100
AcDbSymbolTableRecord
100
AcDbDimStyleTableRecord
  2
Standard
 70
     0
289
     0
340
17
  0
ENDTAB
  0
TABLE
  2
BLOCK_RECORD
  5
1
330
0
100
AcDbSymbolTable
 70
     4
  0
BLOCK_RECORD
  5
A
102
{ACAD_XDICTIONARY
360
1F0
102
}
330
1
100
AcDbSymbolTableRecord
100
AcDbBlockTableRecord
  2
*MODEL_SPACE
340
20
  0
BLOCK_RECORD
  5
B
330
1
100
AcDbSymbolTableRecord
100
AcDbBlockTableRecord
  2
*PAPER_SPACE
340
21
  0
BLOCK_RECORD
  5
38
330
1
100
AcDbSymbolTableRecord
100
AcDbBlockTableRecord
  2
*D0
340
0
  0
BLOCK_RECORD
  5
43
330
1
100
AcDbSymbolTableRecord
100
AcDbBlockTableRecord
  2
*D1
340
0
  0
ENDTAB
  0
ENDSEC
  0
SECTION
  2
BLOCKS
  0
BLOCK
  5
D
330
A
100
AcDbEntity
  8
0
100
AcDbBlockBegin
  2
*MODEL_SPACE
 70
     0
 10
0.0
 20
0.0
 30
0.0
  3
*MODEL_SPACE
  1

  0
ENDBLK
  5
E
330
A
100
AcDbEntity
  8
0
100
AcDbBlockEnd
  0
BLOCK
  5
F
330
B
100
AcDbEntity
 67
     1
  8
0
100
AcDbBlockBegin
  2
*PAPER_SPACE
 70
     0
 10
0.0
 20
0.0
 30
0.0
  3
*PAPER_SPACE
  1

  0
ENDBLK
  5
10
330
B
100
AcDbEntity
 67
     1
  8
0
100
AcDbBlockEnd
  0
BLOCK
  5
39
330
38
100
AcDbEntity
  8
0
  6
solid
 62
     7
100
AcDbBlockBegin
  2
*D0
 70
     0
 10
0.0
 20
0.0
 30
0.0
  3
*D0
  1

  0
LINE
  5
3A
330
38
100
AcDbEntity
  8
0
  6
solid
 62
     7
100
AcDbLine
 10
-3.031007528305053
 20
-2.620441198348999
 30
0.0
 11
-3.031007528305053
 21
-2.620441198348999
 31
0.0
  0
LINE
  5
3B
330
38
100
AcDbEntity
  8
0
  6
solid
 62
     7
100
AcDbLine
 10
-0.7810075879096985
 20
-1.806272506713867
 30
0.0
 11
-0.7810075879096985
 21
-1.806272506713867
 31
0.0
  0
LINE
  5
3C
330
38
100
AcDbEntity
  8
0
  6
solid
 62
     7
100
AcDbLine
 10
-3.031007528305053
 20
0.1523631920852038
 30
0.0
 11
-2.08491564634267
 21
0.1523631920852038
 31
0.0
  0
LINE
  5
3D
330
38
100
AcDbEntity
  8
0
  6
solid
 62
     7
100
AcDbLine
 10
-0.7810075879096985
 20
0.1523631920852038
 30
0.0
 11
-1.727099469872081
 21
0.1523631920852038
 31
0.0
  0
MTEXT
  5
3E
330
38
100
AcDbEntity
  8
0
  6
solid
 62
     7
100
AcDbMText
 10
-1.906007558107375
 20
0.1523631920852038
 30
0.0
 40
0.09375
 41
0.0
 71
     5
 72
     1
  1
{\H0.093750;2 1/4}
 73
     1
 44
1.0
  0
SOLID
  5
3F
330
38
100
AcDbEntity
  8
0
  6
solid
 62
     7
100
AcDbTrace
 10
-2.968507528305053
 20
0.1836131920852038
 30
0.0
 11
-2.968507528305053
 21
0.1211131920852038
 31
0.0
 12
-3.031007528305053
 22
0.1523631920852038
 32
0.0
 13
-3.031007528305053
 23
0.1523631920852038
 33
0.0
  0
SOLID
  5
40
330
38
100
AcDbEntity
  8
0
  6
solid
 62
     7
100
AcDbTrace
 10
-0.8435075879096984
 20
0.1211131920852038
 30
0.0
 11
-0.8435075879096984
 21
0.1836131920852038
 31
0.0
 12
-0.7810075879096985
 22
0.1523631920852038
 32
0.0
 13
-0.7810075879096985
 23
0.1523631920852038
 33
0.0
  0
ENDBLK
  5
41
330
38
100
AcDbEntity
  8
0
  6
solid
 62
     7
100
AcDbBlockEnd
  0
BLOCK
  5
44
330
43
100
AcDbEntity
  8
0
  6
solid
 62
     7
100
AcDbBlockBegin
  2
*D1
 70
     0
 10
0.0
 20
0.0
 30
0.0
  3
*D1
  1

  0
LINE
  5
45
330
43
100
AcDbEntity
  8
0
  6
solid
 62
     7
100
AcDbLine
 10
1.630872726440429
 20
0.3795588016509983
 30
0.0
 11
1.630872726440429
 21
0.3795588016509983
 31
0.0
  0
LINE
  5
46
330
43
100
AcDbEntity
  8
0
  6
solid
 62
     7
100
AcDbLine
 10
1.876785635948181
 20
1.504558801650998
 30
0.0
 11
1.876785635948181
 21
1.504558801650998
 31
0.0
  0
LINE
  5
47
330
43
100
AcDbEntity
  8
0
  6
solid
 62
     7
100
AcDbLine
 10
-0.6230060682369838
 20
0.3795588016510003
 30
0.0
 11
-0.6230060682369835
 21
0.8221543545356157
 31
0.0
  0
LINE
  5
48
330
43
100
AcDbEntity
  8
0
  6
solid
 62
     7
100
AcDbLine
 10
-0.6230060682369829
 20
1.504558801651
 30
0.0
 11
-0.6230060682369833
 21
1.061963248766384
 31
0.0
  0
MTEXT
  5
49
330
43
100
AcDbEntity
  8
0
  6
solid
 62
     7
100
AcDbMText
 10
-0.6230060682369834
 20
0.9420588016510002
 30
0.0
 40
0.09375
 41
0.0
 71
     5
 72
     1
  1
{\H0.093750;1 1/8}
 73
     1
 44
1.0
  0
SOLID
  5
4A
330
43
100
AcDbEntity
  8
0
  6
solid
 62
     7
100
AcDbTrace
 10
-0.6542560682369837
 20
0.4420588016510004
 30
0.0
 11
-0.5917560682369837
 21
0.4420588016510003
 31
0.0
 12
-0.6230060682369838
 22
0.3795588016510003
 32
0.0
 13
-0.6230060682369838
 23
0.3795588016510003
 33
0.0
  0
SOLID
  5
4B
330
43
100
AcDbEntity
  8
0
  6
solid
 62
     7
100
AcDbTrace
 10
-0.5917560682369829
 20
1.442058801651
 30
0.0
 11
-0.6542560682369829
 21
1.442058801651
 31
0.0
 12
-0.6230060682369829
 22
1.504558801651
 32
0.0
 13
-0.6230060682369829
 23
1.504558801651
 33
0.0
  0
ENDBLK
  5
4C
330
43
100
AcDbEntity
  8
0
  6
solid
 62
     7
100
AcDbBlockEnd
  0
ENDSEC
  0
SECTION
  2
ENTITIES
  0
ARC
  5
28
330
A
100
AcDbEntity
  8
1
  6
solid
 62
     7
100
AcDbCircle
 10
-1.140474895350739
 20
1.141765663533442
 30
0.0
 40
0.3632035067288479
100
AcDbArc
 50
289.1744242537166
 51
447.2761028647518
  0
LINE
  5
29
330
A
100
AcDbEntity
  8
1
  6
solid
 62
     7
100
AcDbLine
 10
-1.123214350665187
 20
1.504558801419606
 30
0.0
 11
-3.031007587899999
 21
1.504558801419606
 31
0.0
  0
ARC
  5
2A
330
A
100
AcDbEntity
  8
1
  6
solid
 62
     7
100
AcDbCircle
 10
-0.7770057393031511
 20
0.2420236088229584
 30
0.0
 40
0.6078847645262984
100
AcDbArc
 50
113.6834080561286
 51
166.9234840643196
  0
LINE
  5
2C
330
A
100
AcDbEntity
  8
0
  6
solid
 62
     7
100
AcDbLine
 10
-3.031007587909698
 20
0.379558801651001
 30
0.0
 11
-1.369127312695766
 21
0.379558801651001
 31
0.0
  0
LINE
  5
2D
330
A
100
AcDbEntity
  8
0
  6
solid
 62
     7
100
AcDbLine
 10
-3.0310075879
 20
0.379558801651001
 30
0.0
 11
-3.0310075879
 21
1.504558801419606
 31
0.0
  0
ARC
  5
2E
330
A
100
AcDbEntity
  8
1
  6
solid
 62
     7
100
AcDbCircle
 10
1.935782435374415
 20
1.162377026530511
 30
0.0
 40
0.3632035067288479
100
AcDbArc
 50
289.1744242537166
 51
447.2761028647518
  0
LINE
  5
2F
330
A
100
AcDbEntity
  8
1
  6
solid
 62
     7
100
AcDbLine
 10
1.953042980059968
 20
1.525170164416675
 30
0.0
 11
0.0452497428251562
 21
1.525170164416676
 31
0.0
  0
LINE
  5
30
330
A
100
AcDbEntity
  8
0
  6
solid
 62
     7
100
AcDbLine
 10
0.0452497428251557
 20
0.4001701646480705
 30
0.0
 11
0.0452497428251557
 21
1.525170164416675
 31
0.0
  0
LINE
  5
31
330
A
100
AcDbEntity
  8
0
  6
solid
 62
     7
100
AcDbLine
 10
0.0452497428154573
 20
0.4001701646480705
 30
0.0
 11
1.707130018029389
 21
0.4001701646480705
 31
0.0
  0
ARC
  5
32
330
A
100
AcDbEntity
  8
1
  6
solid
 62
     7
100
AcDbCircle
 10
2.299251591422004
 20
0.2626349718200278
 30
0.0
 40
0.6078847645262984
100
AcDbArc
 50
113.6834080561286
 51
166.9234840643196
  0
ARC
  5
33
330
A
100
AcDbEntity
  8
1
  6
solid
 62
     7
100
AcDbCircle
 10
2.984282050032562
 20
1.330723590773375
 30
0.0
 40
0.3632035067288479
100
AcDbArc
 50
289.1744242537166
 51
447.2761028647518
  0
LINE
  5
34
330
A
100
AcDbEntity
  8
1
  6
solid
 62
     7
100
AcDbLine
 10
3.001542594718115
 20
1.693516728659539
 30
0.0
 11
1.093749357483303
 21
1.69351672865954
 31
0.0
  0
ARC
  5
35
330
A
100
AcDbEntity
  8
1
  6
solid
 62
     7
100
AcDbCircle
 10
3.347751206080151
 20
0.4309815360628921
 30
0.0
 40
0.6078847645262984
100
AcDbArc
 50
113.6834080561286
 51
166.9234840643196
  0
LINE
  5
36
330
A
100
AcDbEntity
  8
0
  6
solid
 62
     7
100
AcDbLine
 10
0.0452497415244579
 20
1.52517020702362
 30
0.0
 11
1.093749403953552
 21
1.693516731262207
 31
0.0
  0
LINE
  5
37
330
A
100
AcDbEntity
  8
0
  6
solid
 62
     7
100
AcDbLine
 10
1.707130074501037
 20
0.4001701772212983
 30
0.0
 11
2.755629539489746
 21
0.5685167312622071
 31
0.0
  0
LINE
  5
4E
330
A
100
AcDbEntity
  8
0
  6
solid
 62
     7
100
AcDbLine
 10
0.5127981029605682
 20
0.2253157852078554
 30
0.0
 11
0.5127981029605682
 21
0.241541746746317
 31
0.0
  0
LINE
  5
4F
330
A
100
AcDbEntity
  8
0
  6
solid
 62
     7
100
AcDbLine
 10
0.5127981029605682
 20
0.241541746746317
 30
0.0
 11
0.526278495117431
 21
0.241541746746317
 31
0.0
  0
LINE
  5
50
330
A
100
AcDbEntity
  8
0
  6
solid
 62
     7
100
AcDbLine
 10
0.526278495117431
 20
0.241541746746317
 30
0.0
 11
0.526278495117431
 21
0.3340898236693939
 31
0.0
  0
LINE
  5
51
330
A
100
AcDbEntity
  8
0
  6
solid
 62
     7
100
AcDbLine
 10
0.526278495117431
 20
0.3340898236693939
 30
0.0
 11
0.5120628088429211
 21
0.3340898236693939
 31
0.0
  0
LINE
  5
52
330
A
100
AcDbEntity
  8
0
  6
solid
 62
     7
100
AcDbLine
 10
0.5120628088429211
 20
0.3340898236693939
 30
0.0
 11
0.5120628088429211
 21
0.3503157852078554
 31
0.0
  0
LINE
  5
53
330
A
100
AcDbEntity
  8
0
  6
solid
 62
     7
100
AcDbLine
 10
0.5120628088429211
 20
0.3503157852078554
 30
0.0
 11
0.5439255539409604
 21
0.3503157852078554
 31
0.0
  0
LINE
  5
54
330
A
100
AcDbEntity
  8
0
  6
solid
 62
     7
100
AcDbLine
 10
0.5439255539409604
 20
0.3503157852078554
 30
0.0
 11
0.5439255539409604
 21
0.241541746746317
 31
0.0
  0
LINE
  5
55
330
A
100
AcDbEntity
  8
0
  6
solid
 62
     7
100
AcDbLine
 10
0.5439255539409604
 20
0.241541746746317
 30
0.0
 11
0.5588765343331172
 21
0.241541746746317
 31
0.0
  0
LINE
  5
56
330
A
100
AcDbEntity
  8
0
  6
solid
 62
     7
100
AcDbLine
 10
0.5588765343331172
 20
0.241541746746317
 30
0.0
 11
0.5588765343331172
 21
0.2253157852078554
 31
0.0
  0
LINE
  5
57
330
A
100
AcDbEntity
  8
0
  6
solid
 62
     7
100
AcDbLine
 10
0.5588765343331172
 20
0.2253157852078554
 30
0.0
 11
0.5127981029605682
 21
0.2253157852078554
 31
0.0
  0
LINE
  5
58
330
A
100
AcDbEntity
  8
0
  6
solid
 62
     7
100
AcDbLine
 10
0.5792196715880192
 20
0.2529600159770862
 30
0.0
 11
0.6417196715880192
 21
0.2529600159770862
 31
0.0
  0
LINE
  5
59
330
A
100
AcDbEntity
  8
0
  6
solid
 62
     7
100
AcDbLine
 10
0.6417196715880192
 20
0.2529600159770862
 30
0.0
 11
0.6417196715880192
 21
0.2794023236693939
 31
0.0
  0
LINE
  5
5A
330
A
100
AcDbEntity
  8
0
  6
solid
 62
     7
100
AcDbLine
 10
0.6417196715880192
 20
0.2794023236693939
 30
0.0
 11
0.5792196715880192
 21
0.2794023236693939
 31
0.0
  0
LINE
  5
5B
330
A
100
AcDbEntity
  8
0
  6
solid
 62
     7
100
AcDbLine
 10
0.5792196715880192
 20
0.2794023236693939
 30
0.0
 11
0.5792196715880192
 21
0.2529600159770862
 31
0.0
  0
LINE
  5
5C
330
A
100
AcDbEntity
  8
0
  6
solid
 62
     7
100
AcDbLine
 10
0.6627981029605682
 20
0.2253157852078554
 30
0.0
 11
0.6627981029605682
 21
0.241541746746317
 31
0.0
  0
LINE
  5
5D
330
A
100
AcDbEntity
  8
0
  6
solid
 62
     7
100
AcDbLine
 10
0.6627981029605682
 20
0.241541746746317
 30
0.0
 11
0.676278495117431
 21
0.241541746746317
 31
0.0
  0
LINE
  5
5E
330
A
100
AcDbEntity
  8
0
  6
solid
 62
     7
100
AcDbLine
 10
0.676278495117431
 20
0.241541746746317
 30
0.0
 11
0.676278495117431
 21
0.3340898236693939
 31
0.0
  0
LINE
  5
5F
330
A
100
AcDbEntity
  8
0
  6
solid
 62
     7
100
AcDbLine
 10
0.676278495117431
 20
0.3340898236693939
 30
0.0
 11
0.6620628088429212
 21
0.3340898236693939
 31
0.0
  0
LINE
  5
60
330
A
100
AcDbEntity
  8
0
  6
solid
 62
     7
100
AcDbLine
 10
0.6620628088429212
 20
0.3340898236693939
 30
0.0
 11
0.6620628088429212
 21
0.3503157852078554
 31
0.0
  0
LINE
  5
61
330
A
100
AcDbEntity
  8
0
  6
solid
 62
     7
100
AcDbLine
 10
0.6620628088429212
 20
0.3503157852078554
 30
0.0
 11
0.6939255539409604
 21
0.3503157852078554
 31
0.0
  0
LINE
  5
62
330
A
100
AcDbEntity
  8
0
  6
solid
 62
     7
100
AcDbLine
 10
0.6939255539409604
 20
0.3503157852078554
 30
0.0
 11
0.6939255539409604
 21
0.241541746746317
 31
0.0
  0
LINE
  5
63
330
A
100
AcDbEntity
  8
0
  6
solid
 62
     7
100
AcDbLine
 10
0.6939255539409604
 20
0.241541746746317
 30
0.0
 11
0.7088765343331172
 21
0.241541746746317
 31
0.0
  0
LINE
  5
64
330
A
100
AcDbEntity
  8
0
  6
solid
 62
     7
100
AcDbLine
 10
0.7088765343331172
 20
0.241541746746317
 30
0.0
 11
0.7088765343331172
 21
0.2253157852078554
 31
0.0
  0
LINE
  5
65
330
A
100
AcDbEntity
  8
0
  6
solid
 62
     7
100
AcDbLine
 10
0.7088765343331172
 20
0.2253157852078554
 30
0.0
 11
0.6627981029605682
 21
0.2253157852078554
 31
0.0
  0
LINE
  5
66
330
A
100
AcDbEntity
  8
0
  6
solid
 62
     7
100
AcDbLine
 10
0.7917196715880192
 20
0.3503157852078554
 30
0.0
 11
0.7387784951174309
 21
0.2253157852078554
 31
0.0
  0
LINE
  5
67
330
A
100
AcDbEntity
  8
0
  6
solid
 62
     7
100
AcDbLine
 10
0.7387784951174309
 20
0.2253157852078554
 30
0.0
 11
0.7292196715880192
 21
0.2253157852078554
 31
0.0
  0
LINE
  5
68
330
A
100
AcDbEntity
  8
0
  6
solid
 62
     7
100
AcDbLine
 10
0.7292196715880192
 20
0.2253157852078554
 30
0.0
 11
0.7821608480586074
 21
0.3503157852078554
 31
0.0
  0
LINE
  5
69
330
A
100
AcDbEntity
  8
0
  6
solid
 62
     7
100
AcDbLine
 10
0.7821608480586074
 20
0.3503157852078554
 30
0.0
 11
0.7917196715880192
 21
0.3503157852078554
 31
0.0
  0
LINE
  5
6A
330
A
100
AcDbEntity
  8
0
  6
solid
 62
     7
100
AcDbLine
 10
0.819170651980176
 20
0.2992340544386247
 30
0.0
 11
0.8157392794311563
 21
0.2956282852078554
 31
0.0
  0
LINE
  5
6B
330
A
100
AcDbEntity
  8
0
  6
solid
 62
     7
100
AcDbLine
 10
0.8157392794311563
 20
0.2956282852078554
 30
0.0
 11
0.8123079068821368
 21
0.2914215544386247
 31
0.0
  0
LINE
  5
6C
330
A
100
AcDbEntity
  8
0
  6
solid
 62
     7
100
AcDbLine
 10
0.8123079068821368
 20
0.2914215544386247
 30
0.0
 11
0.8096118284507642
 21
0.2872148236693939
 31
0.0
  0
LINE
  5
6D
330
A
100
AcDbEntity
  8
0
  6
solid
 62
     7
100
AcDbLine
 10
0.8096118284507642
 20
0.2872148236693939
 30
0.0
 11
0.8076510441370388
 21
0.2824071313617016
 31
0.0
  0
LINE
  5
6E
330
A
100
AcDbEntity
  8
0
  6
solid
 62
     7
100
AcDbLine
 10
0.8076510441370388
 20
0.2824071313617016
 30
0.0
 11
0.8061804559017446
 21
0.2782004005924708
 31
0.0
  0
LINE
  5
6F
330
A
100
AcDbEntity
  8
0
  6
solid
 62
     7
100
AcDbLine
 10
0.8061804559017446
 20
0.2782004005924708
 30
0.0
 11
0.8049549657056662
 21
0.2721907852078554
 31
0.0
  0
LINE
  5
70
330
A
100
AcDbEntity
  8
0
  6
solid
 62
     7
100
AcDbLine
 10
0.8049549657056662
 20
0.2721907852078554
 30
0.0
 11
0.8042196715880191
 21
0.2679840544386247
 31
0.0
  0
LINE
  5
71
330
A
100
AcDbEntity
  8
0
  6
solid
 62
     7
100
AcDbLine
 10
0.8042196715880191
 20
0.2679840544386247
 30
0.0
 11
0.8042196715880191
 21
0.264979246746317
 31
0.0
  0
LINE
  5
72
330
A
100
AcDbEntity
  8
0
  6
solid
 62
     7
100
AcDbLine
 10
0.8042196715880191
 20
0.264979246746317
 30
0.0
 11
0.8049549657056662
 21
0.2601715544386247
 31
0.0
  0
LINE
  5
73
330
A
100
AcDbEntity
  8
0
  6
solid
 62
     7
100
AcDbLine
 10
0.8049549657056662
 20
0.2601715544386247
 30
0.0
 11
0.8056902598233133
 21
0.2547629005924708
 31
0.0
  0
LINE
  5
74
330
A
100
AcDbEntity
  8
0
  6
solid
 62
     7
100
AcDbLine
 10
0.8056902598233133
 20
0.2547629005924708
 30
0.0
 11
0.8069157500193917
 21
0.249354246746317
 31
0.0
  0
LINE
  5
75
330
A
100
AcDbEntity
  8
0
  6
solid
 62
     7
100
AcDbLine
 10
0.8069157500193917
 20
0.249354246746317
 30
0.0
 11
0.8096118284507642
 21
0.24274366982324
 31
0.0
  0
LINE
  5
76
330
A
100
AcDbEntity
  8
0
  6
solid
 62
     7
100
AcDbLine
 10
0.8096118284507642
 20
0.24274366982324
 30
0.0
 11
0.8137784951174309
 21
0.2373350159770862
 31
0.0
  0
LINE
  5
77
330
A
100
AcDbEntity
  8
0
  6
solid
 62
     7
100
AcDbLine
 10
0.8137784951174309
 20
0.2373350159770862
 30
0.0
 11
0.8172098676664505
 21
0.2331282852078554
 31
0.0
  0
LINE
  5
78
330
A
100
AcDbEntity
  8
0
  6
solid
 62
     7
100
AcDbLine
 10
0.8172098676664505
 20
0.2331282852078554
 30
0.0
 11
0.8233373186468426
 21
0.2289215544386247
 31
0.0
  0
LINE
  5
79
330
A
100
AcDbEntity
  8
0
  6
solid
 62
     7
100
AcDbLine
 10
0.8233373186468426
 20
0.2289215544386247
 30
0.0
 11
0.8294647696272347
 21
0.225916746746317
 31
0.0
  0
LINE
  5
7A
330
A
100
AcDbEntity
  8
0
  6
solid
 62
     7
100
AcDbLine
 10
0.8294647696272347
 20
0.225916746746317
 30
0.0
 11
0.8341216323723328
 21
0.2253157852078554
 31
0.0
  0
LINE
  5
7B
330
A
100
AcDbEntity
  8
0
  6
solid
 62
     7
100
AcDbLine
 10
0.8341216323723328
 20
0.2253157852078554
 30
0.0
 11
0.8395137892350778
 21
0.2253157852078554
 31
0.0
  0
LINE
  5
7C
330
A
100
AcDbEntity
  8
0
  6
solid
 62
     7
100
AcDbLine
 10
0.8395137892350778
 20
0.2253157852078554
 30
0.0
 11
0.8449059460978231
 21
0.22711866982324
 31
0.0
  0
LINE
  5
7D
330
A
100
AcDbEntity
  8
0
  6
solid
 62
     7
100
AcDbLine
 10
0.8449059460978231
 20
0.22711866982324
 30
0.0
 11
0.8510333970782152
 21
0.2313254005924708
 31
0.0
  0
LINE
  5
7E
330
A
100
AcDbEntity
  8
0
  6
solid
 62
     7
100
AcDbLine
 10
0.8510333970782152
 20
0.2313254005924708
 30
0.0
 11
0.8571608480586073
 21
0.2367340544386247
 31
0.0
  0
LINE
  5
7F
330
A
100
AcDbEntity
  8
0
  6
solid
 62
     7
100
AcDbLine
 10
0.8571608480586073
 20
0.2367340544386247
 30
0.0
 11
0.8613275147252741
 21
0.2433446313617016
 31
0.0
  0
LINE
  5
80
330
A
100
AcDbEntity
  8
0
  6
solid
 62
     7
100
AcDbLine
 10
0.8613275147252741
 20
0.2433446313617016
 30
0.0
 11
0.8640235931566467
 21
0.2505561698232401
 31
0.0
  0
LINE
  5
81
330
A
100
AcDbEntity
  8
0
  6
solid
 62
     7
100
AcDbLine
 10
0.8640235931566467
 20
0.2505561698232401
 30
0.0
 11
0.8652490833527251
 21
0.2541619390540093
 31
0.0
  0
LINE
  5
82
330
A
100
AcDbEntity
  8
0
  6
solid
 62
     7
100
AcDbLine
 10
0.8652490833527251
 20
0.2541619390540093
 30
0.0
 11
0.8667196715880191
 21
0.2619744390540093
 31
0.0
  0
LINE
  5
83
330
A
100
AcDbEntity
  8
0
  6
solid
 62
     7
100
AcDbLine
 10
0.8667196715880191
 20
0.2619744390540093
 30
0.0
 11
0.8667196715880191
 21
0.2685850159770862
 31
0.0
  0
LINE
  5
84
330
A
100
AcDbEntity
  8
0
  6
solid
 62
     7
100
AcDbLine
 10
0.8667196715880191
 20
0.2685850159770862
 30
0.0
 11
0.8652490833527251
 21
0.2763975159770862
 31
0.0
  0
LINE
  5
85
330
A
100
AcDbEntity
  8
0
  6
solid
 62
     7
100
AcDbLine
 10
0.8652490833527251
 20
0.2763975159770862
 30
0.0
 11
0.8632882990389996
 21
0.2824071313617016
 31
0.0
  0
LINE
  5
86
330
A
100
AcDbEntity
  8
0
  6
solid
 62
     7
100
AcDbLine
 10
0.8632882990389996
 20
0.2824071313617016
 30
0.0
 11
0.860592220607627
 21
0.28961866982324
 31
0.0
  0
LINE
  5
87
330
A
100
AcDbEntity
  8
0
  6
solid
 62
     7
100
AcDbLine
 10
0.860592220607627
 20
0.28961866982324
 30
0.0
 11
0.8571608480586073
 21
0.2938254005924708
 31
0.0
  0
LINE
  5
88
330
A
100
AcDbEntity
  8
0
  6
solid
 62
     7
100
AcDbLine
 10
0.8571608480586073
 20
0.2938254005924708
 30
0.0
 11
0.8537294755095878
 21
0.2974311698232401
 31
0.0
  0
LINE
  5
89
330
A
100
AcDbEntity
  8
0
  6
solid
 62
     7
100
AcDbLine
 10
0.8537294755095878
 20
0.2974311698232401
 30
0.0
 11
0.8517686911958623
 21
0.2992340544386247
 31
0.0
  0
LINE
  5
8A
330
A
100
AcDbEntity
  8
0
  6
solid
 62
     7
100
AcDbLine
 10
0.8517686911958623
 20
0.2992340544386247
 30
0.0
 11
0.8552000637448818
 21
0.3034407852078554
 31
0.0
  0
LINE
  5
8B
330
A
100
AcDbEntity
  8
0
  6
solid
 62
     7
100
AcDbLine
 10
0.8552000637448818
 20
0.3034407852078554
 30
0.0
 11
0.8571608480586073
 21
0.3076475159770862
 31
0.0
  0
LINE
  5
8C
330
A
100
AcDbEntity
  8
0
  6
solid
 62
     7
100
AcDbLine
 10
0.8571608480586073
 20
0.3076475159770862
 30
0.0
 11
0.8586314362939015
 21
0.311854246746317
 31
0.0
  0
LINE
  5
8D
330
A
100
AcDbEntity
  8
0
  6
solid
 62
     7
100
AcDbLine
 10
0.8586314362939015
 20
0.311854246746317
 30
0.0
 11
0.8593667304115484
 21
0.3184648236693939
 31
0.0
  0
LINE
  5
8E
330
A
100
AcDbEntity
  8
0
  6
solid
 62
     7
100
AcDbLine
 10
0.8593667304115484
 20
0.3184648236693939
 30
0.0
 11
0.8593667304115484
 21
0.3232725159770862
 31
0.0
  0
LINE
  5
8F
330
A
100
AcDbEntity
  8
0
  6
solid
 62
     7
100
AcDbLine
 10
0.8593667304115484
 20
0.3232725159770862
 30
0.0
 11
0.8586314362939015
 21
0.327479246746317
 31
0.0
  0
LINE
  5
90
330
A
100
AcDbEntity
  8
0
  6
solid
 62
     7
100
AcDbLine
 10
0.8586314362939015
 20
0.327479246746317
 30
0.0
 11
0.8571608480586073
 21
0.3322869390540093
 31
0.0
  0
LINE
  5
91
330
A
100
AcDbEntity
  8
0
  6
solid
 62
     7
100
AcDbLine
 10
0.8571608480586073
 20
0.3322869390540093
 30
0.0
 11
0.8552000637448818
 21
0.3370946313617016
 31
0.0
  0
LINE
  5
92
330
A
100
AcDbEntity
  8
0
  6
solid
 62
     7
100
AcDbLine
 10
0.8552000637448818
 20
0.3370946313617016
 30
0.0
 11
0.8532392794311563
 21
0.3407004005924708
 31
0.0
  0
LINE
  5
93
330
A
100
AcDbEntity
  8
0
  6
solid
 62
     7
100
AcDbLine
 10
0.8532392794311563
 20
0.3407004005924708
 30
0.0
 11
0.8498079068821368
 21
0.3443061698232401
 31
0.0
  0
LINE
  5
94
330
A
100
AcDbEntity
  8
0
  6
solid
 62
     7
100
AcDbLine
 10
0.8498079068821368
 20
0.3443061698232401
 30
0.0
 11
0.8471118284507642
 21
0.3467100159770862
 31
0.0
  0
LINE
  5
95
330
A
100
AcDbEntity
  8
0
  6
solid
 62
     7
100
AcDbLine
 10
0.8471118284507642
 20
0.3467100159770862
 30
0.0
 11
0.8436804559017446
 21
0.3485129005924708
 31
0.0
  0
LINE
  5
96
330
A
100
AcDbEntity
  8
0
  6
solid
 62
     7
100
AcDbLine
 10
0.8436804559017446
 20
0.3485129005924708
 30
0.0
 11
0.8387784951174309
 21
0.3503157852078554
 31
0.0
  0
LINE
  5
97
330
A
100
AcDbEntity
  8
0
  6
solid
 62
     7
100
AcDbLine
 10
0.8387784951174309
 20
0.3503157852078554
 30
0.0
 11
0.8333863382546857
 21
0.3503157852078554
 31
0.0
  0
LINE
  5
98
330
A
100
AcDbEntity
  8
0
  6
solid
 62
     7
100
AcDbLine
 10
0.8333863382546857
 20
0.3503157852078554
 30
0.0
 11
0.8272588872742936
 21
0.3485129005924708
 31
0.0
  0
LINE
  5
99
330
A
100
AcDbEntity
  8
0
  6
solid
 62
     7
100
AcDbLine
 10
0.8272588872742936
 20
0.3485129005924708
 30
0.0
 11
0.8218667304115484
 21
0.3449071313617016
 31
0.0
  0
LINE
  5
9A
330
A
100
AcDbEntity
  8
0
  6
solid
 62
     7
100
AcDbLine
 10
0.8218667304115484
 20
0.3449071313617016
 30
0.0
 11
0.8184353578625289
 21
0.3419023236693939
 31
0.0
  0
LINE
  5
9B
330
A
100
AcDbEntity
  8
0
  6
solid
 62
     7
100
AcDbLine
 10
0.8184353578625289
 20
0.3419023236693939
 30
0.0
 11
0.8157392794311563
 21
0.3370946313617016
 31
0.0
  0
LINE
  5
9C
330
A
100
AcDbEntity
  8
0
  6
solid
 62
     7
100
AcDbLine
 10
0.8157392794311563
 20
0.3370946313617016
 30
0.0
 11
0.8137784951174309
 21
0.3322869390540093
 31
0.0
  0
LINE
  5
9D
330
A
100
AcDbEntity
  8
0
  6
solid
 62
     7
100
AcDbLine
 10
0.8137784951174309
 20
0.3322869390540093
 30
0.0
 11
0.8123079068821368
 21
0.3268782852078554
 31
0.0
  0
LINE
  5
9E
330
A
100
AcDbEntity
  8
0
  6
solid
 62
     7
100
AcDbLine
 10
0.8123079068821368
 20
0.3268782852078554
 30
0.0
 11
0.8115726127644897
 21
0.3232725159770862
 31
0.0
  0
LINE
  5
9F
330
A
100
AcDbEntity
  8
0
  6
solid
 62
     7
100
AcDbLine
 10
0.8115726127644897
 20
0.3232725159770862
 30
0.0
 11
0.8115726127644897
 21
0.3190657852078554
 31
0.0
  0
LINE
  5
A0
330
A
100
AcDbEntity
  8
0
  6
solid
 62
     7
100
AcDbLine
 10
0.8115726127644897
 20
0.3190657852078554
 30
0.0
 11
0.8123079068821368
 21
0.3136571313617016
 31
0.0
  0
LINE
  5
A1
330
A
100
AcDbEntity
  8
0
  6
solid
 62
     7
100
AcDbLine
 10
0.8123079068821368
 20
0.3136571313617016
 30
0.0
 11
0.8137784951174309
 21
0.3076475159770862
 31
0.0
  0
LINE
  5
A2
330
A
100
AcDbEntity
  8
0
  6
solid
 62
     7
100
AcDbLine
 10
0.8137784951174309
 20
0.3076475159770862
 30
0.0
 11
0.8157392794311563
 21
0.3034407852078554
 31
0.0
  0
LINE
  5
A3
330
A
100
AcDbEntity
  8
0
  6
solid
 62
     7
100
AcDbLine
 10
0.8157392794311563
 20
0.3034407852078554
 30
0.0
 11
0.8177000637448818
 21
0.3010369390540093
 31
0.0
  0
LINE
  5
A4
330
A
100
AcDbEntity
  8
0
  6
solid
 62
     7
100
AcDbLine
 10
0.8177000637448818
 20
0.3010369390540093
 30
0.0
 11
0.819170651980176
 21
0.2992340544386247
 31
0.0
  0
LINE
  5
A5
330
A
100
AcDbEntity
  8
0
  6
solid
 62
     7
100
AcDbLine
 10
0.8387784951174309
 20
0.2409407852078554
 30
0.0
 11
0.8436804559017446
 21
0.24274366982324
 31
0.0
  0
LINE
  5
A6
330
A
100
AcDbEntity
  8
0
  6
solid
 62
     7
100
AcDbLine
 10
0.8436804559017446
 20
0.24274366982324
 30
0.0
 11
0.8471118284507642
 21
0.2451475159770862
 31
0.0
  0
LINE
  5
A7
330
A
100
AcDbEntity
  8
0
  6
solid
 62
     7
100
AcDbLine
 10
0.8471118284507642
 20
0.2451475159770862
 30
0.0
 11
0.8502981029605681
 21
0.2487532852078554
 31
0.0
  0
LINE
  5
A8
330
A
100
AcDbEntity
  8
0
  6
solid
 62
     7
100
AcDbLine
 10
0.8502981029605681
 20
0.2487532852078554
 30
0.0
 11
0.8532392794311563
 21
0.2541619390540093
 31
0.0
  0
LINE
  5
A9
330
A
100
AcDbEntity
  8
0
  6
solid
 62
     7
100
AcDbLine
 10
0.8532392794311563
 20
0.2541619390540093
 30
0.0
 11
0.8544647696272347
 21
0.2589696313617016
 31
0.0
  0
LINE
  5
AA
330
A
100
AcDbEntity
  8
0
  6
solid
 62
     7
100
AcDbLine
 10
0.8544647696272347
 20
0.2589696313617016
 30
0.0
 11
0.8552000637448818
 21
0.2643782852078554
 31
0.0
  0
LINE
  5
AB
330
A
100
AcDbEntity
  8
0
  6
solid
 62
     7
100
AcDbLine
 10
0.8552000637448818
 20
0.2643782852078554
 30
0.0
 11
0.8552000637448818
 21
0.2679840544386247
 31
0.0
  0
LINE
  5
AC
330
A
100
AcDbEntity
  8
0
  6
solid
 62
     7
100
AcDbLine
 10
0.8552000637448818
 20
0.2679840544386247
 30
0.0
 11
0.8532392794311563
 21
0.2757965544386247
 31
0.0
  0
LINE
  5
AD
330
A
100
AcDbEntity
  8
0
  6
solid
 62
     7
100
AcDbLine
 10
0.8532392794311563
 20
0.2757965544386247
 30
0.0
 11
0.8510333970782152
 21
0.2800032852078554
 31
0.0
  0
LINE
  5
AE
330
A
100
AcDbEntity
  8
0
  6
solid
 62
     7
100
AcDbLine
 10
0.8510333970782152
 20
0.2800032852078554
 30
0.0
 11
0.8483373186468426
 21
0.2836090544386247
 31
0.0
  0
LINE
  5
AF
330
A
100
AcDbEntity
  8
0
  6
solid
 62
     7
100
AcDbLine
 10
0.8483373186468426
 20
0.2836090544386247
 30
0.0
 11
0.8449059460978231
 21
0.2872148236693939
 31
0.0
  0
LINE
  5
B0
330
A
100
AcDbEntity
  8
0
  6
solid
 62
     7
100
AcDbLine
 10
0.8449059460978231
 20
0.2872148236693939
 30
0.0
 11
0.8422098676664504
 21
0.288416746746317
 31
0.0
  0
LINE
  5
B1
330
A
100
AcDbEntity
  8
0
  6
solid
 62
     7
100
AcDbLine
 10
0.8422098676664504
 20
0.288416746746317
 30
0.0
 11
0.8382882990389994
 21
0.28961866982324
 31
0.0
  0
LINE
  5
B2
330
A
100
AcDbEntity
  8
0
  6
solid
 62
     7
100
AcDbLine
 10
0.8382882990389994
 20
0.28961866982324
 30
0.0
 11
0.8333863382546857
 21
0.28961866982324
 31
0.0
  0
LINE
  5
B3
330
A
100
AcDbEntity
  8
0
  6
solid
 62
     7
100
AcDbLine
 10
0.8333863382546857
 20
0.28961866982324
 30
0.0
 11
0.8279941813919407
 21
0.2878157852078554
 31
0.0
  0
LINE
  5
B4
330
A
100
AcDbEntity
  8
0
  6
solid
 62
     7
100
AcDbLine
 10
0.8279941813919407
 20
0.2878157852078554
 30
0.0
 11
0.824562808842921
 21
0.2854119390540093
 31
0.0
  0
LINE
  5
B5
330
A
100
AcDbEntity
  8
0
  6
solid
 62
     7
100
AcDbLine
 10
0.824562808842921
 20
0.2854119390540093
 30
0.0
 11
0.8211314362939015
 21
0.2818061698232401
 31
0.0
  0
LINE
  5
B6
330
A
100
AcDbEntity
  8
0
  6
solid
 62
     7
100
AcDbLine
 10
0.8211314362939015
 20
0.2818061698232401
 30
0.0
 11
0.8184353578625289
 21
0.2763975159770862
 31
0.0
  0
LINE
  5
B7
330
A
100
AcDbEntity
  8
0
  6
solid
 62
     7
100
AcDbLine
 10
0.8184353578625289
 20
0.2763975159770862
 30
0.0
 11
0.8172098676664505
 21
0.2721907852078554
 31
0.0
  0
LINE
  5
B8
330
A
100
AcDbEntity
  8
0
  6
solid
 62
     7
100
AcDbLine
 10
0.8172098676664505
 20
0.2721907852078554
 30
0.0
 11
0.8164745735488034
 21
0.2679840544386247
 31
0.0
  0
LINE
  5
B9
330
A
100
AcDbEntity
  8
0
  6
solid
 62
     7
100
AcDbLine
 10
0.8164745735488034
 20
0.2679840544386247
 30
0.0
 11
0.8164745735488034
 21
0.2625754005924708
 31
0.0
  0
LINE
  5
BA
330
A
100
AcDbEntity
  8
0
  6
solid
 62
     7
100
AcDbLine
 10
0.8164745735488034
 20
0.2625754005924708
 30
0.0
 11
0.8172098676664505
 21
0.257166746746317
 31
0.0
  0
LINE
  5
BB
330
A
100
AcDbEntity
  8
0
  6
solid
 62
     7
100
AcDbLine
 10
0.8172098676664505
 20
0.257166746746317
 30
0.0
 11
0.819170651980176
 21
0.2511571313617016
 31
0.0
  0
LINE
  5
BC
330
A
100
AcDbEntity
  8
0
  6
solid
 62
     7
100
AcDbLine
 10
0.819170651980176
 20
0.2511571313617016
 30
0.0
 11
0.8226020245291955
 21
0.2469504005924708
 31
0.0
  0
LINE
  5
BD
330
A
100
AcDbEntity
  8
0
  6
solid
 62
     7
100
AcDbLine
 10
0.8226020245291955
 20
0.2469504005924708
 30
0.0
 11
0.8260333970782152
 21
0.2433446313617016
 31
0.0
  0
LINE
  5
BE
330
A
100
AcDbEntity
  8
0
  6
solid
 62
     7
100
AcDbLine
 10
0.8260333970782152
 20
0.2433446313617016
 30
0.0
 11
0.8306902598233133
 21
0.2409407852078554
 31
0.0
  0
LINE
  5
BF
330
A
100
AcDbEntity
  8
0
  6
solid
 62
     7
100
AcDbLine
 10
0.8306902598233133
 20
0.2409407852078554
 30
0.0
 11
0.8387784951174309
 21
0.2409407852078554
 31
0.0
  0
LINE
  5
C0
330
A
100
AcDbEntity
  8
0
  6
solid
 62
     7
100
AcDbLine
 10
0.8375530049213523
 20
0.30524366982324
 30
0.0
 11
0.8402490833527249
 21
0.3058446313617016
 31
0.0
  0
LINE
  5
C1
330
A
100
AcDbEntity
  8
0
  6
solid
 62
     7
100
AcDbLine
 10
0.8402490833527249
 20
0.3058446313617016
 30
0.0
 11
0.8436804559017446
 21
0.3088494390540093
 31
0.0
  0
LINE
  5
C2
330
A
100
AcDbEntity
  8
0
  6
solid
 62
     7
100
AcDbLine
 10
0.8436804559017446
 20
0.3088494390540093
 30
0.0
 11
0.84564124021547
 21
0.311854246746317
 31
0.0
  0
LINE
  5
C3
330
A
100
AcDbEntity
  8
0
  6
solid
 62
     7
100
AcDbLine
 10
0.84564124021547
 20
0.311854246746317
 30
0.0
 11
0.8471118284507642
 21
0.3154600159770862
 31
0.0
  0
LINE
  5
C4
330
A
100
AcDbEntity
  8
0
  6
solid
 62
     7
100
AcDbLine
 10
0.8471118284507642
 20
0.3154600159770862
 30
0.0
 11
0.8476020245291955
 21
0.3190657852078554
 31
0.0
  0
LINE
  5
C5
330
A
100
AcDbEntity
  8
0
  6
solid
 62
     7
100
AcDbLine
 10
0.8476020245291955
 20
0.3190657852078554
 30
0.0
 11
0.8476020245291955
 21
0.3214696313617016
 31
0.0
  0
LINE
  5
C6
330
A
100
AcDbEntity
  8
0
  6
solid
 62
     7
100
AcDbLine
 10
0.8476020245291955
 20
0.3214696313617016
 30
0.0
 11
0.8463765343331171
 21
0.3268782852078554
 31
0.0
  0
LINE
  5
C7
330
A
100
AcDbEntity
  8
0
  6
solid
 62
     7
100
AcDbLine
 10
0.8463765343331171
 20
0.3268782852078554
 30
0.0
 11
0.8444157500193917
 21
0.3304840544386247
 31
0.0
  0
LINE
  5
C8
330
A
100
AcDbEntity
  8
0
  6
solid
 62
     7
100
AcDbLine
 10
0.8444157500193917
 20
0.3304840544386247
 30
0.0
 11
0.8422098676664504
 21
0.3328879005924708
 31
0.0
  0
LINE
  5
C9
330
A
100
AcDbEntity
  8
0
  6
solid
 62
     7
100
AcDbLine
 10
0.8422098676664504
 20
0.3328879005924708
 30
0.0
 11
0.8395137892350778
 21
0.3346907852078554
 31
0.0
  0
LINE
  5
CA
330
A
100
AcDbEntity
  8
0
  6
solid
 62
     7
100
AcDbLine
 10
0.8395137892350778
 20
0.3346907852078554
 30
0.0
 11
0.8368177108037054
 21
0.335291746746317
 31
0.0
  0
LINE
  5
CB
330
A
100
AcDbEntity
  8
0
  6
solid
 62
     7
100
AcDbLine
 10
0.8368177108037054
 20
0.335291746746317
 30
0.0
 11
0.8348569264899799
 21
0.335291746746317
 31
0.0
  0
LINE
  5
CC
330
A
100
AcDbEntity
  8
0
  6
solid
 62
     7
100
AcDbLine
 10
0.8348569264899799
 20
0.335291746746317
 30
0.0
 11
0.8314255539409602
 21
0.3346907852078554
 31
0.0
  0
LINE
  5
CD
330
A
100
AcDbEntity
  8
0
  6
solid
 62
     7
100
AcDbLine
 10
0.8314255539409602
 20
0.3346907852078554
 30
0.0
 11
0.8287294755095878
 21
0.3328879005924708
 31
0.0
  0
LINE
  5
CE
330
A
100
AcDbEntity
  8
0
  6
solid
 62
     7
100
AcDbLine
 10
0.8287294755095878
 20
0.3328879005924708
 30
0.0
 11
0.8265235931566465
 21
0.3304840544386247
 31
0.0
  0
LINE
  5
CF
330
A
100
AcDbEntity
  8
0
  6
solid
 62
     7
100
AcDbLine
 10
0.8265235931566465
 20
0.3304840544386247
 30
0.0
 11
0.824562808842921
 21
0.3268782852078554
 31
0.0
  0
LINE
  5
D0
330
A
100
AcDbEntity
  8
0
  6
solid
 62
     7
100
AcDbLine
 10
0.824562808842921
 20
0.3268782852078554
 30
0.0
 11
0.8238275147252739
 21
0.3232725159770862
 31
0.0
  0
LINE
  5
D1
330
A
100
AcDbEntity
  8
0
  6
solid
 62
     7
100
AcDbLine
 10
0.8238275147252739
 20
0.3232725159770862
 30
0.0
 11
0.8233373186468426
 21
0.3208686698232401
 31
0.0
  0
LINE
  5
D2
330
A
100
AcDbEntity
  8
0
  6
solid
 62
     7
100
AcDbLine
 10
0.8233373186468426
 20
0.3208686698232401
 30
0.0
 11
0.8233373186468426
 21
0.3190657852078554
 31
0.0
  0
LINE
  5
D3
330
A
100
AcDbEntity
  8
0
  6
solid
 62
     7
100
AcDbLine
 10
0.8233373186468426
 20
0.3190657852078554
 30
0.0
 11
0.824562808842921
 21
0.3136571313617016
 31
0.0
  0
LINE
  5
D4
330
A
100
AcDbEntity
  8
0
  6
solid
 62
     7
100
AcDbLine
 10
0.824562808842921
 20
0.3136571313617016
 30
0.0
 11
0.8260333970782152
 21
0.3112532852078554
 31
0.0
  0
LINE
  5
D5
330
A
100
AcDbEntity
  8
0
  6
solid
 62
     7
100
AcDbLine
 10
0.8260333970782152
 20
0.3112532852078554
 30
0.0
 11
0.8279941813919407
 21
0.3076475159770862
 31
0.0
  0
LINE
  5
D6
330
A
100
AcDbEntity
  8
0
  6
solid
 62
     7
100
AcDbLine
 10
0.8279941813919407
 20
0.3076475159770862
 30
0.0
 11
0.8306902598233133
 21
0.3058446313617016
 31
0.0
  0
LINE
  5
D7
330
A
100
AcDbEntity
  8
0
  6
solid
 62
     7
100
AcDbLine
 10
0.8306902598233133
 20
0.3058446313617016
 30
0.0
 11
0.8341216323723328
 21
0.30524366982324
 31
0.0
  0
LINE
  5
D8
330
A
100
AcDbEntity
  8
0
  6
solid
 62
     7
100
AcDbLine
 10
0.8341216323723328
 20
0.30524366982324
 30
0.0
 11
0.8375530049213523
 21
0.30524366982324
 31
0.0
  0
LINE
  5
D9
330
A
100
AcDbEntity
  8
0
  6
solid
 62
     7
100
AcDbLine
 10
0.9552000637448818
 20
0.3503157852078554
 30
0.0
 11
0.9552000637448818
 21
0.3340898236693939
 31
0.0
  0
LINE
  5
DA
330
A
100
AcDbEntity
  8
0
  6
solid
 62
     7
100
AcDbLine
 10
0.9552000637448818
 20
0.3340898236693939
 30
0.0
 11
0.9640235931566467
 21
0.3340898236693939
 31
0.0
  0
LINE
  5
DB
330
A
100
AcDbEntity
  8
0
  6
solid
 62
     7
100
AcDbLine
 10
0.9640235931566467
 20
0.3340898236693939
 30
0.0
 11
0.9804451617840976
 21
0.2890177082847785
 31
0.0
  0
LINE
  5
DC
330
A
100
AcDbEntity
  8
0
  6
solid
 62
     7
100
AcDbLine
 10
0.9804451617840976
 20
0.2890177082847785
 30
0.0
 11
0.9623079068821368
 21
0.241541746746317
 31
0.0
  0
LINE
  5
DD
330
A
100
AcDbEntity
  8
0
  6
solid
 62
     7
100
AcDbLine
 10
0.9623079068821368
 20
0.241541746746317
 30
0.0
 11
0.9542196715880191
 21
0.241541746746317
 31
0.0
  0
LINE
  5
DE
330
A
100
AcDbEntity
  8
0
  6
solid
 62
     7
100
AcDbLine
 10
0.9542196715880191
 20
0.241541746746317
 30
0.0
 11
0.9542196715880191
 21
0.2253157852078554
 31
0.0
  0
LINE
  5
DF
330
A
100
AcDbEntity
  8
0
  6
solid
 62
     7
100
AcDbLine
 10
0.9542196715880191
 20
0.2253157852078554
 30
0.0
 11
0.9804451617840976
 21
0.2253157852078554
 31
0.0
  0
LINE
  5
E0
330
A
100
AcDbEntity
  8
0
  6
solid
 62
     7
100
AcDbLine
 10
0.9804451617840976
 20
0.2253157852078554
 30
0.0
 11
0.9804451617840976
 21
0.241541746746317
 31
0.0
  0
LINE
  5
E1
330
A
100
AcDbEntity
  8
0
  6
solid
 62
     7
100
AcDbLine
 10
0.9804451617840976
 20
0.241541746746317
 30
0.0
 11
0.9735824166860583
 21
0.241541746746317
 31
0.0
  0
LINE
  5
E2
330
A
100
AcDbEntity
  8
0
  6
solid
 62
     7
100
AcDbLine
 10
0.9735824166860583
 20
0.241541746746317
 30
0.0
 11
0.985592220607627
 21
0.2745946313617016
 31
0.0
  0
LINE
  5
E3
330
A
100
AcDbEntity
  8
0
  6
solid
 62
     7
100
AcDbLine
 10
0.985592220607627
 20
0.2745946313617016
 30
0.0
 11
0.9973569264899799
 21
0.241541746746317
 31
0.0
  0
LINE
  5
E4
330
A
100
AcDbEntity
  8
0
  6
solid
 62
     7
100
AcDbLine
 10
0.9973569264899799
 20
0.241541746746317
 30
0.0
 11
0.9909843774703722
 21
0.241541746746317
 31
0.0
  0
LINE
  5
E5
330
A
100
AcDbEntity
  8
0
  6
solid
 62
     7
100
AcDbLine
 10
0.9909843774703722
 20
0.241541746746317
 30
0.0
 11
0.9909843774703722
 21
0.2253157852078554
 31
0.0
  0
LINE
  5
E6
330
A
100
AcDbEntity
  8
0
  6
solid
 62
     7
100
AcDbLine
 10
0.9909843774703722
 20
0.2253157852078554
 30
0.0
 11
1.016719671588019
 21
0.2253157852078554
 31
0.0
  0
LINE
  5
E7
330
A
100
AcDbEntity
  8
0
  6
solid
 62
     7
100
AcDbLine
 10
1.016719671588019
 20
0.2253157852078554
 30
0.0
 11
1.016719671588019
 21
0.241541746746317
 31
0.0
  0
LINE
  5
E8
330
A
100
AcDbEntity
  8
0
  6
solid
 62
     7
100
AcDbLine
 10
1.016719671588019
 20
0.241541746746317
 30
0.0
 11
1.008631436293901
 21
0.241541746746317
 31
0.0
  0
LINE
  5
E9
330
A
100
AcDbEntity
  8
0
  6
solid
 62
     7
100
AcDbLine
 10
1.008631436293901
 20
0.241541746746317
 30
0.0
 11
0.9909843774703722
 21
0.2890177082847785
 31
0.0
  0
LINE
  5
EA
330
A
100
AcDbEntity
  8
0
  6
solid
 62
     7
100
AcDbLine
 10
0.9909843774703722
 20
0.2890177082847785
 30
0.0
 11
1.006915750019391
 21
0.3340898236693939
 31
0.0
  0
LINE
  5
EB
330
A
100
AcDbEntity
  8
0
  6
solid
 62
     7
100
AcDbLine
 10
1.006915750019391
 20
0.3340898236693939
 30
0.0
 11
1.015739279431156
 21
0.3340898236693939
 31
0.0
  0
LINE
  5
EC
330
A
100
AcDbEntity
  8
0
  6
solid
 62
     7
100
AcDbLine
 10
1.015739279431156
 20
0.3340898236693939
 30
0.0
 11
1.015739279431156
 21
0.3503157852078554
 31
0.0
  0
LINE
  5
ED
330
A
100
AcDbEntity
  8
0
  6
solid
 62
     7
100
AcDbLine
 10
1.015739279431156
 20
0.3503157852078554
 30
0.0
 11
0.989513789235078
 21
0.3503157852078554
 31
0.0
  0
LINE
  5
EE
330
A
100
AcDbEntity
  8
0
  6
solid
 62
     7
100
AcDbLine
 10
0.989513789235078
 20
0.3503157852078554
 30
0.0
 11
0.989513789235078
 21
0.3340898236693939
 31
0.0
  0
LINE
  5
EF
330
A
100
AcDbEntity
  8
0
  6
solid
 62
     7
100
AcDbLine
 10
0.989513789235078
 20
0.3340898236693939
 30
0.0
 11
0.9961314362939015
 21
0.3340898236693939
 31
0.0
  0
LINE
  5
F0
330
A
100
AcDbEntity
  8
0
  6
solid
 62
     7
100
AcDbLine
 10
0.9961314362939015
 20
0.3340898236693939
 30
0.0
 11
0.985592220607627
 21
0.3046427082847785
 31
0.0
  0
LINE
  5
F1
330
A
100
AcDbEntity
  8
0
  6
solid
 62
     7
100
AcDbLine
 10
0.985592220607627
 20
0.3046427082847785
 30
0.0
 11
0.9748079068821368
 21
0.3340898236693939
 31
0.0
  0
LINE
  5
F2
330
A
100
AcDbEntity
  8
0
  6
solid
 62
     7
100
AcDbLine
 10
0.9748079068821368
 20
0.3340898236693939
 30
0.0
 11
0.9814255539409604
 21
0.3340898236693939
 31
0.0
  0
LINE
  5
F3
330
A
100
AcDbEntity
  8
0
  6
solid
 62
     7
100
AcDbLine
 10
0.9814255539409604
 20
0.3340898236693939
 30
0.0
 11
0.9814255539409604
 21
0.3503157852078554
 31
0.0
  0
LINE
  5
F4
330
A
100
AcDbEntity
  8
0
  6
solid
 62
     7
100
AcDbLine
 10
0.9814255539409604
 20
0.3503157852078554
 30
0.0
 11
0.9552000637448818
 21
0.3503157852078554
 31
0.0
  0
LINE
  5
F5
330
A
100
AcDbEntity
  8
0
  6
solid
 62
     7
100
AcDbLine
 10
1.106915750019391
 20
0.2253157852078554
 30
0.0
 11
1.106915750019391
 21
0.241541746746317
 31
0.0
  0
LINE
  5
F6
330
A
100
AcDbEntity
  8
0
  6
solid
 62
     7
100
AcDbLine
 10
1.106915750019391
 20
0.241541746746317
 30
0.0
 11
1.144660848058607
 21
0.2944263621309324
 31
0.0
  0
LINE
  5
F7
330
A
100
AcDbEntity
  8
0
  6
solid
 62
     7
100
AcDbLine
 10
1.144660848058607
 20
0.2944263621309324
 30
0.0
 11
1.148092220607626
 21
0.3004359775155478
 31
0.0
  0
LINE
  5
F8
330
A
100
AcDbEntity
  8
0
  6
solid
 62
     7
100
AcDbLine
 10
1.148092220607626
 20
0.3004359775155478
 30
0.0
 11
1.149562808842921
 21
0.304041746746317
 31
0.0
  0
LINE
  5
F9
330
A
100
AcDbEntity
  8
0
  6
solid
 62
     7
100
AcDbLine
 10
1.149562808842921
 20
0.304041746746317
 30
0.0
 11
1.151033397078215
 21
0.3106523236693939
 31
0.0
  0
LINE
  5
FA
330
A
100
AcDbEntity
  8
0
  6
solid
 62
     7
100
AcDbLine
 10
1.151033397078215
 20
0.3106523236693939
 30
0.0
 11
1.151033397078215
 21
0.3154600159770862
 31
0.0
  0
LINE
  5
FB
330
A
100
AcDbEntity
  8
0
  6
solid
 62
     7
100
AcDbLine
 10
1.151033397078215
 20
0.3154600159770862
 30
0.0
 11
1.149562808842921
 21
0.3208686698232401
 31
0.0
  0
LINE
  5
FC
330
A
100
AcDbEntity
  8
0
  6
solid
 62
     7
100
AcDbLine
 10
1.149562808842921
 20
0.3208686698232401
 30
0.0
 11
1.148092220607626
 21
0.3256763621309324
 31
0.0
  0
LINE
  5
FD
330
A
100
AcDbEntity
  8
0
  6
solid
 62
     7
100
AcDbLine
 10
1.148092220607626
 20
0.3256763621309324
 30
0.0
 11
1.145396142176254
 21
0.3292821313617016
 31
0.0
  0
LINE
  5
FE
330
A
100
AcDbEntity
  8
0
  6
solid
 62
     7
100
AcDbLine
 10
1.145396142176254
 20
0.3292821313617016
 30
0.0
 11
1.142700063744881
 21
0.3316859775155478
 31
0.0
  0
LINE
  5
FF
330
A
100
AcDbEntity
  8
0
  6
solid
 62
     7
100
AcDbLine
 10
1.142700063744881
 20
0.3316859775155478
 30
0.0
 11
1.140003985313509
 21
0.3334888621309324
 31
0.0
  0
LINE
  5
100
330
A
100
AcDbEntity
  8
0
  6
solid
 62
     7
100
AcDbLine
 10
1.140003985313509
 20
0.3334888621309324
 30
0.0
 11
1.135837318646842
 21
0.335291746746317
 31
0.0
  0
LINE
  5
101
330
A
100
AcDbEntity
  8
0
  6
solid
 62
     7
100
AcDbLine
 10
1.135837318646842
 20
0.335291746746317
 30
0.0
 11
1.130935357862528
 21
0.335291746746317
 31
0.0
  0
LINE
  5
102
330
A
100
AcDbEntity
  8
0
  6
solid
 62
     7
100
AcDbLine
 10
1.130935357862528
 20
0.335291746746317
 30
0.0
 11
1.126768691195862
 21
0.3334888621309324
 31
0.0
  0
LINE
  5
103
330
A
100
AcDbEntity
  8
0
  6
solid
 62
     7
100
AcDbLine
 10
1.126768691195862
 20
0.3334888621309324
 30
0.0
 11
1.123337318646842
 21
0.3310850159770862
 31
0.0
  0
LINE
  5
104
330
A
100
AcDbEntity
  8
0
  6
solid
 62
     7
100
AcDbLine
 10
1.123337318646842
 20
0.3310850159770862
 30
0.0
 11
1.121376534333117
 21
0.3280802082847785
 31
0.0
  0
LINE
  5
105
330
A
100
AcDbEntity
  8
0
  6
solid
 62
     7
100
AcDbLine
 10
1.121376534333117
 20
0.3280802082847785
 30
0.0
 11
1.119415750019391
 21
0.3256763621309324
 31
0.0
  0
LINE
  5
106
330
A
100
AcDbEntity
  8
0
  6
solid
 62
     7
100
AcDbLine
 10
1.119415750019391
 20
0.3256763621309324
 30
0.0
 11
1.11720986766645
 21
0.3202677082847785
 31
0.0
  0
LINE
  5
107
330
A
100
AcDbEntity
  8
0
  6
solid
 62
     7
100
AcDbLine
 10
1.11720986766645
 20
0.3202677082847785
 30
0.0
 11
1.115984377470371
 21
0.3124552082847785
 31
0.0
  0
LINE
  5
108
330
A
100
AcDbEntity
  8
0
  6
solid
 62
     7
100
AcDbLine
 10
1.115984377470371
 20
0.3124552082847785
 30
0.0
 11
1.104219671588019
 21
0.3124552082847785
 31
0.0
  0
LINE
  5
109
330
A
100
AcDbEntity
  8
0
  6
solid
 62
     7
100
AcDbLine
 10
1.104219671588019
 20
0.3124552082847785
 30
0.0
 11
1.104954965705666
 21
0.3202677082847785
 31
0.0
  0
LINE
  5
10A
330
A
100
AcDbEntity
  8
0
  6
solid
 62
     7
100
AcDbLine
 10
1.104954965705666
 20
0.3202677082847785
 30
0.0
 11
1.106915750019391
 21
0.3280802082847785
 31
0.0
  0
LINE
  5
10B
330
A
100
AcDbEntity
  8
0
  6
solid
 62
     7
100
AcDbLine
 10
1.106915750019391
 20
0.3280802082847785
 30
0.0
 11
1.109611828450764
 21
0.3340898236693939
 31
0.0
  0
LINE
  5
10C
330
A
100
AcDbEntity
  8
0
  6
solid
 62
     7
100
AcDbLine
 10
1.109611828450764
 20
0.3340898236693939
 30
0.0
 11
1.113043200999783
 21
0.3394984775155478
 31
0.0
  0
LINE
  5
10D
330
A
100
AcDbEntity
  8
0
  6
solid
 62
     7
100
AcDbLine
 10
1.113043200999783
 20
0.3394984775155478
 30
0.0
 11
1.11720986766645
 21
0.3443061698232401
 31
0.0
  0
LINE
  5
10E
330
A
100
AcDbEntity
  8
0
  6
solid
 62
     7
100
AcDbLine
 10
1.11720986766645
 20
0.3443061698232401
 30
0.0
 11
1.121376534333117
 21
0.3467100159770862
 31
0.0
  0
LINE
  5
10F
330
A
100
AcDbEntity
  8
0
  6
solid
 62
     7
100
AcDbLine
 10
1.121376534333117
 20
0.3467100159770862
 30
0.0
 11
1.127503985313509
 21
0.3497148236693939
 31
0.0
  0
LINE
  5
110
330
A
100
AcDbEntity
  8
0
  6
solid
 62
     7
100
AcDbLine
 10
1.127503985313509
 20
0.3497148236693939
 30
0.0
 11
1.131670651980176
 21
0.3503157852078554
 31
0.0
  0
LINE
  5
111
330
A
100
AcDbEntity
  8
0
  6
solid
 62
     7
100
AcDbLine
 10
1.131670651980176
 20
0.3503157852078554
 30
0.0
 11
1.135837318646842
 21
0.3503157852078554
 31
0.0
  0
LINE
  5
112
330
A
100
AcDbEntity
  8
0
  6
solid
 62
     7
100
AcDbLine
 10
1.135837318646842
 20
0.3503157852078554
 30
0.0
 11
1.141964769627234
 21
0.3485129005924708
 31
0.0
  0
LINE
  5
113
330
A
100
AcDbEntity
  8
0
  6
solid
 62
     7
100
AcDbLine
 10
1.141964769627234
 20
0.3485129005924708
 30
0.0
 11
1.146866730411548
 21
0.3461090544386247
 31
0.0
  0
LINE
  5
114
330
A
100
AcDbEntity
  8
0
  6
solid
 62
     7
100
AcDbLine
 10
1.146866730411548
 20
0.3461090544386247
 30
0.0
 11
1.151523593156646
 21
0.3425032852078554
 31
0.0
  0
LINE
  5
115
330
A
100
AcDbEntity
  8
0
  6
solid
 62
     7
100
AcDbLine
 10
1.151523593156646
 20
0.3425032852078554
 30
0.0
 11
1.155690259823313
 21
0.3370946313617016
 31
0.0
  0
LINE
  5
116
330
A
100
AcDbEntity
  8
0
  6
solid
 62
     7
100
AcDbLine
 10
1.155690259823313
 20
0.3370946313617016
 30
0.0
 11
1.159121632372333
 21
0.3310850159770862
 31
0.0
  0
LINE
  5
117
330
A
100
AcDbEntity
  8
0
  6
solid
 62
     7
100
AcDbLine
 10
1.159121632372333
 20
0.3310850159770862
 30
0.0
 11
1.161817710803705
 21
0.3226715544386247
 31
0.0
  0
LINE
  5
118
330
A
100
AcDbEntity
  8
0
  6
solid
 62
     7
100
AcDbLine
 10
1.161817710803705
 20
0.3226715544386247
 30
0.0
 11
1.163288299038999
 21
0.3148590544386247
 31
0.0
  0
LINE
  5
119
330
A
100
AcDbEntity
  8
0
  6
solid
 62
     7
100
AcDbLine
 10
1.163288299038999
 20
0.3148590544386247
 30
0.0
 11
1.163288299038999
 21
0.3088494390540093
 31
0.0
  0
LINE
  5
11A
330
A
100
AcDbEntity
  8
0
  6
solid
 62
     7
100
AcDbLine
 10
1.163288299038999
 20
0.3088494390540093
 30
0.0
 11
1.161817710803705
 21
0.3022388621309324
 31
0.0
  0
LINE
  5
11B
330
A
100
AcDbEntity
  8
0
  6
solid
 62
     7
100
AcDbLine
 10
1.161817710803705
 20
0.3022388621309324
 30
0.0
 11
1.159856926489979
 21
0.296229246746317
 31
0.0
  0
LINE
  5
11C
330
A
100
AcDbEntity
  8
0
  6
solid
 62
     7
100
AcDbLine
 10
1.159856926489979
 20
0.296229246746317
 30
0.0
 11
1.157160848058607
 21
0.2902196313617016
 31
0.0
  0
LINE
  5
11D
330
A
100
AcDbEntity
  8
0
  6
solid
 62
     7
100
AcDbLine
 10
1.157160848058607
 20
0.2902196313617016
 30
0.0
 11
1.123337318646842
 21
0.241541746746317
 31
0.0
  0
LINE
  5
11E
330
A
100
AcDbEntity
  8
0
  6
solid
 62
     7
100
AcDbLine
 10
1.123337318646842
 20
0.241541746746317
 30
0.0
 11
1.154464769627234
 21
0.241541746746317
 31
0.0
  0
LINE
  5
11F
330
A
100
AcDbEntity
  8
0
  6
solid
 62
     7
100
AcDbLine
 10
1.154464769627234
 20
0.241541746746317
 30
0.0
 11
1.154464769627234
 21
0.2631763621309324
 31
0.0
  0
LINE
  5
120
330
A
100
AcDbEntity
  8
0
  6
solid
 62
     7
100
AcDbLine
 10
1.154464769627234
 20
0.2631763621309324
 30
0.0
 11
1.166719671588019
 21
0.2631763621309324
 31
0.0
  0
LINE
  5
121
330
A
100
AcDbEntity
  8
0
  6
solid
 62
     7
100
AcDbLine
 10
1.166719671588019
 20
0.2631763621309324
 30
0.0
 11
1.166719671588019
 21
0.2253157852078554
 31
0.0
  0
LINE
  5
122
330
A
100
AcDbEntity
  8
0
  6
solid
 62
     7
100
AcDbLine
 10
1.166719671588019
 20
0.2253157852078554
 30
0.0
 11
1.106915750019391
 21
0.2253157852078554
 31
0.0
  0
LINE
  5
123
330
A
100
AcDbEntity
  8
0
  6
solid
 62
     7
100
AcDbLine
 10
1.179219671588019
 20
0.2529600159770862
 30
0.0
 11
1.241719671588019
 21
0.2529600159770862
 31
0.0
  0
LINE
  5
124
330
A
100
AcDbEntity
  8
0
  6
solid
 62
     7
100
AcDbLine
 10
1.241719671588019
 20
0.2529600159770862
 30
0.0
 11
1.241719671588019
 21
0.2794023236693939
 31
0.0
  0
LINE
  5
125
330
A
100
AcDbEntity
  8
0
  6
solid
 62
     7
100
AcDbLine
 10
1.241719671588019
 20
0.2794023236693939
 30
0.0
 11
1.179219671588019
 21
0.2794023236693939
 31
0.0
  0
LINE
  5
126
330
A
100
AcDbEntity
  8
0
  6
solid
 62
     7
100
AcDbLine
 10
1.179219671588019
 20
0.2794023236693939
 30
0.0
 11
1.179219671588019
 21
0.2529600159770862
 31
0.0
  0
LINE
  5
127
330
A
100
AcDbEntity
  8
0
  6
solid
 62
     7
100
AcDbLine
 10
1.262798102960568
 20
0.2253157852078554
 30
0.0
 11
1.262798102960568
 21
0.241541746746317
 31
0.0
  0
LINE
  5
128
330
A
100
AcDbEntity
  8
0
  6
solid
 62
     7
100
AcDbLine
 10
1.262798102960568
 20
0.241541746746317
 30
0.0
 11
1.27627849511743
 21
0.241541746746317
 31
0.0
  0
LINE
  5
129
330
A
100
AcDbEntity
  8
0
  6
solid
 62
     7
100
AcDbLine
 10
1.27627849511743
 20
0.241541746746317
 30
0.0
 11
1.27627849511743
 21
0.3340898236693939
 31
0.0
  0
LINE
  5
12A
330
A
100
AcDbEntity
  8
0
  6
solid
 62
     7
100
AcDbLine
 10
1.27627849511743
 20
0.3340898236693939
 30
0.0
 11
1.26206280884292
 21
0.3340898236693939
 31
0.0
  0
LINE
  5
12B
330
A
100
AcDbEntity
  8
0
  6
solid
 62
     7
100
AcDbLine
 10
1.26206280884292
 20
0.3340898236693939
 30
0.0
 11
1.26206280884292
 21
0.3503157852078554
 31
0.0
  0
LINE
  5
12C
330
A
100
AcDbEntity
  8
0
  6
solid
 62
     7
100
AcDbLine
 10
1.26206280884292
 20
0.3503157852078554
 30
0.0
 11
1.29392555394096
 21
0.3503157852078554
 31
0.0
  0
LINE
  5
12D
330
A
100
AcDbEntity
  8
0
  6
solid
 62
     7
100
AcDbLine
 10
1.29392555394096
 20
0.3503157852078554
 30
0.0
 11
1.29392555394096
 21
0.241541746746317
 31
0.0
  0
LINE
  5
12E
330
A
100
AcDbEntity
  8
0
  6
solid
 62
     7
100
AcDbLine
 10
1.29392555394096
 20
0.241541746746317
 30
0.0
 11
1.308876534333117
 21
0.241541746746317
 31
0.0
  0
LINE
  5
12F
330
A
100
AcDbEntity
  8
0
  6
solid
 62
     7
100
AcDbLine
 10
1.308876534333117
 20
0.241541746746317
 30
0.0
 11
1.308876534333117
 21
0.2253157852078554
 31
0.0
  0
LINE
  5
130
330
A
100
AcDbEntity
  8
0
  6
solid
 62
     7
100
AcDbLine
 10
1.308876534333117
 20
0.2253157852078554
 30
0.0
 11
1.262798102960568
 21
0.2253157852078554
 31
0.0
  0
LINE
  5
131
330
A
100
AcDbEntity
  8
0
  6
solid
 62
     7
100
AcDbLine
 10
1.391719671588019
 20
0.3503157852078554
 30
0.0
 11
1.33877849511743
 21
0.2253157852078554
 31
0.0
  0
LINE
  5
132
330
A
100
AcDbEntity
  8
0
  6
solid
 62
     7
100
AcDbLine
 10
1.33877849511743
 20
0.2253157852078554
 30
0.0
 11
1.329219671588019
 21
0.2253157852078554
 31
0.0
  0
LINE
  5
133
330
A
100
AcDbEntity
  8
0
  6
solid
 62
     7
100
AcDbLine
 10
1.329219671588019
 20
0.2253157852078554
 30
0.0
 11
1.382160848058607
 21
0.3503157852078554
 31
0.0
  0
LINE
  5
134
330
A
100
AcDbEntity
  8
0
  6
solid
 62
     7
100
AcDbLine
 10
1.382160848058607
 20
0.3503157852078554
 30
0.0
 11
1.391719671588019
 21
0.3503157852078554
 31
0.0
  0
LINE
  5
135
330
A
100
AcDbEntity
  8
0
  6
solid
 62
     7
100
AcDbLine
 10
1.432405946097822
 20
0.2253157852078554
 30
0.0
 11
1.432405946097822
 21
0.241541746746317
 31
0.0
  0
LINE
  5
136
330
A
100
AcDbEntity
  8
0
  6
solid
 62
     7
100
AcDbLine
 10
1.432405946097822
 20
0.241541746746317
 30
0.0
 11
1.442945161784097
 21
0.241541746746317
 31
0.0
  0
LINE
  5
137
330
A
100
AcDbEntity
  8
0
  6
solid
 62
     7
100
AcDbLine
 10
1.442945161784097
 20
0.241541746746317
 30
0.0
 11
1.442945161784097
 21
0.2559648236693939
 31
0.0
  0
LINE
  5
138
330
A
100
AcDbEntity
  8
0
  6
solid
 62
     7
100
AcDbLine
 10
1.442945161784097
 20
0.2559648236693939
 30
0.0
 11
1.404219671588018
 21
0.2559648236693939
 31
0.0
  0
LINE
  5
139
330
A
100
AcDbEntity
  8
0
  6
solid
 62
     7
100
AcDbLine
 10
1.404219671588018
 20
0.2559648236693939
 30
0.0
 11
1.404219671588018
 21
0.2715898236693939
 31
0.0
  0
LINE
  5
13A
330
A
100
AcDbEntity
  8
0
  6
solid
 62
     7
100
AcDbLine
 10
1.404219671588018
 20
0.2715898236693939
 30
0.0
 11
1.442945161784097
 21
0.3503157852078554
 31
0.0
  0
LINE
  5
13B
330
A
100
AcDbEntity
  8
0
  6
solid
 62
     7
100
AcDbLine
 10
1.442945161784097
 20
0.3503157852078554
 30
0.0
 11
1.455690259823313
 21
0.3503157852078554
 31
0.0
  0
LINE
  5
13C
330
A
100
AcDbEntity
  8
0
  6
solid
 62
     7
100
AcDbLine
 10
1.455690259823313
 20
0.3503157852078554
 30
0.0
 11
1.455690259823313
 21
0.2721907852078554
 31
0.0
  0
LINE
  5
13D
330
A
100
AcDbEntity
  8
0
  6
solid
 62
     7
100
AcDbLine
 10
1.455690259823313
 20
0.2721907852078554
 30
0.0
 11
1.466719671588018
 21
0.2721907852078554
 31
0.0
  0
LINE
  5
13E
330
A
100
AcDbEntity
  8
0
  6
solid
 62
     7
100
AcDbLine
 10
1.466719671588018
 20
0.2721907852078554
 30
0.0
 11
1.466719671588018
 21
0.2559648236693939
 31
0.0
  0
LINE
  5
13F
330
A
100
AcDbEntity
  8
0
  6
solid
 62
     7
100
AcDbLine
 10
1.466719671588018
 20
0.2559648236693939
 30
0.0
 11
1.455690259823313
 21
0.2559648236693939
 31
0.0
  0
LINE
  5
140
330
A
100
AcDbEntity
  8
0
  6
solid
 62
     7
100
AcDbLine
 10
1.455690259823313
 20
0.2559648236693939
 30
0.0
 11
1.455690259823313
 21
0.241541746746317
 31
0.0
  0
LINE
  5
141
330
A
100
AcDbEntity
  8
0
  6
solid
 62
     7
100
AcDbLine
 10
1.455690259823313
 20
0.241541746746317
 30
0.0
 11
1.466719671588018
 21
0.241541746746317
 31
0.0
  0
LINE
  5
142
330
A
100
AcDbEntity
  8
0
  6
solid
 62
     7
100
AcDbLine
 10
1.466719671588018
 20
0.241541746746317
 30
0.0
 11
1.466719671588018
 21
0.2253157852078554
 31
0.0
  0
LINE
  5
143
330
A
100
AcDbEntity
  8
0
  6
solid
 62
     7
100
AcDbLine
 10
1.466719671588018
 20
0.2253157852078554
 30
0.0
 11
1.432405946097822
 21
0.2253157852078554
 31
0.0
  0
LINE
  5
144
330
A
100
AcDbEntity
  8
0
  6
solid
 62
     7
100
AcDbLine
 10
1.417700063744881
 20
0.2721907852078554
 30
0.0
 11
1.442945161784097
 21
0.3238734775155478
 31
0.0
  0
LINE
  5
145
330
A
100
AcDbEntity
  8
0
  6
solid
 62
     7
100
AcDbLine
 10
1.442945161784097
 20
0.3238734775155478
 30
0.0
 11
1.442945161784097
 21
0.2721907852078554
 31
0.0
  0
LINE
  5
146
330
A
100
AcDbEntity
  8
0
  6
solid
 62
     7
100
AcDbLine
 10
1.442945161784097
 20
0.2721907852078554
 30
0.0
 11
1.417700063744881
 21
0.2721907852078554
 31
0.0
  0
LINE
  5
147
330
A
100
AcDbEntity
  8
0
  6
solid
 62
     7
100
AcDbLine
 10
0.3918228279386712
 20
0.919931856899489
 30
0.0
 11
0.3918228279386712
 21
1.076181856899488
 31
0.0
  0
LINE
  5
148
330
A
100
AcDbEntity
  8
0
  6
solid
 62
     7
100
AcDbLine
 10
0.3918228279386712
 20
1.076181856899488
 30
0.0
 11
0.4212612337357727
 21
1.076181856899488
 31
0.0
  0
LINE
  5
149
330
A
100
AcDbEntity
  8
0
  6
solid
 62
     7
100
AcDbLine
 10
0.4212612337357727
 20
1.076181856899488
 30
0.0
 11
0.4212612337357727
 21
0.9471057699429671
 31
0.0
  0
LINE
  5
14A
330
A
100
AcDbEntity
  8
0
  6
solid
 62
     7
100
AcDbLine
 10
0.4212612337357727
 20
0.9471057699429671
 30
0.0
 11
0.5027829728662075
 21
0.9471057699429671
 31
0.0
  0
LINE
  5
14B
330
A
100
AcDbEntity
  8
0
  6
solid
 62
     7
100
AcDbLine
 10
0.5027829728662075
 20
0.9471057699429671
 30
0.0
 11
0.5027829728662075
 21
0.919931856899489
 31
0.0
  0
LINE
  5
14C
330
A
100
AcDbEntity
  8
0
  6
solid
 62
     7
100
AcDbLine
 10
0.3918228279386712
 20
0.919931856899489
 30
0.0
 11
0.5027829728662075
 21
0.919931856899489
 31
0.0
  0
LINE
  5
14D
330
A
100
AcDbEntity
  8
0
  6
solid
 62
     7
100
AcDbLine
 10
0.6256341322864975
 20
0.9493702626965903
 30
0.0
 11
0.6256341322864975
 21
0.919931856899489
 31
0.0
  0
LINE
  5
14E
330
A
100
AcDbEntity
  8
0
  6
solid
 62
     7
100
AcDbLine
 10
0.6256341322864975
 20
0.919931856899489
 30
0.0
 11
0.523731958373454
 21
0.919931856899489
 31
0.0
  0
SPLINE
  5
14F
330
A
100
AcDbEntity
  8
0
  6
solid
 62
     7
100
AcDbSpline
210
0.0
220
0.0
230
1.0
 70
     8
 71
     2
 72
     7
 73
     4
 74
     0
 42
0.0000000001
 43
0.0000000001
 40
0.0
 40
0.0
 40
0.0
 40
1.0
 40
2.0
 40
2.0
 40
2.0
 10
0.523731958373454
 20
0.919931856899489
 30
0.0
 10
0.5248218134459178
 20
0.9347246105226773
 30
0.0
 10
0.5418710888082366
 20
0.9629572192183296
 30
0.0
 10
0.5656058714169322
 20
0.9857180887835468
 30
0.0
  0
SPLINE
  5
150
330
A
100
AcDbEntity
  8
0
  6
solid
 62
     7
100
AcDbSpline
210
0.0
220
0.0
230
1.0
 70
     8
 71
     2
 72
     6
 73
     3
 74
     0
 42
0.0000000001
 43
0.0000000001
 40
0.0
 40
0.0
 40
0.0
 40
1.0
 40
1.0
 40
1.0
 10
0.5656058714169322
 20
0.9857180887835468
 30
0.0
 10
0.5854761612720047
 20
1.004042726464706
 30
0.0
 10
0.5899355815618598
 20
1.010673885884996
 30
0.0
  0
SPLINE
  5
151
330
A
100
AcDbEntity
  8
0
  6
solid
 62
     7
100
AcDbSpline
210
0.0
220
0.0
230
1.0
 70
     8
 71
     2
 72
     6
 73
     3
 74
     0
 42
0.0000000001
 43
0.0000000001
 40
0.0
 40
0.0
 40
0.0
 40
1.0
 40
1.0
 40
1.0
 10
0.5899355815618598
 20
1.010673885884996
 30
0.0
 10
0.596195726489396
 20
1.019755045305286
 30
0.0
 10
0.596195726489396
 20
1.028673885884996
 30
0.0
  0
SPLINE
  5
152
330
A
100
AcDbEntity
  8
0
  6
solid
 62
     7
100
AcDbSpline
210
0.0
220
0.0
230
1.0
 70
     8
 71
     2
 72
     7
 73
     4
 74
     0
 42
0.0000000001
 43
0.0000000001
 40
0.0
 40
0.0
 40
0.0
 40
1.0
 40
2.0
 40
2.0
 40
2.0
 10
0.596195726489396
 20
1.028673885884996
 30
0.0
 10
0.596195726489396
 20
1.038218813421228
 30
0.0
 10
0.5853834076488163
 20
1.04900794385601
 30
0.0
 10
0.5761631177937439
 20
1.04900794385601
 30
0.0
  0
SPLINE
  5
153
330
A
100
AcDbEntity
  8
0
  6
solid
 62
     7
100
AcDbSpline
210
0.0
220
0.0
230
1.0
 70
     8
 71
     2
 72
     7
 73
     4
 74
     0
 42
0.0000000001
 43
0.0000000001
 40
0.0
 40
0.0
 40
0.0
 40
1.0
 40
2.0
 40
2.0
 40
2.0
 10
0.5761631177937439
 20
1.04900794385601
 30
0.0
 10
0.5670123931560627
 20
1.04900794385601
 30
0.0
 10
0.5559913786633091
 20
1.038242001827025
 30
0.0
 10
0.5554348569241787
 20
1.026363016319778
 30
0.0
  0
LINE
  5
154
330
A
100
AcDbEntity
  8
0
  6
solid
 62
     7
100
AcDbLine
 10
0.5554348569241787
 20
1.026363016319778
 30
0.0
 11
0.5259964511270772
 21
1.028952146754561
 31
0.0
  0
SPLINE
  5
155
330
A
100
AcDbEntity
  8
0
  6
solid
 62
     7
100
AcDbSpline
210
0.0
220
0.0
230
1.0
 70
     8
 71
     2
 72
     7
 73
     4
 74
     0
 42
0.0000000001
 43
0.0000000001
 40
0.0
 40
0.0
 40
0.0
 40
1.0
 40
2.0
 40
2.0
 40
2.0
 10
0.5259964511270772
 20
1.028952146754561
 30
0.0
 10
0.5284928279386714
 20
1.054023885884996
 30
0.0
 10
0.5559681902575119
 20
1.076181856899488
 30
0.0
 10
0.5765805090980917
 20
1.076181856899488
 30
0.0
  0
SPLINE
  5
156
330
A
100
AcDbEntity
  8
0
  6
solid
 62
     7
100
AcDbSpline
210
0.0
220
0.0
230
1.0
 70
     8
 71
     2
 72
     7
 73
     4
 74
     0
 42
0.0000000001
 43
0.0000000001
 40
0.0
 40
0.0
 40
0.0
 40
1.0
 40
2.0
 40
2.0
 40
2.0
 10
0.5765805090980917
 20
1.076181856899488
 30
0.0
 10
0.5992486250401207
 20
1.076181856899488
 30
0.0
 10
0.6256341322864975
 20
1.051527509073401
 30
0.0
 10
0.6256341322864975
 20
1.033365190232822
 30
0.0
  0
SPLINE
  5
157
330
A
100
AcDbEntity
  8
0
  6
solid
 62
     7
100
AcDbSpline
210
0.0
220
0.0
230
1.0
 70
     8
 71
     2
 72
     7
 73
     4
 74
     0
 42
0.0000000001
 43
0.0000000001
 40
0.0
 40
0.0
 40
0.0
 40
1.0
 40
2.0
 40
2.0
 40
2.0
 10
0.6256341322864975
 20
1.033365190232822
 30
0.0
 10
0.6256341322864975
 20
1.022668813421228
 30
0.0
 10
0.6178051467792511
 20
1.004135480087894
 30
0.0
 10
0.6103392047502656
 20
0.9935086684936919
 30
0.0
  0
SPLINE
  5
158
330
A
100
AcDbEntity
  8
0
  6
solid
 62
     7
100
AcDbSpline
210
0.0
220
0.0
230
1.0
 70
     8
 71
     2
 72
     8
 73
     5
 74
     0
 42
0.0000000001
 43
0.0000000001
 40
0.0
 40
0.0
 40
0.0
 40
1.0
 40
2.0
 40
3.0
 40
3.0
 40
3.0
 10
0.6103392047502656
 20
0.9935086684936919
 30
0.0
 10
0.6053928279386714
 20
0.9866920018270251
 30
0.0
 10
0.5768355815618599
 20
0.9613651902328223
 30
0.0
 10
0.569763842431425
 20
0.9527477989284744
 30
0.0
 10
0.5675225380835989
 20
0.9493702626965903
 30
0.0
  0
LINE
  5
159
330
A
100
AcDbEntity
  8
0
  6
solid
 62
     7
100
AcDbLine
 10
0.6256341322864975
 20
0.9493702626965903
 30
0.0
 11
0.5675225380835989
 21
0.9493702626965903
 31
0.0
  0
LINE
  5
15A
330
A
100
AcDbEntity
  8
0
  6
solid
 62
     7
100
AcDbLine
 10
0.6420541322864974
 20
0.9638383786386194
 30
0.0
 11
0.6692280453299757
 21
0.9674862047255759
 31
0.0
  0
SPLINE
  5
15B
330
A
100
AcDbEntity
  8
0
  6
solid
 62
     7
100
AcDbSpline
210
0.0
220
0.0
230
1.0
 70
     8
 71
     2
 72
     7
 73
     4
 74
     0
 42
0.0000000001
 43
0.0000000001
 40
0.0
 40
0.0
 40
0.0
 40
1.0
 40
2.0
 40
2.0
 40
2.0
 10
0.6692280453299757
 20
0.9674862047255759
 30
0.0
 10
0.6701323931560627
 20
0.9567434511023876
 30
0.0
 10
0.6836265960546133
 20
0.944841277189344
 30
0.0
 10
0.6924990598227293
 20
0.944841277189344
 30
0.0
  0
SPLINE
  5
15C
330
A
100
AcDbEntity
  8
0
  6
solid
 62
     7
100
AcDbSpline
210
0.0
220
0.0
230
1.0
 70
     8
 71
     2
 72
     7
 73
     4
 74
     0
 42
0.0000000001
 43
0.0000000001
 40
0.0
 40
0.0
 40
0.0
 40
1.0
 40
2.0
 40
2.0
 40
2.0
 10
0.6924990598227293
 20
0.944841277189344
 30
0.0
 10
0.7022063061995408
 20
0.944841277189344
 30
0.0
 10
0.7167823931560627
 20
0.9575086684936918
 30
0.0
 10
0.7167823931560627
 20
0.9710028713922426
 30
0.0
  0
SPLINE
  5
15D
330
A
100
AcDbEntity
  8
0
  6
solid
 62
     7
100
AcDbSpline
210
0.0
220
0.0
230
1.0
 70
     8
 71
     2
 72
     7
 73
     4
 74
     0
 42
0.0000000001
 43
0.0000000001
 40
0.0
 40
0.0
 40
0.0
 40
1.0
 40
2.0
 40
2.0
 40
2.0
 10
0.7167823931560627
 20
0.9710028713922426
 30
0.0
 10
0.7167823931560627
 20
0.9839637409574599
 30
0.0
 10
0.7036592047502656
 20
0.9969246105226774
 30
0.0
 10
0.6929628279386714
 20
0.9969246105226774
 30
0.0
  0
SPLINE
  5
15E
330
A
100
AcDbEntity
  8
0
  6
solid
 62
     7
100
AcDbSpline
210
0.0
220
0.0
230
1.0
 70
     8
 71
     2
 72
     6
 73
     3
 74
     0
 42
0.0000000001
 43
0.0000000001
 40
0.0
 40
0.0
 40
0.0
 40
1.0
 40
1.0
 40
1.0
 10
0.6929628279386714
 20
0.9969246105226774
 30
0.0
 10
0.6806200743154829
 20
0.9969246105226774
 30
0.0
 10
0.6700164511270771
 20
0.9856021467545614
 30
0.0
  0
LINE
  5
15F
330
A
100
AcDbEntity
  8
0
  6
solid
 62
     7
100
AcDbLine
 10
0.6700164511270771
 20
0.9856021467545614
 30
0.0
 11
0.6443186250401207
 21
0.9886782337110831
 31
0.0
  0
LINE
  5
160
330
A
100
AcDbEntity
  8
0
  6
solid
 62
     7
100
AcDbLine
 10
0.6443186250401207
 20
0.9886782337110831
 30
0.0
 11
0.6624345670691061
 21
1.073917364145865
 31
0.0
  0
LINE
  5
161
330
A
100
AcDbEntity
  8
0
  6
solid
 62
     7
100
AcDbLine
 10
0.6624345670691061
 20
1.073917364145865
 30
0.0
 11
0.7394273206922946
 21
1.073917364145865
 31
0.0
  0
LINE
  5
162
330
A
100
AcDbEntity
  8
0
  6
solid
 62
     7
100
AcDbLine
 10
0.7394273206922946
 20
1.073917364145865
 30
0.0
 11
0.7394273206922946
 21
1.044478958348764
 31
0.0
  0
LINE
  5
163
330
A
100
AcDbEntity
  8
0
  6
solid
 62
     7
100
AcDbLine
 10
0.7394273206922946
 20
1.044478958348764
 30
0.0
 11
0.6856592047502656
 21
1.044478958348764
 31
0.0
  0
LINE
  5
164
330
A
100
AcDbEntity
  8
0
  6
solid
 62
     7
100
AcDbLine
 10
0.6856592047502656
 20
1.044478958348764
 30
0.0
 11
0.6795150018517148
 21
1.017931132261807
 31
0.0
  0
SPLINE
  5
165
330
A
100
AcDbEntity
  8
0
  6
solid
 62
     7
100
AcDbSpline
210
0.0
220
0.0
230
1.0
 70
     8
 71
     2
 72
     6
 73
     3
 74
     0
 42
0.0000000001
 43
0.0000000001
 40
0.0
 40
0.0
 40
0.0
 40
1.0
 40
1.0
 40
1.0
 10
0.6795150018517148
 20
1.017931132261807
 30
0.0
 10
0.6897939873589612
 20
1.024098523566155
 30
0.0
 10
0.6995476105473669
 20
1.024098523566155
 30
0.0
  0
SPLINE
  5
166
330
A
100
AcDbEntity
  8
0
  6
solid
 62
     7
100
AcDbSpline
210
0.0
220
0.0
230
1.0
 70
     8
 71
     2
 72
     7
 73
     4
 74
     0
 42
0.0000000001
 43
0.0000000001
 40
0.0
 40
0.0
 40
0.0
 40
1.0
 40
2.0
 40
2.0
 40
2.0
 10
0.6995476105473669
 20
1.024098523566155
 30
0.0
 10
0.7192323931560626
 20
1.024098523566155
 30
0.0
 10
0.7462207989531641
 20
0.995100697479199
 30
0.0
 10
0.7462207989531641
 20
0.9722470742907933
 30
0.0
  0
SPLINE
  5
167
330
A
100
AcDbEntity
  8
0
  6
solid
 62
     7
100
AcDbSpline
210
0.0
220
0.0
230
1.0
 70
     8
 71
     2
 72
     6
 73
     3
 74
     0
 42
0.0000000001
 43
0.0000000001
 40
0.0
 40
0.0
 40
0.0
 40
1.0
 40
1.0
 40
1.0
 10
0.7462207989531641
 20
0.9722470742907933
 30
0.0
 10
0.7462207989531641
 20
0.9526782337110832
 30
0.0
 10
0.7350374656198308
 20
0.9381405525516628
 30
0.0
  0
SPLINE
  5
168
330
A
100
AcDbEntity
  8
0
  6
solid
 62
     7
100
AcDbSpline
210
0.0
220
0.0
230
1.0
 70
     8
 71
     2
 72
     6
 73
     3
 74
     0
 42
0.0000000001
 43
0.0000000001
 40
0.0
 40
0.0
 40
0.0
 40
1.0
 40
1.0
 40
1.0
 10
0.7350374656198308
 20
0.9381405525516628
 30
0.0
 10
0.7196961612720047
 20
0.9176673641458657
 30
0.0
 10
0.6927309438807004
 20
0.9176673641458657
 30
0.0
  0
SPLINE
  5
169
330
A
100
AcDbEntity
  8
0
  6
solid
 62
     7
100
AcDbSpline
210
0.0
220
0.0
230
1.0
 70
     8
 71
     2
 72
     7
 73
     4
 74
     0
 42
0.0000000001
 43
0.0000000001
 40
0.0
 40
0.0
 40
0.0
 40
1.0
 40
2.0
 40
2.0
 40
2.0
 10
0.6927309438807004
 20
0.9176673641458657
 30
0.0
 10
0.6716548569241786
 20
0.9176673641458657
 30
0.0
 10
0.6445736975038887
 20
0.9428318568994889
 30
0.0
 10
0.6420541322864974
 20
0.9638383786386194
 30
0.0
  0
LINE
  5
16A
330
A
100
AcDbEntity
  8
0
  6
solid
 62
     7
100
AcDbLine
 10
0.8645429728662076
 20
1.033852146754561
 30
0.0
 11
0.835104567069106
 21
1.030892001827025
 31
0.0
  0
SPLINE
  5
16B
330
A
100
AcDbEntity
  8
0
  6
solid
 62
     7
100
AcDbSpline
210
0.0
220
0.0
230
1.0
 70
     8
 71
     2
 72
     7
 73
     4
 74
     0
 42
0.0000000001
 43
0.0000000001
 40
0.0
 40
0.0
 40
0.0
 40
1.0
 40
2.0
 40
2.0
 40
2.0
 10
0.835104567069106
 20
1.030892001827025
 30
0.0
 10
0.8336052917067872
 20
1.0400891032763
 30
0.0
 10
0.8243850018517148
 20
1.04900794385601
 30
0.0
 10
0.8171973206922945
 20
1.04900794385601
 30
0.0
  0
SPLINE
  5
16C
330
A
100
AcDbEntity
  8
0
  6
solid
 62
     7
100
AcDbSpline
210
0.0
220
0.0
230
1.0
 70
     8
 71
     2
 72
     7
 73
     4
 74
     0
 42
0.0000000001
 43
0.0000000001
 40
0.0
 40
0.0
 40
0.0
 40
1.0
 40
2.0
 40
2.0
 40
2.0
 10
0.8171973206922945
 20
1.04900794385601
 30
0.0
 10
0.8068487699676568
 20
1.04900794385601
 30
0.0
 10
0.7932618134459178
 20
1.031263016319778
 30
0.0
 10
0.7921023931560627
 20
1.003996349653112
 30
0.0
  0
SPLINE
  5
16D
330
A
100
AcDbEntity
  8
0
  6
solid
 62
     7
100
AcDbSpline
210
0.0
220
0.0
230
1.0
 70
     8
 71
     2
 72
     6
 73
     3
 74
     0
 42
0.0000000001
 43
0.0000000001
 40
0.0
 40
0.0
 40
0.0
 40
1.0
 40
1.0
 40
1.0
 10
0.7921023931560627
 20
1.003996349653112
 30
0.0
 10
0.8034712337357728
 20
1.017305045305286
 30
0.0
 10
0.8200415235908453
 20
1.017305045305286
 30
0.0
  0
SPLINE
  5
16E
330
A
100
AcDbEntity
  8
0
  6
solid
 62
     7
100
AcDbSpline
210
0.0
220
0.0
230
1.0
 70
     8
 71
     2
 72
     7
 73
     4
 74
     0
 42
0.0000000001
 43
0.0000000001
 40
0.0
 40
0.0
 40
0.0
 40
1.0
 40
2.0
 40
2.0
 40
2.0
 10
0.8200415235908453
 20
1.017305045305286
 30
0.0
 10
0.8388067409821495
 20
1.017305045305286
 30
0.0
 10
0.8668074656198307
 20
0.9892579438560106
 30
0.0
 10
0.8668074656198307
 20
0.9680427264647063
 30
0.0
  0
SPLINE
  5
16F
330
A
100
AcDbEntity
  8
0
  6
solid
 62
     7
100
AcDbSpline
210
0.0
220
0.0
230
1.0
 70
     8
 71
     2
 72
     7
 73
     4
 74
     0
 42
0.0000000001
 43
0.0000000001
 40
0.0
 40
0.0
 40
0.0
 40
1.0
 40
2.0
 40
2.0
 40
2.0
 10
0.8668074656198307
 20
0.9680427264647063
 30
0.0
 10
0.8668074656198307
 20
0.9452122916820975
 30
0.0
 10
0.8386444221415699
 20
0.9176673641458657
 30
0.0
 10
0.8174987699676568
 20
0.9176673641458657
 30
0.0
  0
SPLINE
  5
170
330
A
100
AcDbEntity
  8
0
  6
solid
 62
     7
100
AcDbSpline
210
0.0
220
0.0
230
1.0
 70
     8
 71
     2
 72
     7
 73
     4
 74
     0
 42
0.0000000001
 43
0.0000000001
 40
0.0
 40
0.0
 40
0.0
 40
1.0
 40
2.0
 40
2.0
 40
2.0
 10
0.8174987699676568
 20
0.9176673641458657
 30
0.0
 10
0.7945523931560627
 20
0.9176673641458657
 30
0.0
 10
0.7649052917067874
 20
0.9540847554502136
 30
0.0
 10
0.7649052917067874
 20
0.9954253351603586
 30
0.0
  0
SPLINE
  5
171
330
A
100
AcDbEntity
  8
0
  6
solid
 62
     7
100
AcDbSpline
210
0.0
220
0.0
230
1.0
 70
     8
 71
     2
 72
     7
 73
     4
 74
     0
 42
0.0000000001
 43
0.0000000001
 40
0.0
 40
0.0
 40
0.0
 40
1.0
 40
2.0
 40
2.0
 40
2.0
 10
0.7649052917067874
 20
0.9954253351603586
 30
0.0
 10
0.7649052917067874
 20
1.038218813421228
 30
0.0
 10
0.7954799293879468
 20
1.076181856899488
 30
0.0
 10
0.8203893496778016
 20
1.076181856899488
 30
0.0
  0
SPLINE
  5
172
330
A
100
AcDbEntity
  8
0
  6
solid
 62
     7
100
AcDbSpline
210
0.0
220
0.0
230
1.0
 70
     8
 71
     2
 72
     7
 73
     4
 74
     0
 42
0.0000000001
 43
0.0000000001
 40
0.0
 40
0.0
 40
0.0
 40
1.0
 40
2.0
 40
2.0
 40
2.0
 10
0.8203893496778016
 20
1.076181856899488
 30
0.0
 10
0.8380879004024395
 20
1.076181856899488
 30
0.0
 10
0.8609183351850482
 20
1.054278958348764
 30
0.0
 10
0.8645429728662076
 20
1.033852146754561
 30
0.0
  0
SPLINE
  5
173
330
A
100
AcDbEntity
  8
0
  6
solid
 62
     7
100
AcDbSpline
210
0.0
220
0.0
230
1.0
 70
     8
 71
     2
 72
     7
 73
     4
 74
     0
 42
0.0000000001
 43
0.0000000001
 40
0.0
 40
0.0
 40
0.0
 40
1.0
 40
2.0
 40
2.0
 40
2.0
 10
0.7943436975038888
 20
0.9684601177690542
 30
0.0
 10
0.7943436975038888
 20
0.9569753351603583
 30
0.0
 10
0.8081625380835987
 20
0.944841277189344
 30
0.0
 10
0.8171509438807003
 20
0.944841277189344
 30
0.0
  0
SPLINE
  5
174
330
A
100
AcDbEntity
  8
0
  6
solid
 62
     7
100
AcDbSpline
210
0.0
220
0.0
230
1.0
 70
     8
 71
     2
 72
     7
 73
     4
 74
     0
 42
0.0000000001
 43
0.0000000001
 40
0.0
 40
0.0
 40
0.0
 40
1.0
 40
2.0
 40
2.0
 40
2.0
 10
0.8171509438807003
 20
0.944841277189344
 30
0.0
 10
0.8251502192430191
 20
0.944841277189344
 30
0.0
 10
0.8373690598227293
 20
0.9547108424067353
 30
0.0
 10
0.8373690598227293
 20
0.9662883786386194
 30
0.0
  0
SPLINE
  5
175
330
A
100
AcDbEntity
  8
0
  6
solid
 62
     7
100
AcDbSpline
210
0.0
220
0.0
230
1.0
 70
     8
 71
     2
 72
     7
 73
     4
 74
     0
 42
0.0000000001
 43
0.0000000001
 40
0.0
 40
0.0
 40
0.0
 40
1.0
 40
2.0
 40
2.0
 40
2.0
 10
0.8373690598227293
 20
0.9662883786386194
 30
0.0
 10
0.8373690598227293
 20
0.9788782337110831
 30
0.0
 10
0.8245705090980916
 20
0.9901311322618077
 30
0.0
 10
0.8153502192430192
 20
0.9901311322618077
 30
0.0
  0
SPLINE
  5
176
330
A
100
AcDbEntity
  8
0
  6
solid
 62
     7
100
AcDbSpline
210
0.0
220
0.0
230
1.0
 70
     8
 71
     2
 72
     7
 73
     4
 74
     0
 42
0.0000000001
 43
0.0000000001
 40
0.0
 40
0.0
 40
0.0
 40
1.0
 40
2.0
 40
2.0
 40
2.0
 10
0.8153502192430192
 20
0.9901311322618077
 30
0.0
 10
0.8063618134459177
 20
0.9901311322618077
 30
0.0
 10
0.7943436975038888
 20
0.9792028713922425
 30
0.0
 10
0.7943436975038888
 20
0.9684601177690542
 30
0.0
  0
LINE
  5
177
330
A
100
AcDbEntity
  8
0
  6
solid
 62
     7
100
AcDbLine
 10
0.8854919583734538
 20
1.076181856899488
 30
0.0
 11
0.9479318134459177
 21
1.076181856899488
 31
0.0
  0
SPLINE
  5
178
330
A
100
AcDbEntity
  8
0
  6
solid
 62
     7
100
AcDbSpline
210
0.0
220
0.0
230
1.0
 70
     8
 71
     2
 72
     9
 73
     6
 74
     0
 42
0.0000000001
 43
0.0000000001
 40
0.0
 40
0.0
 40
0.0
 40
1.0
 40
2.0
 40
3.0
 40
4.0
 40
4.0
 40
4.0
 10
0.9479318134459177
 20
1.076181856899488
 30
0.0
 10
0.9672455815618597
 20
1.076181856899488
 30
0.0
 10
0.9855702192430191
 20
1.072557219218329
 30
0.0
 10
0.9997832627212799
 20
1.062849972841517
 30
0.0
 10
1.010039059822729
 20
1.045661567044416
 30
0.0
 10
1.010039059822729
 20
1.035745625015431
 30
0.0
  0
SPLINE
  5
179
330
A
100
AcDbEntity
  8
0
  6
solid
 62
     7
100
AcDbSpline
210
0.0
220
0.0
230
1.0
 70
     8
 71
     2
 72
     7
 73
     4
 74
     0
 42
0.0000000001
 43
0.0000000001
 40
0.0
 40
0.0
 40
0.0
 40
1.0
 40
2.0
 40
2.0
 40
2.0
 10
1.010039059822729
 20
1.035745625015431
 30
0.0
 10
1.010039059822729
 20
1.024469538058909
 30
0.0
 10
0.9991107989531641
 20
1.005155769942967
 30
0.0
 10
0.9899600743154829
 20
1.000510842406735
 30
0.0
  0
SPLINE
  5
17A
330
A
100
AcDbEntity
  8
0
  6
solid
 62
     7
100
AcDbSpline
210
0.0
220
0.0
230
1.0
 70
     8
 71
     2
 72
     7
 73
     4
 74
     0
 42
0.0000000001
 43
0.0000000001
 40
0.0
 40
0.0
 40
0.0
 40
1.0
 40
2.0
 40
2.0
 40
2.0
 10
0.9899600743154829
 20
1.000510842406735
 30
0.0
 10
1.002302827938671
 20
0.9970637409574599
 30
0.0
 10
1.016832538083598
 20
0.9771934511023875
 30
0.0
 10
1.016832538083598
 20
0.9638151902328221
 30
0.0
  0
SPLINE
  5
17B
330
A
100
AcDbEntity
  8
0
  6
solid
 62
     7
100
AcDbSpline
210
0.0
220
0.0
230
1.0
 70
     8
 71
     2
 72
     8
 73
     5
 74
     0
 42
0.0000000001
 43
0.0000000001
 40
0.0
 40
0.0
 40
0.0
 40
1.0
 40
2.0
 40
3.0
 40
3.0
 40
3.0
 10
1.016832538083598
 20
0.9638151902328221
 30
0.0
 10
1.016832538083598
 20
0.953072436609634
 30
0.0
 10
1.006414422141569
 20
0.9339130163197788
 30
0.0
 10
0.9896586250401206
 20
0.9222891032763005
 30
0.0
 10
0.9767209438807002
 20
0.9206043206676049
 30
0.0
  0
SPLINE
  5
17C
330
A
100
AcDbEntity
  8
0
  6
solid
 62
     7
100
AcDbSpline
210
0.0
220
0.0
230
1.0
 70
     8
 71
     2
 72
     6
 73
     3
 74
     0
 42
0.0000000001
 43
0.0000000001
 40
0.0
 40
0.0
 40
0.0
 40
1.0
 40
1.0
 40
1.0
 10
0.9767209438807002
 20
0.9206043206676049
 30
0.0
 10
0.9684050018517147
 20
0.9200709873342717
 30
0.0
 10
0.938410074315483
 20
0.919931856899489
 30
0.0
  0
LINE
  5
17D
330
A
100
AcDbEntity
  8
0
  6
solid
 62
     7
100
AcDbLine
 10
0.938410074315483
 20
0.919931856899489
 30
0.0
 11
0.8854919583734538
 21
0.919931856899489
 31
0.0
  0
LINE
  5
17E
330
A
100
AcDbEntity
  8
0
  6
solid
 62
     7
100
AcDbLine
 10
0.8854919583734538
 20
1.076181856899488
 30
0.0
 11
0.8854919583734538
 21
0.919931856899489
 31
0.0
  0
LINE
  5
17F
330
A
100
AcDbEntity
  8
0
  6
solid
 62
     7
100
AcDbLine
 10
0.9149303641705554
 20
1.04900794385601
 30
0.0
 11
0.9149303641705554
 21
1.012776059798039
 31
0.0
  0
LINE
  5
180
330
A
100
AcDbEntity
  8
0
  6
solid
 62
     7
100
AcDbLine
 10
0.9149303641705554
 20
1.012776059798039
 30
0.0
 11
0.9365397844604105
 21
1.012776059798039
 31
0.0
  0
SPLINE
  5
181
330
A
100
AcDbEntity
  8
0
  6
solid
 62
     7
100
AcDbSpline
210
0.0
220
0.0
230
1.0
 70
     8
 71
     2
 72
     6
 73
     3
 74
     0
 42
0.0000000001
 43
0.0000000001
 40
0.0
 40
0.0
 40
0.0
 40
1.0
 40
1.0
 40
1.0
 10
0.9365397844604105
 20
1.012776059798039
 30
0.0
 10
0.9565955815618597
 20
1.012776059798039
 30
0.0
 10
0.9613100743154829
 20
1.013123885884996
 30
0.0
  0
SPLINE
  5
182
330
A
100
AcDbEntity
  8
0
  6
solid
 62
     7
100
AcDbSpline
210
0.0
220
0.0
230
1.0
 70
     8
 71
     2
 72
     7
 73
     4
 74
     0
 42
0.0000000001
 43
0.0000000001
 40
0.0
 40
0.0
 40
0.0
 40
1.0
 40
2.0
 40
2.0
 40
2.0
 10
0.9613100743154829
 20
1.013123885884996
 30
0.0
 10
0.9701593496778018
 20
1.013749972841518
 30
0.0
 10
0.9806006540256278
 20
1.02297026269659
 30
0.0
 10
0.9806006540256278
 20
1.031077509073401
 30
0.0
  0
SPLINE
  5
183
330
A
100
AcDbEntity
  8
0
  6
solid
 62
     7
100
AcDbSpline
210
0.0
220
0.0
230
1.0
 70
     8
 71
     2
 72
     7
 73
     4
 74
     0
 42
0.0000000001
 43
0.0000000001
 40
0.0
 40
0.0
 40
0.0
 40
1.0
 40
2.0
 40
2.0
 40
2.0
 10
0.9806006540256278
 20
1.031077509073401
 30
0.0
 10
0.9806006540256278
 20
1.038172436609633
 30
0.0
 10
0.9718441322864974
 20
1.047253596029923
 30
0.0
 10
0.9631571757647582
 20
1.047879682986445
 30
0.0
  0
SPLINE
  5
184
330
A
100
AcDbEntity
  8
0
  6
solid
 62
     7
100
AcDbSpline
210
0.0
220
0.0
230
1.0
 70
     8
 71
     2
 72
     6
 73
     3
 74
     0
 42
0.0000000001
 43
0.0000000001
 40
0.0
 40
0.0
 40
0.0
 40
1.0
 40
1.0
 40
1.0
 10
0.9631571757647582
 20
1.047879682986445
 30
0.0
 10
0.9582803641705554
 20
1.04900794385601
 30
0.0
 10
0.933973842431425
 20
1.04900794385601
 30
0.0
  0
LINE
  5
185
330
A
100
AcDbEntity
  8
0
  6
solid
 62
     7
100
AcDbLine
 10
0.9149303641705554
 20
1.04900794385601
 30
0.0
 11
0.933973842431425
 21
1.04900794385601
 31
0.0
  0
LINE
  5
186
330
A
100
AcDbEntity
  8
0
  6
solid
 62
     7
100
AcDbLine
 10
0.9149303641705554
 20
0.9856021467545614
 30
0.0
 11
0.9149303641705554
 21
0.9471057699429671
 31
0.0
  0
LINE
  5
187
330
A
100
AcDbEntity
  8
0
  6
solid
 62
     7
100
AcDbLine
 10
0.9149303641705554
 20
0.9471057699429671
 30
0.0
 11
0.94663326272128
 21
0.9471057699429671
 31
0.0
  0
SPLINE
  5
188
330
A
100
AcDbEntity
  8
0
  6
solid
 62
     7
100
AcDbSpline
210
0.0
220
0.0
230
1.0
 70
     8
 71
     2
 72
     6
 73
     3
 74
     0
 42
0.0000000001
 43
0.0000000001
 40
0.0
 40
0.0
 40
0.0
 40
1.0
 40
1.0
 40
1.0
 10
0.94663326272128
 20
0.9471057699429671
 30
0.0
 10
0.9650274656198307
 20
0.9471057699429671
 30
0.0
 10
0.9698579004024395
 20
0.9476854800878948
 30
0.0
  0
SPLINE
  5
189
330
A
100
AcDbEntity
  8
0
  6
solid
 62
     7
100
AcDbSpline
210
0.0
220
0.0
230
1.0
 70
     8
 71
     2
 72
     7
 73
     4
 74
     0
 42
0.0000000001
 43
0.0000000001
 40
0.0
 40
0.0
 40
0.0
 40
1.0
 40
2.0
 40
2.0
 40
2.0
 10
0.9698579004024395
 20
0.9476854800878948
 30
0.0
 10
0.9771847119966423
 20
0.948450697479199
 30
0.0
 10
0.9873941322864974
 20
0.957555045305286
 30
0.0
 10
0.9873941322864974
 20
0.9657086684936919
 30
0.0
  0
SPLINE
  5
18A
330
A
100
AcDbEntity
  8
0
  6
solid
 62
     7
100
AcDbSpline
210
0.0
220
0.0
230
1.0
 70
     8
 71
     2
 72
     8
 73
     5
 74
     0
 42
0.0000000001
 43
0.0000000001
 40
0.0
 40
0.0
 40
0.0
 40
1.0
 40
2.0
 40
3.0
 40
3.0
 40
3.0
 10
0.9873941322864974
 20
0.9657086684936919
 30
0.0
 10
0.9873941322864974
 20
0.9722934511023876
 30
0.0
 10
0.9794260163444684
 20
0.981328233711083
 30
0.0
 10
0.9655607989531642
 20
0.9856021467545614
 30
0.0
 10
0.9424289148951931
 20
0.9856021467545614
 30
0.0
  0
LINE
  5
18B
330
A
100
AcDbEntity
  8
0
  6
solid
 62
     7
100
AcDbLine
 10
0.9149303641705554
 20
0.9856021467545614
 30
0.0
 11
0.9424289148951931
 21
0.9856021467545614
 31
0.0
  0
LINE
  5
1E9
330
A
100
AcDbEntity
  8
0
  6
solid
 62
     7
370
     0
100
AcDbLine
 10
1.630872726440429
 20
0.3795588016509983
 30
0.0
 11
1.630872726440429
 21
0.3795588016509983
 31
0.0
  0
LINE
  5
1EA
330
A
100
AcDbEntity
  8
0
  6
solid
 62
     7
370
     0
100
AcDbLine
 10
1.876785635948181
 20
1.504558801650998
 30
0.0
 11
1.876785635948181
 21
1.504558801650998
 31
0.0
  0
LINE
  5
1EB
330
A
100
AcDbEntity
  8
0
  6
solid
 62
     7
370
     0
100
AcDbLine
 10
-0.5538737965384662
 20
0.3795588016510003
 30
0.0
 11
-0.5538737965384658
 21
0.8221543545356157
 31
0.0
  0
LINE
  5
1EC
330
A
100
AcDbEntity
  8
0
  6
solid
 62
     7
370
     0
100
AcDbLine
 10
-0.5538737965384653
 20
1.504558801651
 30
0.0
 11
-0.5538737965384656
 21
1.061963248766384
 31
0.0
  0
MTEXT
  5
1ED
330
A
100
AcDbEntity
  8
0
  6
solid
 62
     7
370
     0
100
AcDbMText
 10
-0.5538737965384657
 20
0.9420588016510002
 30
0.0
 40
0.09375
 41
0.0
 71
     5
 72
     1
  1
{\H0.093750;1 1/8}
 73
     1
 44
1.0
  0
SOLID
  5
1EE
330
A
100
AcDbEntity
  8
0
  6
solid
 62
     7
370
     0
100
AcDbTrace
 10
-0.5851237965384661
 20
0.4420588016510004
 30
0.0
 11
-0.5226237965384661
 21
0.4420588016510003
 31
0.0
 12
-0.5538737965384662
 22
0.3795588016510003
 32
0.0
 13
-0.5538737965384662
 23
0.3795588016510003
 33
0.0
  0
SOLID
  5
1EF
330
A
100
AcDbEntity
  8
0
  6
solid
 62
     7
370
     0
100
AcDbTrace
 10
-0.5226237965384653
 20
1.442058801651
 30
0.0
 11
-0.5851237965384653
 21
1.442058801651
 31
0.0
 12
-0.5538737965384653
 22
1.504558801651
 32
0.0
 13
-0.5538737965384653
 23
1.504558801651
 33
0.0
  0
LINE
  5
1F2
330
A
100
AcDbEntity
  8
0
  6
solid
 62
     7
370
     0
100
AcDbLine
 10
-3.031007528305053
 20
-2.620441198348999
 30
0.0
 11
-3.031007528305053
 21
-2.620441198348999
 31
0.0
  0
LINE
  5
1F3
330
A
100
AcDbEntity
  8
0
  6
solid
 62
     7
370
     0
100
AcDbLine
 10
-0.7810075879096985
 20
-1.806272506713867
 30
0.0
 11
-0.7810075879096985
 21
-1.806272506713867
 31
0.0
  0
LINE
  5
1F4
330
A
100
AcDbEntity
  8
0
  6
solid
 62
     7
370
     0
100
AcDbLine
 10
-3.031007528305053
 20
0.1523631920852038
 30
0.0
 11
-2.219948218131124
 21
0.1523631920852038
 31
0.0
  0
LINE
  5
1F5
330
A
100
AcDbEntity
  8
0
  6
solid
 62
     7
370
     0
100
AcDbLine
 10
-0.7810075879096985
 20
0.1523631920852038
 30
0.0
 11
-1.597757817985325
 21
0.1523631920852038
 31
0.0
  0
MTEXT
  5
1F6
330
A
100
AcDbEntity
  8
0
  6
solid
 62
     7
370
     0
100
AcDbMText
 10
-1.906007558107375
 20
0.1523631920852038
 30
0.0
 40
0.09375
 41
0.0
 71
     5
 72
     1
  1
{\H0.093750;2 1/4}
 73
     1
 44
1.0
  0
SOLID
  5
1F7
330
A
100
AcDbEntity
  8
0
  6
solid
 62
     7
370
     0
100
AcDbTrace
 10
-2.968507528305053
 20
0.1836131920852038
 30
0.0
 11
-2.968507528305053
 21
0.1211131920852038
 31
0.0
 12
-3.031007528305053
 22
0.1523631920852038
 32
0.0
 13
-3.031007528305053
 23
0.1523631920852038
 33
0.0
  0
SOLID
  5
1F8
330
A
100
AcDbEntity
  8
0
  6
solid
 62
     7
370
     0
100
AcDbTrace
 10
-0.8435075879096984
 20
0.1211131920852038
 30
0.0
 11
-0.8435075879096984
 21
0.1836131920852038
 31
0.0
 12
-0.7810075879096985
 22
0.1523631920852038
 32
0.0
 13
-0.7810075879096985
 23
0.1523631920852038
 33
0.0
  0
VIEWPORT
  5
1A9
330
B
100
AcDbEntity
 67
     1
  8
0
  6
Continuous
370
     0
100
AcDbViewport
 10
5.169387968333035
 20
3.968749971919159
 30
0.0
 40
16.99659283974028
 41
8.992999745766949
 68
     1
 69
     1
 12
5.169387968333035
 22
3.968749971919159
 13
0.0
 23
0.0
 14
0.5
 24
0.5
 15
0.5
 25
0.5
 16
0.0
 26
0.0
 36
1.0
 17
0.0
 27
0.0
 37
0.0
 42
50.0
 43
0.0
 44
0.0
 45
8.992999745766949
 50
0.0
 51
0.0
 72
   100
 90
   819232
  1

281
     0
 71
     1
 74
     0
110
0.0
120
0.0
130
0.0
111
1.0
121
0.0
131
0.0
112
0.0
122
1.0
132
0.0
 79
     0
146
0.0
170
     0
  0
VIEWPORT
  5
1AC
330
B
100
AcDbEntity
 67
     1
  8
0
  6
Continuous
370
     0
100
AcDbViewport
 10
5.098789449762669
 20
4.01283330577309
 30
0.0
 40
10.41328123033391
 41
8.00553313248184
 68
     2
 69
     2
 12
0.1305488122723946
 22
0.6504305892346621
 13
0.0
 23
0.0
 14
0.5
 24
0.5
 15
0.5
 25
0.5
 16
0.0
 26
0.0
 36
1.0
 17
0.0
 27
0.0
 37
0.0
 42
50.0
 43
0.0
 44
0.0
 45
6.282079464416265
 50
0.0
 51
0.0
 72
   100
 90
   819232
  1

281
     0
 71
     1
 74
     0
110
0.0
120
0.0
130
0.0
111
1.0
121
0.0
131
0.0
112
0.0
122
1.0
132
0.0
 79
     0
146
0.0
170
     0
  0
ENDSEC
  0
SECTION
  2
OBJECTS
  0
DICTIONARY
  5
19
330
0
100
AcDbDictionary
281
     1
  3
ACAD_COLOR
350
1A2
  3
ACAD_GROUP
350
1A
  3
ACAD_LAYOUT
350
1E
  3
ACAD_MATERIAL
350
18D
  3
ACAD_MLEADERSTYLE
350
1D2
  3
ACAD_MLINESTYLE
350
1B
  3
ACAD_PLOTSETTINGS
350
22
  3
ACAD_PLOTSTYLENAME
350
1F
  3
ACAD_SCALELIST
350
1B0
  3
ACAD_TABLESTYLE
350
1A3
  3
ACAD_VISUALSTYLE
350
191
  3
ACAD_WIPEOUT_VARS
350
23
  3
ACDB_RECOMPOSE_DATA
350
215
  3
AcDbVariableDictionary
350
1AD
  0
DICTIONARY
  5
1DB
330
14
100
AcDbDictionary
280
     1
281
     1
  3
ADSK_XREC_LAYER_RECONCILED
360
1DC
  0
DICTIONARY
  5
1DD
330
27
100
AcDbDictionary
280
     1
281
     1
  3
ADSK_XREC_LAYER_RECONCILED
360
1DE
  0
DICTIONARY
  5
1DF
330
2B
100
AcDbDictionary
280
     1
281
     1
  3
ADSK_XREC_LAYER_RECONCILED
360
1E0
  0
DICTIONARY
  5
1F0
330
A
100
AcDbDictionary
280
     1
281
     1
  3
ACAD_SORTENTS
360
1F1
  0
DICTIONARY
  5
1A2
102
{ACAD_REACTORS
330
19
102
}
330
19
100
AcDbDictionary
281
     1
  0
DICTIONARY
  5
1A
102
{ACAD_REACTORS
330
19
102
}
330
19
100
AcDbDictionary
281
     1
  0
DICTIONARY
  5
1E
102
{ACAD_REACTORS
330
19
102
}
330
19
100
AcDbDictionary
281
     1
  3
Layout1
350
21
  3
Model
350
20
  0
DICTIONARY
  5
18D
102
{ACAD_REACTORS
330
19
102
}
330
19
100
AcDbDictionary
281
     1
  3
ByBlock
350
18F
  3
ByLayer
350
18E
  3
Global
350
190
  0
DICTIONARY
  5
1D2
102
{ACAD_REACTORS
330
19
102
}
330
19
100
AcDbDictionary
281
     1
  3
Standard
350
1D3
  0
DICTIONARY
  5
1B
102
{ACAD_REACTORS
330
19
102
}
330
19
100
AcDbDictionary
281
     1
  3
Standard
350
1C
  0
DICTIONARY
  5
22
102
{ACAD_REACTORS
330
19
102
}
330
19
100
AcDbDictionary
281
     1
  0
ACDBDICTIONARYWDFLT
  5
1F
102
{ACAD_REACTORS
330
19
102
}
330
19
100
AcDbDictionary
281
     1
  3
Normal
350
1D
100
AcDbDictionaryWithDefault
340
1D
  0
DICTIONARY
  5
1B0
102
{ACAD_REACTORS
330
19
102
}
330
19
100
AcDbDictionary
281
     1
  3
A0
350
1B1
  3
A1
350
1B2
  3
A2
350
1B3
  3
A3
350
1B4
  3
A4
350
1B5
  3
A5
350
1B6
  3
A6
350
1B7
  3
A7
350
1B8
  3
A8
350
1B9
  3
A9
350
1BA
  3
B0
350
1BB
  3
B1
350
1BC
  3
B2
350
1BD
  3
B3
350
1BE
  3
B4
350
1BF
  3
B5
350
1C0
  3
B6
350
1C1
  3
B7
350
1C2
  3
B8
350
1C3
  3
B9
350
1C4
  3
C0
350
1C5
  3
C1
350
1C6
  3
C2
350
1C7
  3
C3
350
1C8
  3
C4
350
1C9
  3
C5
350
1CA
  3
C6
350
1CB
  3
C7
350
1CC
  3
C8
350
1CD
  3
C9
350
1CE
  3
D0
350
1CF
  3
D1
350
1D0
  3
D2
350
1D1
  0
DICTIONARY
  5
1A3
102
{ACAD_REACTORS
330
19
102
}
330
19
100
AcDbDictionary
281
     1
  3
Standard
350
1A4
  0
DICTIONARY
  5
191
102
{ACAD_REACTORS
330
19
102
}
330
19
100
AcDbDictionary
281
     1
  3
2dWireframe
350
197
  3
3D Hidden
350
199
  3
3dWireframe
350
198
  3
Basic
350
196
  3
Brighten
350
19D
  3
ColorChange
350
1A1
  3
Conceptual
350
19A
  3
Dim
350
19C
  3
Facepattern
350
1A0
  3
Flat
350
192
  3
FlatWithEdges
350
193
  3
Gouraud
350
194
  3
GouraudWithEdges
350
195
  3
Linepattern
350
19F
  3
Realistic
350
19B
  3
Thicken
350
19E
  0
WIPEOUTVARIABLES
  5
23
330
19
100
AcDbWipeoutVariables
 70
     1
  0
XRECORD
  5
215
102
{ACAD_REACTORS
330
19
102
}
330
19
100
AcDbXrecord
280
     1
 90
        1
330
1A4
  0
DICTIONARY
  5
1AD
102
{ACAD_REACTORS
330
19
102
}
330
19
100
AcDbDictionary
281
     1
  3
CANNOSCALE
350
212
  3
CMLEADERSTYLE
350
211
  3
CTABLESTYLE
350
1AE
  0
XRECORD
  5
1DC
102
{ACAD_REACTORS
330
1DB
102
}
330
1DB
100
AcDbXrecord
280
     1
290
     1
  0
XRECORD
  5
1DE
102
{ACAD_REACTORS
330
1DD
102
}
330
1DD
100
AcDbXrecord
280
     1
290
     1
  0
XRECORD
  5
1E0
102
{ACAD_REACTORS
330
1DF
102
}
330
1DF
100
AcDbXrecord
280
     1
290
     1
  0
SORTENTSTABLE
  5
1F1
102
{ACAD_REACTORS
330
1F0
102
}
330
1F0
100
AcDbSortentsTable
330
A
331
F3
  5
101
331
D9
  5
E7
331
173
  5
181
331
159
  5
167
331
137
  5
145
331
115
  5
123
331
65
  5
73
331
C8
  5
D6
331
A6
  5
B4
331
84
  5
92
331
EA
  5
F8
331
104
  5
112
331
54
  5
62
331
1F3
  5
4F
331
184
  5
1EF
331
148
  5
156
331
126
  5
134
331
76
  5
84
331
B7
  5
C5
331
95
  5
A3
331
32
  5
32
331
F1
  5
FF
331
171
  5
17F
331
157
  5
165
331
135
  5
143
331
113
  5
121
331
63
  5
71
331
C6
  5
D4
331
A4
  5
B2
331
82
  5
90
331
E8
  5
F6
331
102
  5
110
331
52
  5
60
331
182
  5
1ED
331
146
  5
154
331
124
  5
132
331
74
  5
82
331
D7
  5
E5
331
B5
  5
C3
331
93
  5
A1
331
30
  5
30
331
16F
  5
17D
331
155
  5
163
331
133
  5
141
331
111
  5
11F
331
61
  5
6F
331
C4
  5
D2
331
A2
  5
B0
331
80
  5
8E
331
E6
  5
F4
331
100
  5
10E
331
50
  5
5E
331
1EF
  5
5B
331
180
  5
1EB
331
166
  5
174
331
144
  5
152
331
122
  5
130
331
72
  5
80
331
D5
  5
E3
331
B3
  5
C1
331
91
  5
9F
331
2E
  5
2E
331
16D
  5
17B
331
153
  5
161
331
131
  5
13F
331
C2
  5
D0
331
A0
  5
AE
331
7E
  5
8C
331
E4
  5
F2
331
FE
  5
10C
331
4E
  5
5C
331
1ED
  5
59
331
17E
  5
1E9
331
164
  5
172
331
142
  5
150
331
120
  5
12E
331
70
  5
7E
331
D3
  5
E1
331
B1
  5
BF
331
10F
  5
11D
331
5F
  5
6D
331
8F
  5
9D
331
2C
  5
2C
331
16B
  5
179
331
151
  5
15F
331
C0
  5
CE
331
9E
  5
AC
331
7C
  5
8A
331
E2
  5
F0
331
FC
  5
10A
331
1EB
  5
57
331
17C
  5
18A
331
162
  5
170
331
140
  5
14E
331
11E
  5
12C
331
6E
  5
7C
331
D1
  5
DF
331
AF
  5
BD
331
8D
  5
9B
331
12F
  5
13D
331
10D
  5
11B
331
5D
  5
6B
331
2A
  5
2A
331
169
  5
177
331
18B
  5
1F8
331
7A
  5
88
331
BE
  5
CC
331
9C
  5
AA
331
E0
  5
EE
331
FA
  5
108
331
1E9
  5
55
331
17A
  5
188
331
160
  5
16E
331
13E
  5
14C
331
11C
  5
12A
331
6C
  5
7A
331
CF
  5
DD
331
AD
  5
BB
331
8B
  5
99
331
14F
  5
15D
331
12D
  5
13B
331
10B
  5
119
331
5B
  5
69
331
28
  5
28
331
189
  5
1F6
331
78
  5
86
331
F8
  5
106
331
DE
  5
EC
331
BC
  5
CA
331
9A
  5
A8
331
178
  5
186
331
15E
  5
16C
331
13C
  5
14A
331
11A
  5
128
331
6A
  5
78
331
CD
  5
DB
331
AB
  5
B9
331
89
  5
97
331
EF
  5
FD
331
14D
  5
15B
331
12B
  5
139
331
109
  5
117
331
59
  5
67
331
1F8
  5
54
331
37
  5
37
331
F6
  5
104
331
DC
  5
EA
331
BA
  5
C8
331
98
  5
A6
331
176
  5
184
331
15C
  5
16A
331
13A
  5
148
331
118
  5
126
331
68
  5
76
331
CB
  5
D9
331
A9
  5
B7
331
87
  5
95
331
ED
  5
FB
331
187
  5
1F4
331
14B
  5
159
331
129
  5
137
331
107
  5
115
331
57
  5
65
331
1F6
  5
52
331
35
  5
35
331
F4
  5
102
331
DA
  5
E8
331
B8
  5
C6
331
174
  5
182
331
15A
  5
168
331
138
  5
146
331
116
  5
124
331
66
  5
74
331
C9
  5
D7
331
A7
  5
B5
331
85
  5
93
331
EB
  5
F9
331
105
  5
113
331
55
  5
63
331
1F4
  5
50
331
185
  5
1F2
331
149
  5
157
331
127
  5
135
331
77
  5
85
331
96
  5
A4
331
33
  5
33
331
D8
  5
E6
331
F2
  5
100
331
172
  5
180
331
158
  5
166
331
136
  5
144
331
114
  5
122
331
64
  5
72
331
C7
  5
D5
331
A5
  5
B3
331
83
  5
91
331
E9
  5
F7
331
103
  5
111
331
53
  5
61
331
1F2
  5
4E
331
183
  5
1EE
331
147
  5
155
331
125
  5
133
331
75
  5
83
331
B6
  5
C4
331
94
  5
A2
331
31
  5
31
331
F0
  5
FE
331
170
  5
17E
331
156
  5
164
331
134
  5
142
331
112
  5
120
331
62
  5
70
331
C5
  5
D3
331
A3
  5
B1
331
81
  5
8F
331
E7
  5
F5
331
101
  5
10F
331
51
  5
5F
331
181
  5
1EC
331
167
  5
175
331
145
  5
153
331
123
  5
131
331
73
  5
81
331
D6
  5
E4
331
B4
  5
C2
331
92
  5
A0
331
2F
  5
2F
331
16E
  5
17C
331
154
  5
162
331
132
  5
140
331
110
  5
11E
331
60
  5
6E
331
C3
  5
D1
331
A1
  5
AF
331
7F
  5
8D
331
E5
  5
F3
331
FF
  5
10D
331
4F
  5
5D
331
1EE
  5
5A
331
17F
  5
1EA
331
165
  5
173
331
143
  5
151
331
121
  5
12F
331
71
  5
7F
331
D4
  5
E2
331
B2
  5
C0
331
90
  5
9E
331
2D
  5
2D
331
16C
  5
17A
331
152
  5
160
331
130
  5
13E
331
E3
  5
F1
331
C1
  5
CF
331
9F
  5
AD
331
7D
  5
8B
331
FD
  5
10B
331
1EC
  5
58
331
17D
  5
18B
331
163
  5
171
331
141
  5
14F
331
11F
  5
12D
331
D2
  5
E0
331
B0
  5
BE
331
8E
  5
9C
331
10E
  5
11C
331
5E
  5
6C
331
6F
  5
7D
331
16A
  5
178
331
150
  5
15E
331
BF
  5
CD
331
9D
  5
AB
331
7B
  5
89
331
E1
  5
EF
331
FB
  5
109
331
1EA
  5
56
331
17B
  5
189
331
161
  5
16F
331
13F
  5
14D
331
11D
  5
12B
331
6D
  5
7B
331
D0
  5
DE
331
AE
  5
BC
331
8C
  5
9A
331
12E
  5
13C
331
10C
  5
11A
331
5C
  5
6A
331
29
  5
29
331
168
  5
176
331
18A
  5
1F7
331
79
  5
87
331
F9
  5
107
331
DF
  5
ED
331
BD
  5
CB
331
9B
  5
A9
331
179
  5
187
331
15F
  5
16D
331
13D
  5
14B
331
11B
  5
129
331
CE
  5
DC
331
AC
  5
BA
331
8A
  5
98
331
6B
  5
79
331
14E
  5
15C
331
12C
  5
13A
331
10A
  5
118
331
5A
  5
68
331
188
  5
1F5
331
F7
  5
105
331
DD
  5
EB
331
BB
  5
C9
331
99
  5
A7
331
177
  5
185
331
15D
  5
16B
331
13B
  5
149
331
119
  5
127
331
69
  5
77
331
CC
  5
DA
331
AA
  5
B8
331
88
  5
96
331
EE
  5
FC
331
14C
  5
15A
331
12A
  5
138
331
108
  5
116
331
58
  5
66
331
1F7
  5
53
331
36
  5
36
331
F5
  5
103
331
DB
  5
E9
331
B9
  5
C7
331
175
  5
183
331
15B
  5
169
331
139
  5
147
331
117
  5
125
331
67
  5
75
331
CA
  5
D8
331
A8
  5
B6
331
86
  5
94
331
EC
  5
FA
331
186
  5
1F3
331
14A
  5
158
331
128
  5
136
331
106
  5
114
331
56
  5
64
331
1F5
  5
51
331
97
  5
A5
331
34
  5
34
  0
LAYOUT
  5
21
102
{ACAD_REACTORS
330
1E
102
}
330
1E
100
AcDbPlotSettings
  1

  2
Foxit PDF Printer
  4
Letter
  6

 40
3.174999952316284
 41
3.174999952316284
 42
3.17498779296875
 43
3.175003051757812
 44
279.3999938964844
 45
215.8999938964844
 46
31.47715384821894
 47
24.12875752349356
 48
0.0
 49
0.0
140
0.0
141
0.0
142
1.0
143
1.0
 70
     4
 72
     0
 73
     0
 74
     1
  7

 75
    16
147
1.0
 76
     1
 77
     2
 78
   300
148
-26.25461124795212
149
-20.16000981431432
100
AcDbLayout
  1
Layout1
 70
     0
 71
     1
 10
-0.3306119115190196
 20
-0.2812499079328949
 11
10.66938784818509
 21
8.218749851771214
 12
0.0
 22
0.0
 32
0.0
 14
-0.1078511654042842
 24
0.0100667395321708
 34
-0.0015258207003583
 15
10.30543006492962
 25
8.015599872014011
 35
0.0000000349246037
146
0.0
 13
0.0
 23
0.0
 33
0.0
 16
1.0
 26
0.0
 36
0.0
 17
0.0
 27
1.0
 37
0.0
 76
     0
330
B
331
1A9
1001
ACAD_PSEXT
1000
Foxit PDF Printer
1000
Foxit PDF Printer Driver
1000
FOXIT_PDF
1000

1070
     0
  0
LAYOUT
  5
20
102
{ACAD_REACTORS
330
1E
102
}
330
1E
100
AcDbPlotSettings
  1

  2

  4

  6

 40
0.0
 41
0.0
 42
0.0
 43
0.0
 44
0.0
 45
0.0
 46
0.0
 47
0.0
 48
0.0
 49
0.0
140
0.0
141
0.0
142
1.0
143
1.0
 70
  1024
 72
     0
 73
     0
 74
     0
  7

 75
     0
147
1.0
 76
     0
 77
     2
 78
   300
148
0.0
149
0.0
100
AcDbLayout
  1
Model
 70
     0
 71
     0
 10
0.0
 20
0.0
 11
0.0
 21
0.0
 12
0.0
 22
0.0
 32
0.0
 14
0.0
 24
0.0
 34
0.0
 15
0.0
 25
0.0
 35
0.0
146
0.0
 13
0.0
 23
0.0
 33
0.0
 16
0.0
 26
0.0
 36
0.0
 17
0.0
 27
0.0
 37
0.0
 76
     0
330
A
  0
MATERIAL
  5
18F
102
{ACAD_XDICTIONARY
360
218
102
}
102
{ACAD_REACTORS
330
18D
102
}
330
18D
100
AcDbMaterial
  1
ByBlock
 73
     1
 78
     1
172
     1
176
     1
270
     1
274
     1
  0
MATERIAL
  5
18E
102
{ACAD_XDICTIONARY
360
216
102
}
102
{ACAD_REACTORS
330
18D
102
}
330
18D
100
AcDbMaterial
  1
ByLayer
 73
     1
 78
     1
172
     1
176
     1
270
     1
274
     1
  0
MATERIAL
  5
190
102
{ACAD_XDICTIONARY
360
21A
102
}
102
{ACAD_REACTORS
330
18D
102
}
330
18D
100
AcDbMaterial
  1
Global
 73
     1
 78
     1
172
     1
176
     1
270
     1
274
     1
  0
MLEADERSTYLE
  5
1D3
102
{ACAD_REACTORS
330
1D2
102
}
330
1D2
100
AcDbMLeaderStyle
170
     2
171
     1
172
     0
 90
        2
 40
0.0
 41
0.0
173
     1
 91
-1056964608
340
11
 92
       -2
290
     1
 42
0.09
291
     1
 43
0.36
  3
Standard
 44
0.18
300

342
17
174
     1
178
     6
175
     1
176
     0
 93
-1056964608
 45
0.18
292
     0
297
     0
 46
0.18
 94
-1056964608
 47
1.0
 49
1.0
140
1.0
293
     1
141
0.0
294
     1
177
     0
142
1.0
295
     0
296
     0
143
0.125
1001
ACAD_MLEADERVER
1070
     2
  0
MLINESTYLE
  5
1C
102
{ACAD_REACTORS
330
1B
102
}
330
1B
100
AcDbMlineStyle
  2
STANDARD
 70
     0
  3

 62
     0
 51
90.0
 52
90.0
 71
     2
 49
0.5
 62
   256
  6
BYLAYER
 49
-0.5
 62
   256
  6
BYLAYER
  0
ACDBPLACEHOLDER
  5
1D
102
{ACAD_REACTORS
330
1F
102
}
330
1F
  0
SCALE
  5
1B1
102
{ACAD_REACTORS
330
1B0
102
}
330
1B0
100
AcDbScale
 70
     0
300
1:1
140
1.0
141
1.0
290
     1
  0
SCALE
  5
1B2
102
{ACAD_REACTORS
330
1B0
102
}
330
1B0
100
AcDbScale
 70
     0
300
1:2
140
1.0
141
2.0
290
     0
  0
SCALE
  5
1B3
102
{ACAD_REACTORS
330
1B0
102
}
330
1B0
100
AcDbScale
 70
     0
300
1:4
140
1.0
141
4.0
290
     0
  0
SCALE
  5
1B4
102
{ACAD_REACTORS
330
1B0
102
}
330
1B0
100
AcDbScale
 70
     0
300
1:5
140
1.0
141
5.0
290
     0
  0
SCALE
  5
1B5
102
{ACAD_REACTORS
330
1B0
102
}
330
1B0
100
AcDbScale
 70
     0
300
1:8
140
1.0
141
8.0
290
     0
  0
SCALE
  5
1B6
102
{ACAD_REACTORS
330
1B0
102
}
330
1B0
100
AcDbScale
 70
     0
300
1:10
140
1.0
141
10.0
290
     0
  0
SCALE
  5
1B7
102
{ACAD_REACTORS
330
1B0
102
}
330
1B0
100
AcDbScale
 70
     0
300
1:16
140
1.0
141
16.0
290
     0
  0
SCALE
  5
1B8
102
{ACAD_REACTORS
330
1B0
102
}
330
1B0
100
AcDbScale
 70
     0
300
1:20
140
1.0
141
20.0
290
     0
  0
SCALE
  5
1B9
102
{ACAD_REACTORS
330
1B0
102
}
330
1B0
100
AcDbScale
 70
     0
300
1:30
140
1.0
141
30.0
290
     0
  0
SCALE
  5
1BA
102
{ACAD_REACTORS
330
1B0
102
}
330
1B0
100
AcDbScale
 70
     0
300
1:40
140
1.0
141
40.0
290
     0
  0
SCALE
  5
1BB
102
{ACAD_REACTORS
330
1B0
102
}
330
1B0
100
AcDbScale
 70
     0
300
1:50
140
1.0
141
50.0
290
     0
  0
SCALE
  5
1BC
102
{ACAD_REACTORS
330
1B0
102
}
330
1B0
100
AcDbScale
 70
     0
300
1:100
140
1.0
141
100.0
290
     0
  0
SCALE
  5
1BD
102
{ACAD_REACTORS
330
1B0
102
}
330
1B0
100
AcDbScale
 70
     0
300
2:1
140
2.0
141
1.0
290
     0
  0
SCALE
  5
1BE
102
{ACAD_REACTORS
330
1B0
102
}
330
1B0
100
AcDbScale
 70
     0
300
4:1
140
4.0
141
1.0
290
     0
  0
SCALE
  5
1BF
102
{ACAD_REACTORS
330
1B0
102
}
330
1B0
100
AcDbScale
 70
     0
300
8:1
140
8.0
141
1.0
290
     0
  0
SCALE
  5
1C0
102
{ACAD_REACTORS
330
1B0
102
}
330
1B0
100
AcDbScale
 70
     0
300
10:1
140
10.0
141
1.0
290
     0
  0
SCALE
  5
1C1
102
{ACAD_REACTORS
330
1B0
102
}
330
1B0
100
AcDbScale
 70
     0
300
100:1
140
100.0
141
1.0
290
     0
  0
SCALE
  5
1C2
102
{ACAD_REACTORS
330
1B0
102
}
330
1B0
100
AcDbScale
 70
     0
300
1/128" = 1'-0"
140
0.0078125
141
12.0
290
     0
  0
SCALE
  5
1C3
102
{ACAD_REACTORS
330
1B0
102
}
330
1B0
100
AcDbScale
 70
     0
300
1/64" = 1'-0"
140
0.015625
141
12.0
290
     0
  0
SCALE
  5
1C4
102
{ACAD_REACTORS
330
1B0
102
}
330
1B0
100
AcDbScale
 70
     0
300
1/32" = 1'-0"
140
0.03125
141
12.0
290
     0
  0
SCALE
  5
1C5
102
{ACAD_REACTORS
330
1B0
102
}
330
1B0
100
AcDbScale
 70
     0
300
1/16" = 1'-0"
140
0.0625
141
12.0
290
     0
  0
SCALE
  5
1C6
102
{ACAD_REACTORS
330
1B0
102
}
330
1B0
100
AcDbScale
 70
     0
300
3/32" = 1'-0"
140
0.09375
141
12.0
290
     0
  0
SCALE
  5
1C7
102
{ACAD_REACTORS
330
1B0
102
}
330
1B0
100
AcDbScale
 70
     0
300
1/8" = 1'-0"
140
0.125
141
12.0
290
     0
  0
SCALE
  5
1C8
102
{ACAD_REACTORS
330
1B0
102
}
330
1B0
100
AcDbScale
 70
     0
300
3/16" = 1'-0"
140
0.1875
141
12.0
290
     0
  0
SCALE
  5
1C9
102
{ACAD_REACTORS
330
1B0
102
}
330
1B0
100
AcDbScale
 70
     0
300
1/4" = 1'-0"
140
0.25
141
12.0
290
     0
  0
SCALE
  5
1CA
102
{ACAD_REACTORS
330
1B0
102
}
330
1B0
100
AcDbScale
 70
     0
300
3/8" = 1'-0"
140
0.375
141
12.0
290
     0
  0
SCALE
  5
1CB
102
{ACAD_REACTORS
330
1B0
102
}
330
1B0
100
AcDbScale
 70
     0
300
1/2" = 1'-0"
140
0.5
141
12.0
290
     0
  0
SCALE
  5
1CC
102
{ACAD_REACTORS
330
1B0
102
}
330
1B0
100
AcDbScale
 70
     0
300
3/4" = 1'-0"
140
0.75
141
12.0
290
     0
  0
SCALE
  5
1CD
102
{ACAD_REACTORS
330
1B0
102
}
330
1B0
100
AcDbScale
 70
     0
300
1" = 1'-0"
140
1.0
141
12.0
290
     0
  0
SCALE
  5
1CE
102
{ACAD_REACTORS
330
1B0
102
}
330
1B0
100
AcDbScale
 70
     0
300
1-1/2" = 1'-0"
140
1.5
141
12.0
290
     0
  0
SCALE
  5
1CF
102
{ACAD_REACTORS
330
1B0
102
}
330
1B0
100
AcDbScale
 70
     0
300
3" = 1'-0"
140
3.0
141
12.0
290
     0
  0
SCALE
  5
1D0
102
{ACAD_REACTORS
330
1B0
102
}
330
1B0
100
AcDbScale
 70
     0
300
6" = 1'-0"
140
6.0
141
12.0
290
     0
  0
SCALE
  5
1D1
102
{ACAD_REACTORS
330
1B0
102
}
330
1B0
100
AcDbScale
 70
     0
300
1'-0" = 1'-0"
140
12.0
141
12.0
290
     0
  0
TABLESTYLE
  5
1A4
102
{ACAD_XDICTIONARY
360
213
102
}
102
{ACAD_REACTORS
330
1A3
102
}
330
1A3
100
AcDbTableStyle
  3
Standard
 70
     0
 71
     0
 40
0.06
 41
0.06
280
     0
281
     0
  7
Standard
140
0.18
170
     2
 62
     0
 63
     7
283
     0
274
    -2
284
     1
 64
     0
275
    -2
285
     1
 65
     0
276
    -2
286
     1
 66
     0
277
    -2
287
     1
 67
     0
278
    -2
288
     1
 68
     0
279
    -2
289
     1
 69
     0
  7
Standard
140
0.25
170
     5
 62
     0
 63
     7
283
     0
274
    -2
284
     1
 64
     0
275
    -2
285
     1
 65
     0
276
    -2
286
     1
 66
     0
277
    -2
287
     1
 67
     0
278
    -2
288
     1
 68
     0
279
    -2
289
     1
 69
     0
  7
Standard
140
0.18
170
     5
 62
     0
 63
     7
283
     0
274
    -2
284
     1
 64
     0
275
    -2
285
     1
 65
     0
276
    -2
286
     1
 66
     0
277
    -2
287
     1
 67
     0
278
    -2
288
     1
 68
     0
279
    -2
289
     1
 69
     0
  0
VISUALSTYLE
  5
197
102
{ACAD_REACTORS
330
191
102
}
330
191
100
AcDbVisualStyle
  2
2dWireframe
 70
     4
 71
     0
 72
     2
 73
     0
 90
        0
 40
-0.6
 41
-30.0
 62
     5
 63
     7
421
 16777215
 74
     1
 91
        4
 64
     7
 65
   257
 75
     1
175
     1
 42
1.0
 92
        0
 66
   257
 43
1.0
 76
     1
 77
     6
 78
     2
 67
     7
 79
     5
170
     0
171
     0
290
     0
174
     0
 93
        1
 44
0.0
173
     0
291
     0
 45
0.0
1001
ACAD
1000
AcDbSavedByObjectVersion
1070
     0
  0
VISUALSTYLE
  5
199
102
{ACAD_REACTORS
330
191
102
}
330
191
100
AcDbVisualStyle
  2
3D Hidden
 70
     6
 71
     1
 72
     2
 73
     2
 90
        0
 40
-0.6
 41
-30.0
 62
     5
 63
     7
421
 16777215
 74
     2
 91
        2
 64
     7
 65
   257
 75
     2
175
     1
 42
40.0
 92
        0
 66
   257
 43
1.0
 76
     1
 77
     6
 78
     2
 67
     7
 79
     3
170
     0
171
     0
290
     0
174
     0
 93
        1
 44
0.0
173
     0
291
     0
 45
0.0
1001
ACAD
1000
AcDbSavedByObjectVersion
1070
     0
  0
VISUALSTYLE
  5
198
102
{ACAD_REACTORS
330
191
102
}
330
191
100
AcDbVisualStyle
  2
3dWireframe
 70
     5
 71
     0
 72
     2
 73
     0
 90
        0
 40
-0.6
 41
-30.0
 62
     5
 63
     7
421
 16777215
 74
     1
 91
        4
 64
     7
 65
   257
 75
     1
175
     1
 42
1.0
 92
        0
 66
   257
 43
1.0
 76
     1
 77
     6
 78
     2
 67
     7
 79
     5
170
     0
171
     0
290
     0
174
     0
 93
        1
 44
0.0
173
     0
291
     0
 45
0.0
1001
ACAD
1000
AcDbSavedByObjectVersion
1070
     0
  0
VISUALSTYLE
  5
196
102
{ACAD_REACTORS
330
191
102
}
330
191
100
AcDbVisualStyle
  2
Basic
 70
     7
 71
     1
 72
     0
 73
     1
 90
        0
 40
-0.6
 41
-30.0
 62
     5
 63
     7
421
 16777215
 74
     0
 91
        4
 64
     7
 65
   257
 75
     1
175
     1
 42
1.0
 92
        8
 66
     7
 43
1.0
 76
     1
 77
     6
 78
     2
 67
     7
 79
     5
170
     0
171
     0
290
     0
174
     0
 93
        1
 44
0.0
173
     0
291
     1
 45
0.0
1001
ACAD
1000
AcDbSavedByObjectVersion
1070
     0
  0
VISUALSTYLE
  5
19D
102
{ACAD_REACTORS
330
191
102
}
330
191
100
AcDbVisualStyle
  2
Brighten
 70
    12
 71
     2
 72
     2
 73
     0
 90
        0
 40
-0.6
 41
-30.0
 62
     5
 63
     7
421
 16777215
 74
     1
 91
        4
 64
     7
 65
   257
 75
     1
175
     1
 42
1.0
 92
        8
 66
     7
 43
1.0
 76
     1
 77
     6
 78
     2
 67
     7
 79
     5
170
     0
171
     0
290
     0
174
     0
 93
        1
 44
50.0
173
     0
291
     1
 45
0.0
1001
ACAD
1000
AcDbSavedByObjectVersion
1070
     0
  0
VISUALSTYLE
  5
1A1
102
{ACAD_REACTORS
330
191
102
}
330
191
100
AcDbVisualStyle
  2
ColorChange
 70
    16
 71
     2
 72
     2
 73
     3
 90
        0
 40
-0.6
 41
-30.0
 62
     5
 63
     8
421
  8421504
 74
     1
 91
        4
 64
     7
 65
   257
 75
     1
175
     1
 42
1.0
 92
        8
 66
     8
424
  8421504
 43
1.0
 76
     1
 77
     6
 78
     2
 67
     7
 79
     5
170
     0
171
     0
290
     0
174
     0
 93
        1
 44
0.0
173
     0
291
     1
 45
0.0
1001
ACAD
1000
AcDbSavedByObjectVersion
1070
     0
  0
VISUALSTYLE
  5
19A
102
{ACAD_REACTORS
330
191
102
}
330
191
100
AcDbVisualStyle
  2
Conceptual
 70
     9
 71
     3
 72
     2
 73
     0
 90
        0
 40
-0.6
 41
-30.0
 62
     5
 63
     7
421
 16777215
 74
     2
 91
        2
 64
     7
 65
   257
 75
     1
175
     1
 42
40.0
 92
        8
 66
     7
 43
1.0
 76
     1
 77
     6
 78
     2
 67
     7
 79
     3
170
     0
171
     0
290
     0
174
     0
 93
        1
 44
0.0
173
     0
291
     0
 45
0.0
1001
ACAD
1000
AcDbSavedByObjectVersion
1070
     0
  0
VISUALSTYLE
  5
19C
102
{ACAD_REACTORS
330
191
102
}
330
191
100
AcDbVisualStyle
  2
Dim
 70
    11
 71
     2
 72
     2
 73
     0
 90
        0
 40
-0.6
 41
-30.0
 62
     5
 63
     7
421
 16777215
 74
     1
 91
        4
 64
     7
 65
   257
 75
     1
175
     1
 42
1.0
 92
        8
 66
     7
 43
1.0
 76
     1
 77
     6
 78
     2
 67
     7
 79
     5
170
     0
171
     0
290
     0
174
     0
 93
        1
 44
-50.0
173
     0
291
     1
 45
0.0
1001
ACAD
1000
AcDbSavedByObjectVersion
1070
     0
  0
VISUALSTYLE
  5
1A0
102
{ACAD_REACTORS
330
191
102
}
330
191
100
AcDbVisualStyle
  2
Facepattern
 70
    15
 71
     2
 72
     2
 73
     0
 90
        0
 40
-0.6
 41
-30.0
 62
     5
 63
     7
421
 16777215
 74
     1
 91
        4
 64
     7
 65
   257
 75
     1
175
     1
 42
1.0
 92
        8
 66
     7
 43
1.0
 76
     1
 77
     6
 78
     2
 67
     7
 79
     5
170
     0
171
     0
290
     0
174
     0
 93
        1
 44
0.0
173
     0
291
     1
 45
0.0
1001
ACAD
1000
AcDbSavedByObjectVersion
1070
     0
  0
VISUALSTYLE
  5
192
102
{ACAD_REACTORS
330
191
102
}
330
191
100
AcDbVisualStyle
  2
Flat
 70
     0
 71
     2
 72
     1
 73
     1
 90
        2
 40
-0.6
 41
30.0
 62
     5
 63
     7
421
 16777215
 74
     0
 91
        4
 64
     7
 65
   257
 75
     1
175
     1
 42
1.0
 92
        8
 66
     7
 43
1.0
 76
     1
 77
     6
 78
     2
 67
     7
 79
     5
170
     0
171
     0
290
     0
174
     0
 93
       13
 44
0.0
173
     0
291
     1
 45
0.0
1001
ACAD
1000
AcDbSavedByObjectVersion
1070
     0
  0
VISUALSTYLE
  5
193
102
{ACAD_REACTORS
330
191
102
}
330
191
100
AcDbVisualStyle
  2
FlatWithEdges
 70
     1
 71
     2
 72
     1
 73
     1
 90
        2
 40
-0.6
 41
30.0
 62
     5
 63
     7
421
 16777215
 74
     1
 91
        4
 64
     7
 65
   257
 75
     1
175
     1
 42
1.0
 92
        0
 66
   257
 43
1.0
 76
     1
 77
     6
 78
     2
 67
     7
 79
     5
170
     0
171
     0
290
     0
174
     0
 93
       13
 44
0.0
173
     0
291
     1
 45
0.0
1001
ACAD
1000
AcDbSavedByObjectVersion
1070
     0
  0
VISUALSTYLE
  5
194
102
{ACAD_REACTORS
330
191
102
}
330
191
100
AcDbVisualStyle
  2
Gouraud
 70
     2
 71
     2
 72
     2
 73
     1
 90
        2
 40
-0.6
 41
30.0
 62
     5
 63
     7
421
 16777215
 74
     0
 91
        4
 64
     7
 65
   257
 75
     1
175
     1
 42
1.0
 92
        0
 66
     7
 43
1.0
 76
     1
 77
     6
 78
     2
 67
     7
 79
     5
170
     0
171
     0
290
     0
174
     0
 93
       13
 44
0.0
173
     0
291
     1
 45
0.0
1001
ACAD
1000
AcDbSavedByObjectVersion
1070
     0
  0
VISUALSTYLE
  5
195
102
{ACAD_REACTORS
330
191
102
}
330
191
100
AcDbVisualStyle
  2
GouraudWithEdges
 70
     3
 71
     2
 72
     2
 73
     1
 90
        2
 40
-0.6
 41
30.0
 62
     5
 63
     7
421
 16777215
 74
     1
 91
        4
 64
     7
 65
   257
 75
     1
175
     1
 42
1.0
 92
        0
 66
   257
 43
1.0
 76
     1
 77
     6
 78
     2
 67
     7
 79
     5
170
     0
171
     0
290
     0
174
     0
 93
       13
 44
0.0
173
     0
291
     1
 45
0.0
1001
ACAD
1000
AcDbSavedByObjectVersion
1070
     0
  0
VISUALSTYLE
  5
19F
102
{ACAD_REACTORS
330
191
102
}
330
191
100
AcDbVisualStyle
  2
Linepattern
 70
    14
 71
     2
 72
     2
 73
     0
 90
        0
 40
-0.6
 41
-30.0
 62
     5
 63
     7
421
 16777215
 74
     1
 91
        4
 64
     7
 65
   257
 75
     7
175
     7
 42
1.0
 92
        8
 66
     7
 43
1.0
 76
     1
 77
     6
 78
     2
 67
     7
 79
     5
170
     0
171
     0
290
     0
174
     0
 93
        1
 44
0.0
173
     0
291
     1
 45
0.0
1001
ACAD
1000
AcDbSavedByObjectVersion
1070
     0
  0
VISUALSTYLE
  5
19B
102
{ACAD_REACTORS
330
191
102
}
330
191
100
AcDbVisualStyle
  2
Realistic
 70
     8
 71
     2
 72
     2
 73
     0
 90
        0
 40
-0.6
 41
-30.0
 62
     5
 63
     7
421
 16777215
 74
     1
 91
        0
 64
     7
 65
   257
 75
     1
175
     1
 42
1.0
 92
        8
 66
     8
424
  7895160
 43
1.0
 76
     1
 77
     6
 78
     2
 67
     7
 79
     5
170
     0
171
     0
290
     0
174
     0
 93
       13
 44
0.0
173
     0
291
     0
 45
0.0
1001
ACAD
1000
AcDbSavedByObjectVersion
1070
     0
  0
VISUALSTYLE
  5
19E
102
{ACAD_REACTORS
330
191
102
}
330
191
100
AcDbVisualStyle
  2
Thicken
 70
    13
 71
     2
 72
     2
 73
     0
 90
        0
 40
-0.6
 41
-30.0
 62
     5
 63
     7
421
 16777215
 74
     1
 91
        4
 64
     7
 65
   257
 75
     1
175
     1
 42
1.0
 92
       12
 66
     7
 43
1.0
 76
     1
 77
     6
 78
     2
 67
     7
 79
     5
170
     0
171
     0
290
     0
174
     0
 93
        1
 44
0.0
173
     0
291
     1
 45
0.0
1001
ACAD
1000
AcDbSavedByObjectVersion
1070
     0
  0
DICTIONARYVAR
  5
212
102
{ACAD_REACTORS
330
1AD
102
}
330
1AD
100
DictionaryVariables
280
     0
  1
1:1
  0
DICTIONARYVAR
  5
211
102
{ACAD_REACTORS
330
1AD
102
}
330
1AD
100
DictionaryVariables
280
     0
  1
STANDARD
  0
DICTIONARYVAR
  5
1AE
102
{ACAD_REACTORS
330
1AD
102
}
330
1AD
100
DictionaryVariables
280
     0
  1
STANDARD
  0
DICTIONARY
  5
218
330
18F
100
AcDbDictionary
280
     1
281
     1
  3
ACAD_XREC_ROUNDTRIP
360
219
  0
DICTIONARY
  5
216
330
18E
100
AcDbDictionary
280
     1
281
     1
  3
ACAD_XREC_ROUNDTRIP
360
217
  0
DICTIONARY
  5
21A
330
190
100
AcDbDictionary
280
     1
281
     1
  3
ACAD_XREC_ROUNDTRIP
360
21B
  0
DICTIONARY
  5
213
330
1A4
100
AcDbDictionary
280
     1
281
     1
  3
ACAD_ROUNDTRIP_2008_TABLESTYLE_CELLSTYLEMAP
360
214
  3
ACAD_XREC_ROUNDTRIP
360
21C
  0
XRECORD
  5
219
102
{ACAD_REACTORS
330
218
102
}
330
218
100
AcDbXrecord
280
     1
102
MATERIAL
148
0.0
149
0.0
149
0.0
 93
        0
 94
       63
282
     0
 72
     1
 77
     1
171
     1
175
     1
179
     1
273
     0
  0
XRECORD
  5
217
102
{ACAD_REACTORS
330
216
102
}
330
216
100
AcDbXrecord
280
     1
102
MATERIAL
148
0.0
149
0.0
149
0.0
 93
        0
 94
       63
282
     0
 72
     1
 77
     1
171
     1
175
     1
179
     1
273
     0
  0
XRECORD
  5
21B
102
{ACAD_REACTORS
330
21A
102
}
330
21A
100
AcDbXrecord
280
     1
102
MATERIAL
148
0.0
149
0.0
149
0.0
 93
        0
 94
       63
282
     0
 72
     1
 77
     1
171
     1
175
     1
179
     1
273
     0
  0
CELLSTYLEMAP
  5
214
102
{ACAD_REACTORS
330
213
102
}
330
213
100
AcDbCellStyleMap
 90
        3
300
CELLSTYLE
  1
TABLEFORMAT_BEGIN
 90
        5
170
     1
 91
        0
 92
    32768
 62
   257
 93
        1
300
CONTENTFORMAT
  1
CONTENTFORMAT_BEGIN
 90
        0
 91
        0
 92
      512
 93
        0
300

 40
0.0
140
1.0
 94
        5
 62
     0
340
17
144
0.25
309
CONTENTFORMAT_END
171
     0
 94
        6
 95
        1
302
GRIDFORMAT
  1
GRIDFORMAT_BEGIN
 90
        0
 91
        1
 62
     0
 92
       -2
340
0
 93
        0
 40
0.045
309
GRIDFORMAT_END
 95
        2
302
GRIDFORMAT
  1
GRIDFORMAT_BEGIN
 90
        0
 91
        1
 62
     0
 92
       -2
340
0
 93
        0
 40
0.045
309
GRIDFORMAT_END
 95
        4
302
GRIDFORMAT
  1
GRIDFORMAT_BEGIN
 90
        0
 91
        1
 62
     0
 92
       -2
340
0
 93
        0
 40
0.045
309
GRIDFORMAT_END
 95
        8
302
GRIDFORMAT
  1
GRIDFORMAT_BEGIN
 90
        0
 91
        1
 62
     0
 92
       -2
340
0
 93
        0
 40
0.045
309
GRIDFORMAT_END
 95
       16
302
GRIDFORMAT
  1
GRIDFORMAT_BEGIN
 90
        0
 91
        1
 62
     0
 92
       -2
340
0
 93
        0
 40
0.045
309
GRIDFORMAT_END
 95
       32
302
GRIDFORMAT
  1
GRIDFORMAT_BEGIN
 90
        0
 91
        1
 62
     0
 92
       -2
340
0
 93
        0
 40
0.045
309
GRIDFORMAT_END
309
TABLEFORMAT_END
  1
CELLSTYLE_BEGIN
 90
        1
 91
        1
300
_TITLE
309
CELLSTYLE_END
300
CELLSTYLE
  1
TABLEFORMAT_BEGIN
 90
        5
170
     1
 91
        0
 92
        0
 62
   257
 93
        1
300
CONTENTFORMAT
  1
CONTENTFORMAT_BEGIN
 90
        0
 91
        0
 92
      512
 93
        0
300

 40
0.0
140
1.0
 94
        5
 62
     0
340
17
144
0.18
309
CONTENTFORMAT_END
171
     0
 94
        6
 95
        1
302
GRIDFORMAT
  1
GRIDFORMAT_BEGIN
 90
        0
 91
        1
 62
     0
 92
       -2
340
0
 93
        0
 40
0.045
309
GRIDFORMAT_END
 95
        2
302
GRIDFORMAT
  1
GRIDFORMAT_BEGIN
 90
        0
 91
        1
 62
     0
 92
       -2
340
0
 93
        0
 40
0.045
309
GRIDFORMAT_END
 95
        4
302
GRIDFORMAT
  1
GRIDFORMAT_BEGIN
 90
        0
 91
        1
 62
     0
 92
       -2
340
0
 93
        0
 40
0.045
309
GRIDFORMAT_END
 95
        8
302
GRIDFORMAT
  1
GRIDFORMAT_BEGIN
 90
        0
 91
        1
 62
     0
 92
       -2
340
0
 93
        0
 40
0.045
309
GRIDFORMAT_END
 95
       16
302
GRIDFORMAT
  1
GRIDFORMAT_BEGIN
 90
        0
 91
        1
 62
     0
 92
       -2
340
0
 93
        0
 40
0.045
309
GRIDFORMAT_END
 95
       32
302
GRIDFORMAT
  1
GRIDFORMAT_BEGIN
 90
        0
 91
        1
 62
     0
 92
       -2
340
0
 93
        0
 40
0.045
309
GRIDFORMAT_END
309
TABLEFORMAT_END
  1
CELLSTYLE_BEGIN
 90
        2
 91
        1
300
_HEADER
309
CELLSTYLE_END
300
CELLSTYLE
  1
TABLEFORMAT_BEGIN
 90
        5
170
     1
 91
        0
 92
        0
 62
   257
 93
        1
300
CONTENTFORMAT
  1
CONTENTFORMAT_BEGIN
 90
        0
 91
        0
 92
      512
 93
        0
300

 40
0.0
140
1.0
 94
        2
 62
     0
340
17
144
0.18
309
CONTENTFORMAT_END
171
     0
 94
        6
 95
        1
302
GRIDFORMAT
  1
GRIDFORMAT_BEGIN
 90
        0
 91
        1
 62
     0
 92
       -2
340
0
 93
        0
 40
0.045
309
GRIDFORMAT_END
 95
        2
302
GRIDFORMAT
  1
GRIDFORMAT_BEGIN
 90
        0
 91
        1
 62
     0
 92
       -2
340
0
 93
        0
 40
0.045
309
GRIDFORMAT_END
 95
        4
302
GRIDFORMAT
  1
GRIDFORMAT_BEGIN
 90
        0
 91
        1
 62
     0
 92
       -2
340
0
 93
        0
 40
0.045
309
GRIDFORMAT_END
 95
        8
302
GRIDFORMAT
  1
GRIDFORMAT_BEGIN
 90
        0
 91
        1
 62
     0
 92
       -2
340
0
 93
        0
 40
0.045
309
GRIDFORMAT_END
 95
       16
302
GRIDFORMAT
  1
GRIDFORMAT_BEGIN
 90
        0
 91
        1
 62
     0
 92
       -2
340
0
 93
        0
 40
0.045
309
GRIDFORMAT_END
 95
       32
302
GRIDFORMAT
  1
GRIDFORMAT_BEGIN
 90
        0
 91
        1
 62
     0
 92
       -2
340
0
 93
        0
 40
0.045
309
GRIDFORMAT_END
309
TABLEFORMAT_END
  1
CELLSTYLE_BEGIN
 90
        3
 91
        2
300
_DATA
309
CELLSTYLE_END
  0
XRECORD
  5
21C
102
{ACAD_REACTORS
330
213
102
}
330
213
100
AcDbXrecord
280
     1
102
ACAD_ROUNDTRIP_PRE2007_TABLESTYLE
 90
      512
 91
        0
  1

 92
      512
 93
        0
  2

 94
      512
 95
        0
  3

  0
ENDSEC
  0
EOF
