  0
SECTION
  2
HEADER
  9
$ACADVER
  1
AC1018
  9
$ACADMAINTVER
 70
   104
  9
$DWGCODEPAGE
  3
ANSI_1252
  9
$LASTSAVEDBY
  1
EARL
  9
$INSBASE
 10
0.0
 20
0.0
 30
0.0
  9
$EXTMIN
 10
-2.263169754348147
 20
1.08719515800476
 30
0.0
  9
$EXTMAX
 10
7.629828929901122
 20
6.182197470446302
 30
0.0
  9
$LIMMIN
 10
0.0
 20
0.0
  9
$LIMMAX
 10
0.0
 20
0.0
  9
$ORTHOMODE
 70
     0
  9
$REGENMODE
 70
     1
  9
$FILLMODE
 70
     1
  9
$QTEXTMODE
 70
     0
  9
$MIRRTEXT
 70
     1
  9
$LTSCALE
 40
1.0
  9
$ATTMODE
 70
     1
  9
$TEXTSIZE
 40
0.0
  9
$TRACEWID
 40
0.05
  9
$TEXTSTYLE
  7
Standard
  9
$CLAYER
  8
0
  9
$CELTYPE
  6
Continuous
  9
$CECOLOR
 62
   256
  9
$CELTSCALE
 40
1.0
  9
$DISPSILH
 70
     0
  9
$DIMSCALE
 40
1.0
  9
$DIMASZ
 40
0.18
  9
$DIMEXO
 40
0.0625
  9
$DIMDLI
 40
0.38
  9
$DIMRND
 40
0.0
  9
$DIMDLE
 40
0.0
  9
$DIMEXE
 40
0.18
  9
$DIMTP
 40
0.0
  9
$DIMTM
 40
0.0
  9
$DIMTXT
 40
0.18
  9
$DIMCEN
 40
0.09
  9
$DIMTSZ
 40
0.0
  9
$DIMTOL
 70
     0
  9
$DIMLIM
 70
     0
  9
$DIMTIH
 70
     1
  9
$DIMTOH
 70
     1
  9
$DIMSE1
 70
     0
  9
$DIMSE2
 70
     0
  9
$DIMTAD
 70
     0
  9
$DIMZIN
 70
     0
  9
$DIMBLK
  1

  9
$DIMASO
 70
     1
  9
$DIMSHO
 70
     1
  9
$DIMPOST
  1

  9
$DIMAPOST
  1

  9
$DIMALT
 70
     0
  9
$DIMALTD
 70
     2
  9
$DIMALTF
 40
25.4
  9
$DIMLFAC
 40
1.0
  9
$DIMTOFL
 70
     0
  9
$DIMTVP
 40
0.0
  9
$DIMTIX
 70
     0
  9
$DIMSOXD
 70
     0
  9
$DIMSAH
 70
     0
  9
$DIMBLK1
  1

  9
$DIMBLK2
  1

  9
$DIMSTYLE
  2
Standard
  9
$DIMCLRD
 70
     0
  9
$DIMCLRE
 70
     0
  9
$DIMCLRT
 70
     0
  9
$DIMTFAC
 40
1.0
  9
$DIMGAP
 40
0.09
  9
$DIMJUST
 70
     0
  9
$DIMSD1
 70
     0
  9
$DIMSD2
 70
     0
  9
$DIMTOLJ
 70
     1
  9
$DIMTZIN
 70
     0
  9
$DIMALTZ
 70
     0
  9
$DIMALTTZ
 70
     0
  9
$DIMUPT
 70
     0
  9
$DIMDEC
 70
     4
  9
$DIMTDEC
 70
     4
  9
$DIMALTU
 70
     2
  9
$DIMALTTD
 70
     2
  9
$DIMTXSTY
  7
Standard
  9
$DIMAUNIT
 70
     0
  9
$DIMADEC
 70
     0
  9
$DIMALTRND
 40
0.0
  9
$DIMAZIN
 70
     0
  9
$DIMDSEP
 70
    46
  9
$DIMATFIT
 70
     0
  9
$DIMFRAC
 70
     0
  9
$DIMLDRBLK
  1

  9
$DIMLUNIT
 70
     2
  9
$DIMLWD
 70
    -2
  9
$DIMLWE
 70
    -2
  9
$DIMTMOVE
 70
     0
  9
$LUNITS
 70
     2
  9
$LUPREC
 70
     4
  9
$SKETCHINC
 40
0.1
  9
$FILLETRAD
 40
0.0
  9
$AUNITS
 70
     0
  9
$AUPREC
 70
     0
  9
$MENU
  1
acad
  9
$ELEVATION
 40
0.0
  9
$PELEVATION
 40
0.0
  9
$THICKNESS
 40
0.0
  9
$LIMCHECK
 70
     0
  9
$CHAMFERA
 40
0.0
  9
$CHAMFERB
 40
0.0
  9
$CHAMFERC
 40
0.0
  9
$CHAMFERD
 40
0.0
  9
$SKPOLY
 70
     0
  9
$TDCREATE
 40
2454831.420150463
  9
$TDUCREATE
 40
2454831.586817129
  9
$TDUPDATE
 40
2455103.913869537
  9
$TDUUPDATE
 40
2455104.080536204
  9
$TDINDWG
 40
0.0021565741
  9
$TDUSRTIMER
 40
0.0021565741
  9
$USRTIMER
 70
     1
  9
$ANGBASE
 50
0.0
  9
$ANGDIR
 70
     0
  9
$PDMODE
 70
     0
  9
$PDSIZE
 40
0.0
  9
$PLINEWID
 40
0.0
  9
$SPLFRAME
 70
     0
  9
$SPLINETYPE
 70
     6
  9
$SPLINESEGS
 70
     8
  9
$HANDSEED
  5
180
  9
$SURFTAB1
 70
     6
  9
$SURFTAB2
 70
     6
  9
$SURFTYPE
 70
     6
  9
$SURFU
 70
     6
  9
$SURFV
 70
     6
  9
$UCSBASE
  2

  9
$UCSNAME
  2

  9
$UCSORG
 10
0.0
 20
0.0
 30
0.0
  9
$UCSXDIR
 10
1.0
 20
0.0
 30
0.0
  9
$UCSYDIR
 10
0.0
 20
1.0
 30
0.0
  9
$UCSORTHOREF
  2

  9
$UCSORTHOVIEW
 70
     0
  9
$UCSORGTOP
 10
0.0
 20
0.0
 30
0.0
  9
$UCSORGBOTTOM
 10
0.0
 20
0.0
 30
0.0
  9
$UCSORGLEFT
 10
0.0
 20
0.0
 30
0.0
  9
$UCSORGRIGHT
 10
0.0
 20
0.0
 30
0.0
  9
$UCSORGFRONT
 10
0.0
 20
0.0
 30
0.0
  9
$UCSORGBACK
 10
0.0
 20
0.0
 30
0.0
  9
$PUCSBASE
  2

  9
$PUCSNAME
  2

  9
$PUCSORG
 10
0.0
 20
0.0
 30
0.0
  9
$PUCSXDIR
 10
1.0
 20
0.0
 30
0.0
  9
$PUCSYDIR
 10
0.0
 20
1.0
 30
0.0
  9
$PUCSORTHOREF
  2

  9
$PUCSORTHOVIEW
 70
     0
  9
$PUCSORGTOP
 10
0.0
 20
0.0
 30
0.0
  9
$PUCSORGBOTTOM
 10
0.0
 20
0.0
 30
0.0
  9
$PUCSORGLEFT
 10
0.0
 20
0.0
 30
0.0
  9
$PUCSORGRIGHT
 10
0.0
 20
0.0
 30
0.0
  9
$PUCSORGFRONT
 10
0.0
 20
0.0
 30
0.0
  9
$PUCSORGBACK
 10
0.0
 20
0.0
 30
0.0
  9
$USERI1
 70
     0
  9
$USERI2
 70
     0
  9
$USERI3
 70
     0
  9
$USERI4
 70
     0
  9
$USERI5
 70
     0
  9
$USERR1
 40
0.0
  9
$USERR2
 40
0.0
  9
$USERR3
 40
0.0
  9
$USERR4
 40
0.0
  9
$USERR5
 40
0.0
  9
$WORLDVIEW
 70
     1
  9
$SHADEDGE
 70
     3
  9
$SHADEDIF
 70
    70
  9
$TILEMODE
 70
     0
  9
$MAXACTVP
 70
    16
  9
$PINSBASE
 10
0.0
 20
0.0
 30
0.0
  9
$PLIMCHECK
 70
     0
  9
$PEXTMIN
 10
0.0156560208723917
 20
-0.025352453909214
 30
-0.0015258207003583
  9
$PEXTMAX
 10
10.32312039450815
 20
7.910323895798452
 30
0.0000000349246037
  9
$PLIMMIN
 10
-0.3306119115190196
 20
-0.2812499079328949
  9
$PLIMMAX
 10
10.66938784818509
 20
8.218749851771214
  9
$UNITMODE
 70
     0
  9
$VISRETAIN
 70
     0
  9
$PLINEGEN
 70
     1
  9
$PSLTSCALE
 70
     0
  9
$TREEDEPTH
 70
  3020
  9
$CMLSTYLE
  2
Standard
  9
$CMLJUST
 70
     0
  9
$CMLSCALE
 40
1.0
  9
$PROXYGRAPHICS
 70
     0
  9
$MEASUREMENT
 70
     0
  9
$CELWEIGHT
370
     0
  9
$ENDCAPS
280
     0
  9
$JOINSTYLE
280
     0
  9
$LWDISPLAY
290
     0
  9
$INSUNITS
 70
     0
  9
$HYPERLINKBASE
  1

  9
$STYLESHEET
  1

  9
$XEDIT
290
     1
  9
$CEPSNTYPE
380
     0
  9
$PSTYLEMODE
290
     1
  9
$FINGERPRINTGUID
  2

  9
$VERSIONGUID
  2
{90EFBAFB-0504-411A-BB18-77B813545A97}
  9
$EXTNAMES
290
     1
  9
$PSVPSCALE
 40
0.0
  9
$OLESTARTUP
290
     0
  9
$SORTENTS
280
   127
  9
$INDEXCTL
280
     0
  9
$HIDETEXT
280
     0
  9
$XCLIPFRAME
290
     0
  9
$HALOGAP
280
     0
  9
$OBSCOLOR
 70
   257
  9
$OBSLTYPE
280
     0
  9
$INTERSECTIONDISPLAY
280
     0
  9
$INTERSECTIONCOLOR
 70
   257
  9
$DIMASSOC
280
     1
  9
$PROJECTNAME
  1

  0
ENDSEC
  0
SECTION
  2
CLASSES
  0
CLASS
  1
IMAGE
  2
AcDbRasterImage
  3
ISM
 90
     2175
 91
        0
280
     0
281
     1
  0
CLASS
  1
DICTIONARYVAR
  2
AcDbDictionaryVar
  3
ObjectDBX Classes
 90
        0
 91
        5
280
     0
281
     0
  0
CLASS
  1
RASTERVARIABLES
  2
AcDbRasterVariables
  3
ISM
 90
        0
 91
        0
280
     0
281
     0
  0
CLASS
  1
IMAGEDEF
  2
AcDbRasterImageDef
  3
ISM
 90
        0
 91
        0
280
     0
281
     0
  0
CLASS
  1
IMAGEDEF_REACTOR
  2
AcDbRasterImageDefReactor
  3
ISM
 90
        1
 91
        0
280
     0
281
     0
  0
CLASS
  1
IDBUFFER
  2
AcDbIdBuffer
  3
ObjectDBX Classes
 90
        0
 91
        0
280
     0
281
     0
  0
CLASS
  1
SPATIAL_FILTER
  2
AcDbSpatialFilter
  3
ObjectDBX Classes
 90
        0
 91
        0
280
     0
281
     0
  0
CLASS
  1
SORTENTSTABLE
  2
AcDbSortentsTable
  3
ObjectDBX Classes
 90
        0
 91
        1
280
     0
281
     0
  0
CLASS
  1
LAYER_INDEX
  2
AcDbLayerIndex
  3
ObjectDBX Classes
 90
        0
 91
        0
280
     0
281
     0
  0
CLASS
  1
SPATIAL_INDEX
  2
AcDbSpatialIndex
  3
ObjectDBX Classes
 90
        0
 91
        0
280
     0
281
     0
  0
CLASS
  1
OBJECT_PTR
  2
CAseDLPNTableRecord
  3
ASE-LPNTableRecord
 90
        1
 91
        0
280
     0
281
     0
  0
CLASS
  1
PLOTSETTINGS
  2
AcDbPlotSettings
  3
ObjectDBX Classes
 90
        0
 91
        0
280
     0
281
     0
  0
CLASS
  1
ACDBDICTIONARYWDFLT
  2
AcDbDictionaryWithDefault
  3
ObjectDBX Classes
 90
        0
 91
        1
280
     0
281
     0
  0
CLASS
  1
WIPEOUT
  2
AcDbWipeout
  3
"WipeOut|Product Desc: Object Enabler for WipeOut entity                        |Company: Autodesk, Inc.                        |WEB Address: www.autodesk.com"
 90
     2175
 91
        0
280
     0
281
     1
  0
CLASS
  1
WIPEOUTVARIABLES
  2
AcDbWipeoutVariables
  3
"WipeOut|Product Desc:     WipeOut Dbx Application|Company:          Autodesk, Inc.|WEB Address:      www.autodesk.com"
 90
        0
 91
        1
280
     0
281
     0
  0
CLASS
  1
RTEXT
  2
RText
  3
RText|AutoCAD Express Tool|expresstools@autodesk.com
 90
        0
 91
        0
280
     0
281
     1
  0
CLASS
  1
ARCALIGNEDTEXT
  2
AcDbArcAlignedText
  3
ATEXT|AutoCAD Express Tool|expresstools@autodesk.com
 90
        0
 91
        0
280
     0
281
     1
  0
CLASS
  1
MATERIAL
  2
AcDbMaterial
  3
ObjectDBX Classes
 90
     1153
 91
        3
280
     0
281
     0
  0
CLASS
  1
VISUALSTYLE
  2
AcDbVisualStyle
  3
ObjectDBX Classes
 90
     4095
 91
       16
280
     0
281
     0
  0
CLASS
  1
TABLESTYLE
  2
AcDbTableStyle
  3
ObjectDBX Classes
 90
     4095
 91
        1
280
     0
281
     0
  0
CLASS
  1
SCALE
  2
AcDbScale
  3
ObjectDBX Classes
 90
     1153
 91
       15
280
     0
281
     0
  0
CLASS
  1
MLEADERSTYLE
  2
AcDbMLeaderStyle
  3
ACDB_MLEADERSTYLE_CLASS
 90
     4095
 91
        1
280
     0
281
     0
  0
CLASS
  1
AEC_REFEDIT_STATUS_TRACKER
  2
AecDbRefEditStatusTracker
  3
AecArchBase50|Product Desc: Autodesk Architectural Desktop 2007 |Company: Autodesk,Inc. |WEB Address: www.autodesk.com
 90
      129
 91
        1
280
     0
281
     0
  0
CLASS
  1
NPOCOLLECTION
  2
AcDbImpNonPersistentObjectsCollection
  3
ObjectDBX Classes
 90
     1153
 91
        1
280
     0
281
     0
  0
CLASS
  1
CELLSTYLEMAP
  2
AcDbCellStyleMap
  3
ObjectDBX Classes
 90
     1152
 91
        2
280
     0
281
     0
  0
ENDSEC
  0
SECTION
  2
TABLES
  0
TABLE
  2
VPORT
  5
7
330
0
100
AcDbSymbolTable
 70
     1
  0
VPORT
  5
15
330
7
100
AcDbSymbolTableRecord
100
AcDbViewportTableRecord
  2
*ACTIVE
 70
     0
 10
0.0
 20
0.0
 11
1.0
 21
1.0
 12
13.28065635736906
 22
4.579183999999999
 13
0.0
 23
0.0
 14
1.0
 24
1.0
 15
0.0
 25
0.0
 16
0.0
 26
0.0
 36
1.0
 17
0.0
 27
0.0
 37
0.0
 40
9.158369
 41
2.149384885764499
 42
50.0
 43
0.0
 44
0.0
 50
0.0
 51
0.0
 71
     0
 72
   100
 73
     1
 74
     1
 75
     0
 76
     0
 77
     0
 78
     0
281
     0
 65
     0
110
0.0
120
0.0
130
0.0
111
1.0
121
0.0
131
0.0
112
0.0
122
1.0
132
0.0
 79
     0
146
0.0
  0
ENDTAB
  0
TABLE
  2
LTYPE
  5
4
330
0
100
AcDbSymbolTable
 70
     5
  0
LTYPE
  5
11
330
4
100
AcDbSymbolTableRecord
100
AcDbLinetypeTableRecord
  2
ByBlock
 70
     0
  3

 72
    65
 73
     0
 40
0.0
  0
LTYPE
  5
12
330
4
100
AcDbSymbolTableRecord
100
AcDbLinetypeTableRecord
  2
ByLayer
 70
     0
  3

 72
    65
 73
     0
 40
0.0
  0
LTYPE
  5
13
330
4
100
AcDbSymbolTableRecord
100
AcDbLinetypeTableRecord
  2
Continuous
 70
     0
  3
Solid line
 72
    65
 73
     0
 40
0.0
  0
LTYPE
  5
24
330
4
100
AcDbSymbolTableRecord
100
AcDbLinetypeTableRecord
  2
solid
 70
     0
  3

 72
    65
 73
     0
 40
0.0
  0
LTYPE
  5
25
330
4
100
AcDbSymbolTableRecord
100
AcDbLinetypeTableRecord
  2
dashed
 70
     0
  3

 72
    65
 73
     0
 40
0.0
  0
LTYPE
  5
26
330
4
100
AcDbSymbolTableRecord
100
AcDbLinetypeTableRecord
  2
center
 70
     0
  3

 72
    65
 73
     0
 40
0.0
  0
ENDTAB
  0
TABLE
  2
LAYER
  5
2
330
0
100
AcDbSymbolTable
 70
     2
  0
LAYER
  5
14
102
{ACAD_XDICTIONARY
360
139
102
}
330
2
100
AcDbSymbolTableRecord
100
AcDbLayerTableRecord
  2
0
 70
     0
 62
     7
  6
Continuous
370
    -3
390
1D
  0
LAYER
  5
27
102
{ACAD_XDICTIONARY
360
13B
102
}
330
2
100
AcDbSymbolTableRecord
100
AcDbLayerTableRecord
  2
1
 70
     0
 62
     1
  6
solid
370
    -3
390
1D
  0
ENDTAB
  0
TABLE
  2
STYLE
  5
3
330
0
100
AcDbSymbolTable
 70
     2
  0
STYLE
  5
17
330
3
100
AcDbSymbolTableRecord
100
AcDbTextStyleTableRecord
  2
Standard
 70
     0
 40
0.0
 41
1.0
 50
0.0
 71
     0
 42
0.0
  3
txt
  4

  0
ENDTAB
  0
TABLE
  2
VIEW
  5
5
330
0
100
AcDbSymbolTable
 70
     0
  0
ENDTAB
  0
TABLE
  2
UCS
  5
6
330
0
100
AcDbSymbolTable
 70
     0
  0
ENDTAB
  0
TABLE
  2
APPID
  5
8
330
0
100
AcDbSymbolTable
 70
     5
  0
APPID
  5
16
330
8
100
AcDbSymbolTableRecord
100
AcDbRegAppTableRecord
  2
ACAD
 70
     0
  0
APPID
  5
118
330
8
100
AcDbSymbolTableRecord
100
AcDbRegAppTableRecord
  2
ACAD_PSEXT
 70
     0
  0
APPID
  5
130
330
8
100
AcDbSymbolTableRecord
100
AcDbRegAppTableRecord
  2
ACAD_MLEADERVER
 70
     0
  0
APPID
  5
138
330
8
100
AcDbSymbolTableRecord
100
AcDbRegAppTableRecord
  2
ACAD_EXEMPT_FROM_CAD_STANDARDS
 70
     0
  0
APPID
  5
160
330
8
100
AcDbSymbolTableRecord
100
AcDbRegAppTableRecord
  2
DCO15
 70
     0
  0
ENDTAB
  0
TABLE
  2
DIMSTYLE
  5
9
330
0
100
AcDbSymbolTable
 70
     3
100
AcDbDimStyleTable
 71
     1
340
18
  0
DIMSTYLE
105
18
330
9
100
AcDbSymbolTableRecord
100
AcDbDimStyleTableRecord
  2
Standard
 70
     0
289
     0
340
17
  0
ENDTAB
  0
TABLE
  2
BLOCK_RECORD
  5
1
330
0
100
AcDbSymbolTable
 70
     4
  0
BLOCK_RECORD
  5
A
102
{ACAD_XDICTIONARY
360
14E
102
}
330
1
100
AcDbSymbolTableRecord
100
AcDbBlockTableRecord
  2
*MODEL_SPACE
340
20
  0
BLOCK_RECORD
  5
B
330
1
100
AcDbSymbolTableRecord
100
AcDbBlockTableRecord
  2
*PAPER_SPACE
340
21
  0
BLOCK_RECORD
  5
E4
330
1
100
AcDbSymbolTableRecord
100
AcDbBlockTableRecord
  2
*D0
340
0
  0
BLOCK_RECORD
  5
EF
330
1
100
AcDbSymbolTableRecord
100
AcDbBlockTableRecord
  2
*D1
340
0
  0
ENDTAB
  0
ENDSEC
  0
SECTION
  2
BLOCKS
  0
BLOCK
  5
D
330
A
100
AcDbEntity
  8
0
100
AcDbBlockBegin
  2
*MODEL_SPACE
 70
     0
 10
0.0
 20
0.0
 30
0.0
  3
*MODEL_SPACE
  1

  0
ENDBLK
  5
E
330
A
100
AcDbEntity
  8
0
100
AcDbBlockEnd
  0
BLOCK
  5
F
330
B
100
AcDbEntity
 67
     1
  8
0
100
AcDbBlockBegin
  2
*PAPER_SPACE
 70
     0
 10
0.0
 20
0.0
 30
0.0
  3
*PAPER_SPACE
  1

  0
ENDBLK
  5
10
330
B
100
AcDbEntity
 67
     1
  8
0
100
AcDbBlockEnd
  0
BLOCK
  5
E5
330
E4
100
AcDbEntity
  8
1
  6
solid
 62
     7
100
AcDbBlockBegin
  2
*D0
 70
     0
 10
0.0
 20
0.0
 30
0.0
  3
*D0
  1

  0
LINE
  5
E6
330
E4
100
AcDbEntity
  8
1
  6
solid
 62
     7
100
AcDbLine
 10
-1.777541271223805
 20
1.454226838606768
 30
0.0
 11
-1.777541271223805
 21
1.454226838606768
 31
0.0
  0
LINE
  5
E7
330
E4
100
AcDbEntity
  8
1
  6
solid
 62
     7
100
AcDbLine
 10
1.243805536256052
 20
5.751703368681841
 30
0.0
 11
-1.810224200811411
 21
5.751703368681843
 31
0.0
  0
LINE
  5
E8
330
E4
100
AcDbEntity
  8
1
  6
solid
 62
     7
100
AcDbLine
 10
-1.747724200811415
 20
1.454226838606768
 30
0.0
 11
-1.747724200811413
 21
3.443092507490459
 31
0.0
  0
LINE
  5
E9
330
E4
100
AcDbEntity
  8
1
  6
solid
 62
     7
100
AcDbLine
 10
-1.747724200811411
 20
5.751703368681843
 30
0.0
 11
-1.747724200811413
 21
3.762837699798151
 31
0.0
  0
MTEXT
  5
EA
330
E4
100
AcDbEntity
  8
1
  6
solid
 62
     7
100
AcDbMText
 10
-1.747724200811413
 20
3.602965103644305
 30
0.0
 40
0.125
 41
0.0
 71
     5
 72
     1
  1
{\H0.125000;4 1/4}
 73
     1
 44
1.0
  0
SOLID
  5
EB
330
E4
100
AcDbEntity
  8
1
  6
solid
 62
     7
100
AcDbTrace
 10
-1.768536700811415
 20
1.579226838606768
 30
0.0
 11
-1.726911700811414
 21
1.579226838606768
 31
0.0
 12
-1.747724200811415
 22
1.454226838606768
 32
0.0
 13
-1.747724200811415
 23
1.454226838606768
 33
0.0
  0
SOLID
  5
EC
330
E4
100
AcDbEntity
  8
1
  6
solid
 62
     7
100
AcDbTrace
 10
-1.726911700811412
 20
5.626703368681843
 30
0.0
 11
-1.768536700811412
 21
5.626703368681843
 31
0.0
 12
-1.747724200811411
 22
5.751703368681843
 32
0.0
 13
-1.747724200811411
 23
5.751703368681843
 33
0.0
  0
ENDBLK
  5
ED
330
E4
100
AcDbEntity
  8
1
  6
solid
 62
     7
100
AcDbBlockEnd
  0
BLOCK
  5
F0
330
EF
100
AcDbEntity
  8
1
  6
solid
 62
     7
100
AcDbBlockBegin
  2
*D1
 70
     0
 10
0.0
 20
0.0
 30
0.0
  3
*D1
  1

  0
LINE
  5
F1
330
EF
100
AcDbEntity
  8
1
  6
solid
 62
     7
100
AcDbLine
 10
-1.652541271223805
 20
2.090564595717364
 30
0.0
 11
-1.652541271223805
 21
5.952118487622836
 31
0.0
  0
LINE
  5
F2
330
EF
100
AcDbEntity
  8
1
  6
solid
 62
     7
100
AcDbLine
 10
1.97682774923823
 20
5.876703368681841
 30
0.0
 11
1.97682774923823
 21
5.952118487622836
 31
0.0
  0
LINE
  5
F3
330
EF
100
AcDbEntity
  8
1
  6
solid
 62
     7
100
AcDbLine
 10
-1.652541271223805
 20
5.889618487622836
 30
0.0
 11
-0.1025773492280813
 21
5.889618487622836
 31
0.0
  0
LINE
  5
F4
330
EF
100
AcDbEntity
  8
1
  6
solid
 62
     7
100
AcDbLine
 10
1.97682774923823
 20
5.889618487622836
 30
0.0
 11
0.4268638272425065
 21
5.889618487622836
 31
0.0
  0
MTEXT
  5
F5
330
EF
100
AcDbEntity
  8
1
  6
solid
 62
     7
100
AcDbMText
 10
0.1621432390072126
 20
5.889618487622836
 30
0.0
 40
0.125
 41
0.0
 71
     5
 72
     1
  1
{\H0.125000;3 5/8}
 73
     1
 44
1.0
  0
SOLID
  5
F6
330
EF
100
AcDbEntity
  8
1
  6
solid
 62
     7
100
AcDbTrace
 10
-1.527541271223805
 20
5.910430987622836
 30
0.0
 11
-1.527541271223805
 21
5.868805987622836
 31
0.0
 12
-1.652541271223805
 22
5.889618487622836
 32
0.0
 13
-1.652541271223805
 23
5.889618487622836
 33
0.0
  0
SOLID
  5
F7
330
EF
100
AcDbEntity
  8
1
  6
solid
 62
     7
100
AcDbTrace
 10
1.85182774923823
 20
5.868805987622836
 30
0.0
 11
1.85182774923823
 21
5.910430987622836
 31
0.0
 12
1.97682774923823
 22
5.889618487622836
 32
0.0
 13
1.97682774923823
 23
5.889618487622836
 33
0.0
  0
ENDBLK
  5
F8
330
EF
100
AcDbEntity
  8
1
  6
solid
 62
     7
100
AcDbBlockEnd
  0
ENDSEC
  0
SECTION
  2
ENTITIES
  0
LINE
  5
28
330
A
100
AcDbEntity
  8
1
  6
solid
 62
     7
100
AcDbLine
 10
1.958874500510849
 20
1.343606651417139
 30
0.0
 11
2.543540182045941
 21
1.343606651417139
 31
0.0
  0
LINE
  5
29
330
A
100
AcDbEntity
  8
1
  6
solid
 62
     7
100
AcDbLine
 10
1.958874500558817
 20
1.343606651417139
 30
0.0
 11
1.958874500558817
 21
1.85494428787279
 31
0.0
  0
LINE
  5
2A
330
A
100
AcDbEntity
  8
1
  6
solid
 62
     7
100
AcDbLine
 10
2.543540186558818
 20
1.343606686626563
 30
0.0
 11
2.543540186558818
 21
1.737199753487793
 31
0.0
  0
LINE
  5
2B
330
A
100
AcDbEntity
  8
1
  6
solid
 62
     7
100
AcDbLine
 10
4.980221294246527
 20
5.64108317274429
 30
0.0
 11
1.958874500679384
 21
1.85494444373716
 31
0.0
  0
LINE
  5
2C
330
A
100
AcDbEntity
  8
1
  6
solid
 62
     7
100
AcDbLine
 10
5.588243285141777
 20
5.146578806351929
 30
0.0
 11
5.588243285141777
 21
5.641083172784316
 31
0.0
  0
LINE
  5
2D
330
A
100
AcDbEntity
  8
1
  6
solid
 62
     7
100
AcDbLine
 10
5.588243285141777
 20
5.64108317274429
 30
0.0
 11
4.980221294246527
 21
5.64108317274429
 31
0.0
  0
ARC
  5
2E
330
A
100
AcDbEntity
  8
1
  6
solid
 62
     7
100
AcDbCircle
 10
2.203207627638243
 20
3.130998004353298
 30
0.0
 40
1.434747526711944
100
AcDbArc
 50
283.7217702975276
 51
331.2681391659448
  0
ARC
  5
2F
330
A
100
AcDbEntity
  8
1
  6
solid
 62
     7
100
AcDbCircle
 10
0.3700214854515168
 20
4.471241602294715
 30
0.0
 40
3.698204618399181
100
AcDbArc
 50
326.70845028948
 51
336.9229286149168
  0
ARC
  5
30
330
A
100
AcDbEntity
  8
1
  6
solid
 62
     7
100
AcDbCircle
 10
16.48107351974433
 20
-2.104620967812256
 30
0.0
 40
13.70371984622822
100
AcDbArc
 50
153.1937151833566
 51
158.0325671321964
  0
ARC
  5
31
330
A
100
AcDbEntity
  8
1
  6
solid
 62
     7
100
AcDbCircle
 10
6.398575687078117
 20
2.920936412618691
 30
0.0
 40
2.439095455480646
100
AcDbArc
 50
125.3364412378174
 51
151.7496900487017
  0
ARC
  5
32
330
A
100
AcDbEntity
  8
1
  6
solid
 62
     7
100
AcDbCircle
 10
5.627760516972092
 20
4.164048511144493
 30
0.0
 40
0.9833246628718034
100
AcDbArc
 50
92.30318691206536
 51
130.5983220048533
  0
LINE
  5
33
330
A
100
AcDbEntity
  8
1
  6
solid
 62
     7
100
AcDbLine
 10
4.901048603460369
 20
5.306501220942053
 30
0.0
 11
4.901048603460369
 21
5.431501220942053
 31
0.0
  0
LINE
  5
34
330
A
100
AcDbEntity
  8
1
  6
solid
 62
     7
100
AcDbLine
 10
4.901048603460369
 20
5.431501220942053
 30
0.0
 11
4.925757905785951
 21
5.431501220942053
 31
0.0
  0
LINE
  5
35
330
A
100
AcDbEntity
  8
1
  6
solid
 62
     7
100
AcDbLine
 10
4.925757905785951
 20
5.431501220942053
 30
0.0
 11
4.925757905785951
 21
5.328303546523447
 31
0.0
  0
LINE
  5
36
330
A
100
AcDbEntity
  8
1
  6
solid
 62
     7
100
AcDbLine
 10
4.925757905785951
 20
5.328303546523447
 30
0.0
 11
4.988257905785951
 21
5.328303546523447
 31
0.0
  0
LINE
  5
37
330
A
100
AcDbEntity
  8
1
  6
solid
 62
     7
100
AcDbLine
 10
4.988257905785951
 20
5.328303546523447
 30
0.0
 11
4.988257905785951
 21
5.306501220942053
 31
0.0
  0
LINE
  5
38
330
A
100
AcDbEntity
  8
1
  6
solid
 62
     7
100
AcDbLine
 10
4.901048603460369
 20
5.306501220942053
 30
0.0
 11
4.988257905785951
 21
5.306501220942053
 31
0.0
  0
LINE
  5
39
330
A
100
AcDbEntity
  8
1
  6
solid
 62
     7
100
AcDbLine
 10
5.101623952297577
 20
5.306501220942053
 30
0.0
 11
5.076914649971997
 21
5.306501220942053
 31
0.0
  0
LINE
  5
3A
330
A
100
AcDbEntity
  8
1
  6
solid
 62
     7
100
AcDbLine
 10
5.076914649971997
 20
5.306501220942053
 30
0.0
 11
5.076914649971997
 21
5.395357500011821
 31
0.0
  0
SPLINE
  5
3B
330
A
100
AcDbEntity
  8
1
  6
solid
 62
     7
100
AcDbSpline
210
0.0
220
0.0
230
1.0
 70
     8
 71
     2
 72
     6
 73
     3
 74
     0
 42
0.0000000001
 43
0.0000000001
 40
0.0
 40
0.0
 40
0.0
 40
1.0
 40
1.0
 40
1.0
 10
5.076914649971997
 20
5.395357500011821
 30
0.0
 10
5.063922556948742
 20
5.381194709314145
 30
0.0
 10
5.046391394158042
 20
5.374815174430423
 30
0.0
  0
LINE
  5
3C
330
A
100
AcDbEntity
  8
1
  6
solid
 62
     7
100
AcDbLine
 10
5.046391394158042
 20
5.374815174430423
 30
0.0
 11
5.046391394158042
 21
5.399524476756004
 31
0.0
  0
SPLINE
  5
3D
330
A
100
AcDbEntity
  8
1
  6
solid
 62
     7
100
AcDbSpline
210
0.0
220
0.0
230
1.0
 70
     8
 71
     2
 72
     7
 73
     4
 74
     0
 42
0.0000000001
 43
0.0000000001
 40
0.0
 40
0.0
 40
0.0
 40
1.0
 40
2.0
 40
2.0
 40
2.0
 10
5.046391394158042
 20
5.399524476756004
 30
0.0
 10
5.055573719739438
 20
5.402565406988563
 30
0.0
 10
5.077599301134787
 20
5.419917965128099
 30
0.0
 10
5.081796045320833
 20
5.431501220942053
 30
0.0
  0
LINE
  5
3E
330
A
100
AcDbEntity
  8
1
  6
solid
 62
     7
100
AcDbLine
 10
5.081796045320833
 20
5.431501220942053
 30
0.0
 11
5.101623952297577
 21
5.431501220942053
 31
0.0
  0
LINE
  5
3F
330
A
100
AcDbEntity
  8
1
  6
solid
 62
     7
100
AcDbLine
 10
5.101623952297577
 20
5.306501220942053
 30
0.0
 11
5.101623952297577
 21
5.431501220942053
 31
0.0
  0
LINE
  5
40
330
A
100
AcDbEntity
  8
1
  6
solid
 62
     7
100
AcDbLine
 10
5.129963952297577
 20
5.343002151174609
 30
0.0
 11
5.151766277878972
 21
5.345745406988563
 31
0.0
  0
SPLINE
  5
41
330
A
100
AcDbEntity
  8
1
  6
solid
 62
     7
100
AcDbSpline
210
0.0
220
0.0
230
1.0
 70
     8
 71
     2
 72
     7
 73
     4
 74
     0
 42
0.0000000001
 43
0.0000000001
 40
0.0
 40
0.0
 40
0.0
 40
1.0
 40
2.0
 40
2.0
 40
2.0
 10
5.151766277878972
 20
5.345745406988563
 30
0.0
 10
5.152480696483625
 20
5.337024476756005
 30
0.0
 10
5.163498370902228
 20
5.326850058151355
 30
0.0
 10
5.170071394158043
 20
5.326850058151355
 30
0.0
  0
SPLINE
  5
42
330
A
100
AcDbEntity
  8
1
  6
solid
 62
     7
100
AcDbSpline
210
0.0
220
0.0
230
1.0
 70
     8
 71
     2
 72
     7
 73
     4
 74
     0
 42
0.0000000001
 43
0.0000000001
 40
0.0
 40
0.0
 40
0.0
 40
1.0
 40
2.0
 40
2.0
 40
2.0
 10
5.170071394158043
 20
5.326850058151355
 30
0.0
 10
5.178301161599903
 20
5.326850058151355
 30
0.0
 10
5.189556975553391
 20
5.336464011639726
 30
0.0
 10
5.189556975553391
 20
5.346608662802518
 30
0.0
  0
SPLINE
  5
43
330
A
100
AcDbEntity
  8
1
  6
solid
 62
     7
100
AcDbSpline
210
0.0
220
0.0
230
1.0
 70
     8
 71
     2
 72
     7
 73
     4
 74
     0
 42
0.0000000001
 43
0.0000000001
 40
0.0
 40
0.0
 40
0.0
 40
1.0
 40
2.0
 40
2.0
 40
2.0
 10
5.189556975553391
 20
5.346608662802518
 30
0.0
 10
5.189556975553391
 20
5.356351453500191
 30
0.0
 10
5.179605812762693
 20
5.366094244197866
 30
0.0
 10
5.171435580204554
 20
5.366094244197866
 30
0.0
  0
SPLINE
  5
44
330
A
100
AcDbEntity
  8
1
  6
solid
 62
     7
100
AcDbSpline
210
0.0
220
0.0
230
1.0
 70
     8
 71
     2
 72
     6
 73
     3
 74
     0
 42
0.0000000001
 43
0.0000000001
 40
0.0
 40
0.0
 40
0.0
 40
1.0
 40
1.0
 40
1.0
 10
5.171435580204554
 20
5.366094244197866
 30
0.0
 10
5.161985347646416
 20
5.366094244197866
 30
0.0
 10
5.153874649971997
 20
5.357373313965308
 30
0.0
  0
LINE
  5
45
330
A
100
AcDbEntity
  8
1
  6
solid
 62
     7
100
AcDbLine
 10
5.153874649971997
 20
5.357373313965308
 30
0.0
 11
5.132870929041763
 21
5.359630523267633
 31
0.0
  0
LINE
  5
46
330
A
100
AcDbEntity
  8
1
  6
solid
 62
     7
100
AcDbLine
 10
5.132870929041763
 20
5.359630523267633
 30
0.0
 11
5.147405812762693
 21
5.43004773256996
 31
0.0
  0
LINE
  5
47
330
A
100
AcDbEntity
  8
1
  6
solid
 62
     7
100
AcDbLine
 10
5.147405812762693
 20
5.43004773256996
 30
0.0
 11
5.208452324390601
 21
5.43004773256996
 31
0.0
  0
LINE
  5
48
330
A
100
AcDbEntity
  8
1
  6
solid
 62
     7
100
AcDbLine
 10
5.208452324390601
 20
5.43004773256996
 30
0.0
 11
5.208452324390601
 21
5.405338430244377
 31
0.0
  0
LINE
  5
49
330
A
100
AcDbEntity
  8
1
  6
solid
 62
     7
100
AcDbLine
 10
5.208452324390601
 20
5.405338430244377
 30
0.0
 11
5.166881626716183
 21
5.405338430244377
 31
0.0
  0
LINE
  5
4A
330
A
100
AcDbEntity
  8
1
  6
solid
 62
     7
100
AcDbLine
 10
5.166881626716183
 20
5.405338430244377
 30
0.0
 11
5.162104417413856
 21
5.382588662802516
 31
0.0
  0
SPLINE
  5
4B
330
A
100
AcDbEntity
  8
1
  6
solid
 62
     7
100
AcDbSpline
210
0.0
220
0.0
230
1.0
 70
     8
 71
     2
 72
     6
 73
     3
 74
     0
 42
0.0000000001
 43
0.0000000001
 40
0.0
 40
0.0
 40
0.0
 40
1.0
 40
1.0
 40
1.0
 10
5.162104417413856
 20
5.382588662802516
 30
0.0
 10
5.169624882530136
 20
5.387896569779261
 30
0.0
 10
5.177368603460369
 20
5.387896569779261
 30
0.0
  0
SPLINE
  5
4C
330
A
100
AcDbEntity
  8
1
  6
solid
 62
     7
100
AcDbSpline
210
0.0
220
0.0
230
1.0
 70
     8
 71
     2
 72
     7
 73
     4
 74
     0
 42
0.0000000001
 43
0.0000000001
 40
0.0
 40
0.0
 40
0.0
 40
1.0
 40
2.0
 40
2.0
 40
2.0
 10
5.177368603460369
 20
5.387896569779261
 30
0.0
 10
5.192865812762692
 20
5.387896569779261
 30
0.0
 10
5.214266277878972
 20
5.365206337221121
 30
0.0
 10
5.214266277878972
 20
5.347481686058332
 30
0.0
  0
SPLINE
  5
4D
330
A
100
AcDbEntity
  8
1
  6
solid
 62
     7
100
AcDbSpline
210
0.0
220
0.0
230
1.0
 70
     8
 71
     2
 72
     6
 73
     3
 74
     0
 42
0.0000000001
 43
0.0000000001
 40
0.0
 40
0.0
 40
0.0
 40
1.0
 40
1.0
 40
1.0
 10
5.214266277878972
 20
5.347481686058332
 30
0.0
 10
5.214266277878972
 20
5.332693779081587
 30
0.0
 10
5.204880696483623
 20
5.320520290709493
 30
0.0
  0
SPLINE
  5
4E
330
A
100
AcDbEntity
  8
1
  6
solid
 62
     7
100
AcDbSpline
210
0.0
220
0.0
230
1.0
 70
     8
 71
     2
 72
     6
 73
     3
 74
     0
 42
0.0000000001
 43
0.0000000001
 40
0.0
 40
0.0
 40
0.0
 40
1.0
 40
1.0
 40
1.0
 10
5.204880696483623
 20
5.320520290709493
 30
0.0
 10
5.192850929041763
 20
5.305047732569959
 30
0.0
 10
5.17110813834409
 20
5.305047732569959
 30
0.0
  0
SPLINE
  5
4F
330
A
100
AcDbEntity
  8
1
  6
solid
 62
     7
100
AcDbSpline
210
0.0
220
0.0
230
1.0
 70
     8
 71
     2
 72
     7
 73
     4
 74
     0
 42
0.0000000001
 43
0.0000000001
 40
0.0
 40
0.0
 40
0.0
 40
1.0
 40
2.0
 40
2.0
 40
2.0
 10
5.17110813834409
 20
5.305047732569959
 30
0.0
 10
5.153725812762695
 20
5.305047732569959
 30
0.0
 10
5.131863952297577
 20
5.325575174430424
 30
0.0
 10
5.129963952297577
 20
5.343002151174609
 30
0.0
  0
LINE
  5
50
330
A
100
AcDbEntity
  8
1
  6
solid
 62
     7
100
AcDbLine
 10
5.242606277878973
 20
5.342838430244377
 30
0.0
 11
5.267315580204556
 21
5.345745406988563
 31
0.0
  0
SPLINE
  5
51
330
A
100
AcDbEntity
  8
1
  6
solid
 62
     7
100
AcDbSpline
210
0.0
220
0.0
230
1.0
 70
     8
 71
     2
 72
     7
 73
     4
 74
     0
 42
0.0000000001
 43
0.0000000001
 40
0.0
 40
0.0
 40
0.0
 40
1.0
 40
2.0
 40
2.0
 40
2.0
 10
5.267315580204556
 20
5.345745406988563
 30
0.0
 10
5.268000231367346
 20
5.336225872104844
 30
0.0
 10
5.277549533692927
 20
5.326850058151355
 30
0.0
 10
5.283839766251066
 20
5.326850058151355
 30
0.0
  0
SPLINE
  5
52
330
A
100
AcDbEntity
  8
1
  6
solid
 62
     7
100
AcDbSpline
210
0.0
220
0.0
230
1.0
 70
     8
 71
     2
 72
     7
 73
     4
 74
     0
 42
0.0000000001
 43
0.0000000001
 40
0.0
 40
0.0
 40
0.0
 40
1.0
 40
2.0
 40
2.0
 40
2.0
 10
5.283839766251066
 20
5.326850058151355
 30
0.0
 10
5.2909434871813
 20
5.326850058151355
 30
0.0
 10
5.300745812762695
 20
5.336493779081587
 30
0.0
 10
5.300745812762695
 20
5.345125406988563
 30
0.0
  0
SPLINE
  5
53
330
A
100
AcDbEntity
  8
1
  6
solid
 62
     7
100
AcDbSpline
210
0.0
220
0.0
230
1.0
 70
     8
 71
     2
 72
     7
 73
     4
 74
     0
 42
0.0000000001
 43
0.0000000001
 40
0.0
 40
0.0
 40
0.0
 40
1.0
 40
2.0
 40
2.0
 40
2.0
 10
5.300745812762695
 20
5.345125406988563
 30
0.0
 10
5.300745812762695
 20
5.353444476756005
 30
0.0
 10
5.292054649971998
 20
5.363187267453682
 30
0.0
 10
5.285471859274323
 20
5.363187267453682
 30
0.0
  0
SPLINE
  5
54
330
A
100
AcDbEntity
  8
1
  6
solid
 62
     7
100
AcDbSpline
210
0.0
220
0.0
230
1.0
 70
     8
 71
     2
 72
     6
 73
     3
 74
     0
 42
0.0000000001
 43
0.0000000001
 40
0.0
 40
0.0
 40
0.0
 40
1.0
 40
1.0
 40
1.0
 10
5.285471859274323
 20
5.363187267453682
 30
0.0
 10
5.281275115088277
 20
5.363187267453682
 30
0.0
 10
5.276036510437113
 20
5.361009593035076
 30
0.0
  0
LINE
  5
55
330
A
100
AcDbEntity
  8
1
  6
solid
 62
     7
100
AcDbLine
 10
5.276036510437113
 20
5.361009593035076
 30
0.0
 11
5.277981161599902
 21
5.382082616290889
 31
0.0
  0
SPLINE
  5
56
330
A
100
AcDbEntity
  8
1
  6
solid
 62
     7
100
AcDbSpline
210
0.0
220
0.0
230
1.0
 70
     8
 71
     2
 72
     7
 73
     4
 74
     0
 42
0.0000000001
 43
0.0000000001
 40
0.0
 40
0.0
 40
0.0
 40
1.0
 40
2.0
 40
2.0
 40
2.0
 10
5.277981161599902
 20
5.382082616290889
 30
0.0
 10
5.286315115088275
 20
5.381403081407168
 30
0.0
 10
5.294931859274322
 20
5.38984122094205
 30
0.0
 10
5.294931859274322
 20
5.396840755825773
 30
0.0
  0
SPLINE
  5
57
330
A
100
AcDbEntity
  8
1
  6
solid
 62
     7
100
AcDbSpline
210
0.0
220
0.0
230
1.0
 70
     8
 71
     2
 72
     7
 73
     4
 74
     0
 42
0.0000000001
 43
0.0000000001
 40
0.0
 40
0.0
 40
0.0
 40
1.0
 40
2.0
 40
2.0
 40
2.0
 10
5.294931859274322
 20
5.396840755825773
 30
0.0
 10
5.294931859274322
 20
5.402654709314146
 30
0.0
 10
5.288304417413858
 20
5.409698895360657
 30
0.0
 10
5.283393254623161
 20
5.409698895360657
 30
0.0
  0
SPLINE
  5
58
330
A
100
AcDbEntity
  8
1
  6
solid
 62
     7
100
AcDbSpline
210
0.0
220
0.0
230
1.0
 70
     8
 71
     2
 72
     7
 73
     4
 74
     0
 42
0.0000000001
 43
0.0000000001
 40
0.0
 40
0.0
 40
0.0
 40
1.0
 40
2.0
 40
2.0
 40
2.0
 10
5.283393254623161
 20
5.409698895360657
 30
0.0
 10
5.278010929041764
 20
5.409698895360657
 30
0.0
 10
5.2707434871813
 20
5.401350058151355
 30
0.0
 10
5.270222556948742
 20
5.393710523267634
 30
0.0
  0
LINE
  5
59
330
A
100
AcDbEntity
  8
1
  6
solid
 62
     7
100
AcDbLine
 10
5.270222556948742
 20
5.393710523267634
 30
0.0
 11
5.24551325462316
 21
5.397064011639725
 31
0.0
  0
SPLINE
  5
5A
330
A
100
AcDbEntity
  8
1
  6
solid
 62
     7
100
AcDbSpline
210
0.0
220
0.0
230
1.0
 70
     8
 71
     2
 72
     8
 73
     5
 74
     0
 42
0.0000000001
 43
0.0000000001
 40
0.0
 40
0.0
 40
0.0
 40
1.0
 40
2.0
 40
3.0
 40
3.0
 40
3.0
 10
5.24551325462316
 20
5.397064011639725
 30
0.0
 10
5.247487673227811
 20
5.408855639546704
 30
0.0
 10
5.256461626716183
 20
5.423167267453679
 30
0.0
 10
5.273159301134787
 20
5.431501220942053
 30
0.0
 10
5.28278813834409
 20
5.431501220942053
 30
0.0
  0
SPLINE
  5
5B
330
A
100
AcDbEntity
  8
1
  6
solid
 62
     7
100
AcDbSpline
210
0.0
220
0.0
230
1.0
 70
     8
 71
     2
 72
     6
 73
     3
 74
     0
 42
0.0000000001
 43
0.0000000001
 40
0.0
 40
0.0
 40
0.0
 40
1.0
 40
1.0
 40
1.0
 10
5.28278813834409
 20
5.431501220942053
 30
0.0
 10
5.300140696483626
 20
5.431501220942053
 30
0.0
 10
5.310994649971997
 20
5.420066802337402
 30
0.0
  0
SPLINE
  5
5C
330
A
100
AcDbEntity
  8
1
  6
solid
 62
     7
100
AcDbSpline
210
0.0
220
0.0
230
1.0
 70
     8
 71
     2
 72
     6
 73
     3
 74
     0
 42
0.0000000001
 43
0.0000000001
 40
0.0
 40
0.0
 40
0.0
 40
1.0
 40
1.0
 40
1.0
 10
5.310994649971997
 20
5.420066802337402
 30
0.0
 10
5.319641161599903
 20
5.41048773256996
 30
0.0
 10
5.319641161599903
 20
5.398844941872285
 30
0.0
  0
SPLINE
  5
5D
330
A
100
AcDbEntity
  8
1
  6
solid
 62
     7
100
AcDbSpline
210
0.0
220
0.0
230
1.0
 70
     8
 71
     2
 72
     6
 73
     3
 74
     0
 42
0.0000000001
 43
0.0000000001
 40
0.0
 40
0.0
 40
0.0
 40
1.0
 40
1.0
 40
1.0
 10
5.319641161599903
 20
5.398844941872285
 30
0.0
 10
5.319641161599903
 20
5.382469593035075
 30
0.0
 10
5.301013719739438
 20
5.372503546523447
 30
0.0
  0
SPLINE
  5
5E
330
A
100
AcDbEntity
  8
1
  6
solid
 62
     7
100
AcDbSpline
210
0.0
220
0.0
230
1.0
 70
     8
 71
     2
 72
     7
 73
     4
 74
     0
 42
0.0000000001
 43
0.0000000001
 40
0.0
 40
0.0
 40
0.0
 40
1.0
 40
2.0
 40
2.0
 40
2.0
 10
5.301013719739438
 20
5.372503546523447
 30
0.0
 10
5.31176860346037
 20
5.370529127918794
 30
0.0
 10
5.325455115088277
 20
5.354749127918797
 30
0.0
 10
5.325455115088277
 20
5.343478430244378
 30
0.0
  0
SPLINE
  5
5F
330
A
100
AcDbEntity
  8
1
  6
solid
 62
     7
100
AcDbSpline
210
0.0
220
0.0
230
1.0
 70
     8
 71
     2
 72
     7
 73
     4
 74
     0
 42
0.0000000001
 43
0.0000000001
 40
0.0
 40
0.0
 40
0.0
 40
1.0
 40
2.0
 40
2.0
 40
2.0
 10
5.325455115088277
 20
5.343478430244378
 30
0.0
 10
5.325455115088277
 20
5.327415639546702
 30
0.0
 10
5.301222091832463
 20
5.305047732569959
 30
0.0
 10
5.283497440669671
 20
5.305047732569959
 30
0.0
  0
SPLINE
  5
60
330
A
100
AcDbEntity
  8
1
  6
solid
 62
     7
100
AcDbSpline
210
0.0
220
0.0
230
1.0
 70
     8
 71
     2
 72
     7
 73
     4
 74
     0
 42
0.0000000001
 43
0.0000000001
 40
0.0
 40
0.0
 40
0.0
 40
1.0
 40
2.0
 40
2.0
 40
2.0
 10
5.283497440669671
 20
5.305047732569959
 30
0.0
 10
5.26639790578595
 20
5.305047732569959
 30
0.0
 10
5.244283022065021
 20
5.325753779081587
 30
0.0
 10
5.242606277878973
 20
5.342838430244377
 30
0.0
  0
LINE
  5
61
330
A
100
AcDbEntity
  8
1
  6
solid
 62
     7
100
AcDbLine
 10
4.815312537569419
 20
5.162386005180373
 30
0.0
 11
4.796780560825233
 21
5.162386005180373
 31
0.0
  0
LINE
  5
62
330
A
100
AcDbEntity
  8
1
  6
solid
 62
     7
100
AcDbLine
 10
4.796780560825233
 20
5.162386005180373
 30
0.0
 11
4.796780560825233
 21
5.229028214482698
 31
0.0
  0
SPLINE
  5
63
330
A
100
AcDbEntity
  8
1
  6
solid
 62
     7
100
AcDbSpline
210
0.0
220
0.0
230
1.0
 70
     8
 71
     2
 72
     6
 73
     3
 74
     0
 42
0.0000000001
 43
0.0000000001
 40
0.0
 40
0.0
 40
0.0
 40
1.0
 40
1.0
 40
1.0
 10
4.796780560825233
 20
5.229028214482698
 30
0.0
 10
4.787036491057793
 20
5.218406121459443
 30
0.0
 10
4.773888118964769
 20
5.213621470296652
 30
0.0
  0
LINE
  5
64
330
A
100
AcDbEntity
  8
1
  6
solid
 62
     7
100
AcDbLine
 10
4.773888118964769
 20
5.213621470296652
 30
0.0
 11
4.773888118964769
 21
5.232153447040838
 31
0.0
  0
SPLINE
  5
65
330
A
100
AcDbEntity
  8
1
  6
solid
 62
     7
100
AcDbSpline
210
0.0
220
0.0
230
1.0
 70
     8
 71
     2
 72
     7
 73
     4
 74
     0
 42
0.0000000001
 43
0.0000000001
 40
0.0
 40
0.0
 40
0.0
 40
1.0
 40
2.0
 40
2.0
 40
2.0
 10
4.773888118964769
 20
5.232153447040838
 30
0.0
 10
4.780774863150815
 20
5.234434144715256
 30
0.0
 10
4.797294049197327
 20
5.247448563319908
 30
0.0
 10
4.800441607336861
 20
5.256136005180373
 30
0.0
  0
LINE
  5
66
330
A
100
AcDbEntity
  8
1
  6
solid
 62
     7
100
AcDbLine
 10
4.800441607336861
 20
5.256136005180373
 30
0.0
 11
4.815312537569419
 21
5.256136005180373
 31
0.0
  0
LINE
  5
67
330
A
100
AcDbEntity
  8
1
  6
solid
 62
     7
100
AcDbLine
 10
4.815312537569419
 20
5.162386005180373
 30
0.0
 11
4.815312537569419
 21
5.256136005180373
 31
0.0
  0
LINE
  5
68
330
A
100
AcDbEntity
  8
1
  6
solid
 62
     7
100
AcDbLine
 10
4.873176956174071
 20
5.162386005180373
 30
0.0
 11
4.854644979429884
 21
5.162386005180373
 31
0.0
  0
LINE
  5
69
330
A
100
AcDbEntity
  8
1
  6
solid
 62
     7
100
AcDbLine
 10
4.854644979429884
 20
5.162386005180373
 30
0.0
 11
4.854644979429884
 21
5.229028214482698
 31
0.0
  0
SPLINE
  5
6A
330
A
100
AcDbEntity
  8
1
  6
solid
 62
     7
100
AcDbSpline
210
0.0
220
0.0
230
1.0
 70
     8
 71
     2
 72
     6
 73
     3
 74
     0
 42
0.0000000001
 43
0.0000000001
 40
0.0
 40
0.0
 40
0.0
 40
1.0
 40
1.0
 40
1.0
 10
4.854644979429884
 20
5.229028214482698
 30
0.0
 10
4.844900909662443
 20
5.218406121459443
 30
0.0
 10
4.831752537569419
 20
5.213621470296652
 30
0.0
  0
LINE
  5
6B
330
A
100
AcDbEntity
  8
1
  6
solid
 62
     7
100
AcDbLine
 10
4.831752537569419
 20
5.213621470296652
 30
0.0
 11
4.831752537569419
 21
5.232153447040838
 31
0.0
  0
SPLINE
  5
6C
330
A
100
AcDbEntity
  8
1
  6
solid
 62
     7
100
AcDbSpline
210
0.0
220
0.0
230
1.0
 70
     8
 71
     2
 72
     7
 73
     4
 74
     0
 42
0.0000000001
 43
0.0000000001
 40
0.0
 40
0.0
 40
0.0
 40
1.0
 40
2.0
 40
2.0
 40
2.0
 10
4.831752537569419
 20
5.232153447040838
 30
0.0
 10
4.838639281755465
 20
5.234434144715256
 30
0.0
 10
4.855158467801978
 20
5.247448563319908
 30
0.0
 10
4.858306025941512
 20
5.256136005180373
 30
0.0
  0
LINE
  5
6D
330
A
100
AcDbEntity
  8
1
  6
solid
 62
     7
100
AcDbLine
 10
4.858306025941512
 20
5.256136005180373
 30
0.0
 11
4.873176956174071
 21
5.256136005180373
 31
0.0
  0
LINE
  5
6E
330
A
100
AcDbEntity
  8
1
  6
solid
 62
     7
100
AcDbLine
 10
4.873176956174071
 20
5.162386005180373
 30
0.0
 11
4.873176956174071
 21
5.256136005180373
 31
0.0
  0
LINE
  5
6F
330
A
100
AcDbEntity
  8
1
  6
solid
 62
     7
100
AcDbLine
 10
4.888995677104303
 20
5.162386005180373
 30
0.0
 11
4.910809165476396
 21
5.256136005180373
 31
0.0
  0
LINE
  5
70
330
A
100
AcDbEntity
  8
1
  6
solid
 62
     7
100
AcDbLine
 10
4.910809165476396
 20
5.256136005180373
 30
0.0
 11
4.925590793383372
 21
5.256136005180373
 31
0.0
  0
LINE
  5
71
330
A
100
AcDbEntity
  8
1
  6
solid
 62
     7
100
AcDbLine
 10
4.925590793383372
 20
5.256136005180373
 30
0.0
 11
4.903788467801978
 21
5.162386005180373
 31
0.0
  0
LINE
  5
72
330
A
100
AcDbEntity
  8
1
  6
solid
 62
     7
100
AcDbLine
 10
4.888995677104303
 20
5.162386005180373
 30
0.0
 11
4.903788467801978
 21
5.162386005180373
 31
0.0
  0
LINE
  5
73
330
A
100
AcDbEntity
  8
1
  6
solid
 62
     7
100
AcDbLine
 10
4.983455211988023
 20
5.162386005180373
 30
0.0
 11
4.964923235243837
 21
5.162386005180373
 31
0.0
  0
LINE
  5
74
330
A
100
AcDbEntity
  8
1
  6
solid
 62
     7
100
AcDbLine
 10
4.964923235243837
 20
5.162386005180373
 30
0.0
 11
4.964923235243837
 21
5.229028214482698
 31
0.0
  0
SPLINE
  5
75
330
A
100
AcDbEntity
  8
1
  6
solid
 62
     7
100
AcDbSpline
210
0.0
220
0.0
230
1.0
 70
     8
 71
     2
 72
     6
 73
     3
 74
     0
 42
0.0000000001
 43
0.0000000001
 40
0.0
 40
0.0
 40
0.0
 40
1.0
 40
1.0
 40
1.0
 10
4.964923235243837
 20
5.229028214482698
 30
0.0
 10
4.955179165476396
 20
5.218406121459443
 30
0.0
 10
4.942030793383374
 20
5.213621470296652
 30
0.0
  0
LINE
  5
76
330
A
100
AcDbEntity
  8
1
  6
solid
 62
     7
100
AcDbLine
 10
4.942030793383374
 20
5.213621470296652
 30
0.0
 11
4.942030793383374
 21
5.232153447040838
 31
0.0
  0
SPLINE
  5
77
330
A
100
AcDbEntity
  8
1
  6
solid
 62
     7
100
AcDbSpline
210
0.0
220
0.0
230
1.0
 70
     8
 71
     2
 72
     7
 73
     4
 74
     0
 42
0.0000000001
 43
0.0000000001
 40
0.0
 40
0.0
 40
0.0
 40
1.0
 40
2.0
 40
2.0
 40
2.0
 10
4.942030793383374
 20
5.232153447040838
 30
0.0
 10
4.948917537569418
 20
5.234434144715256
 30
0.0
 10
4.965436723615932
 20
5.247448563319908
 30
0.0
 10
4.968584281755465
 20
5.256136005180373
 30
0.0
  0
LINE
  5
78
330
A
100
AcDbEntity
  8
1
  6
solid
 62
     7
100
AcDbLine
 10
4.968584281755465
 20
5.256136005180373
 30
0.0
 11
4.983455211988023
 21
5.256136005180373
 31
0.0
  0
LINE
  5
79
330
A
100
AcDbEntity
  8
1
  6
solid
 62
     7
100
AcDbLine
 10
4.983455211988023
 20
5.162386005180373
 30
0.0
 11
4.983455211988023
 21
5.256136005180373
 31
0.0
  0
LINE
  5
7A
330
A
100
AcDbEntity
  8
1
  6
solid
 62
     7
100
AcDbLine
 10
5.059851607336861
 20
5.230564842389674
 30
0.0
 11
5.041319630592675
 21
5.228883098203628
 31
0.0
  0
SPLINE
  5
7B
330
A
100
AcDbEntity
  8
1
  6
solid
 62
     7
100
AcDbSpline
210
0.0
220
0.0
230
1.0
 70
     8
 71
     2
 72
     7
 73
     4
 74
     0
 42
0.0000000001
 43
0.0000000001
 40
0.0
 40
0.0
 40
0.0
 40
1.0
 40
2.0
 40
2.0
 40
2.0
 10
5.041319630592675
 20
5.228883098203628
 30
0.0
 10
5.040530909662443
 20
5.234422981924558
 30
0.0
 10
5.035214281755465
 20
5.239784260994325
 30
0.0
 10
5.030965444546164
 20
5.239784260994325
 30
0.0
  0
SPLINE
  5
7C
330
A
100
AcDbEntity
  8
1
  6
solid
 62
     7
100
AcDbSpline
210
0.0
220
0.0
230
1.0
 70
     8
 71
     2
 72
     7
 73
     4
 74
     0
 42
0.0000000001
 43
0.0000000001
 40
0.0
 40
0.0
 40
0.0
 40
1.0
 40
2.0
 40
2.0
 40
2.0
 10
5.030965444546164
 20
5.239784260994325
 30
0.0
 10
5.025447886406628
 20
5.239784260994325
 30
0.0
 10
5.017783584081048
 20
5.228905423785024
 30
0.0
 10
5.016749281755465
 20
5.211965888901301
 30
0.0
  0
SPLINE
  5
7D
330
A
100
AcDbEntity
  8
1
  6
solid
 62
     7
100
AcDbSpline
210
0.0
220
0.0
230
1.0
 70
     8
 71
     2
 72
     6
 73
     3
 74
     0
 42
0.0000000001
 43
0.0000000001
 40
0.0
 40
0.0
 40
0.0
 40
1.0
 40
1.0
 40
1.0
 10
5.016749281755465
 20
5.211965888901301
 30
0.0
 10
5.023877770127558
 20
5.220162167971071
 30
0.0
 10
5.033956723615931
 20
5.220162167971071
 30
0.0
  0
SPLINE
  5
7E
330
A
100
AcDbEntity
  8
1
  6
solid
 62
     7
100
AcDbSpline
210
0.0
220
0.0
230
1.0
 70
     8
 71
     2
 72
     7
 73
     4
 74
     0
 42
0.0000000001
 43
0.0000000001
 40
0.0
 40
0.0
 40
0.0
 40
1.0
 40
2.0
 40
2.0
 40
2.0
 10
5.033956723615931
 20
5.220162167971071
 30
0.0
 10
5.045259746871744
 20
5.220162167971071
 30
0.0
 10
5.062031839895
 20
5.203944377273396
 30
0.0
 10
5.062031839895
 20
5.191063912157116
 30
0.0
  0
SPLINE
  5
7F
330
A
100
AcDbEntity
  8
1
  6
solid
 62
     7
100
AcDbSpline
210
0.0
220
0.0
230
1.0
 70
     8
 71
     2
 72
     7
 73
     4
 74
     0
 42
0.0000000001
 43
0.0000000001
 40
0.0
 40
0.0
 40
0.0
 40
1.0
 40
2.0
 40
2.0
 40
2.0
 10
5.062031839895
 20
5.191063912157116
 30
0.0
 10
5.062031839895
 20
5.177669958668745
 30
0.0
 10
5.045036491057791
 20
5.161295888901302
 30
0.0
 10
5.031921607336862
 20
5.161295888901302
 30
0.0
  0
SPLINE
  5
80
330
A
100
AcDbEntity
  8
1
  6
solid
 62
     7
100
AcDbSpline
210
0.0
220
0.0
230
1.0
 70
     8
 71
     2
 72
     7
 73
     4
 74
     0
 42
0.0000000001
 43
0.0000000001
 40
0.0
 40
0.0
 40
0.0
 40
1.0
 40
2.0
 40
2.0
 40
2.0
 10
5.031921607336862
 20
5.161295888901302
 30
0.0
 10
5.017805909662443
 20
5.161295888901302
 30
0.0
 10
4.999895211988023
 20
5.183131702854791
 30
0.0
 10
4.999895211988023
 20
5.207717051692001
 30
0.0
  0
SPLINE
  5
81
330
A
100
AcDbEntity
  8
1
  6
solid
 62
     7
100
AcDbSpline
210
0.0
220
0.0
230
1.0
 70
     8
 71
     2
 72
     7
 73
     4
 74
     0
 42
0.0000000001
 43
0.0000000001
 40
0.0
 40
0.0
 40
0.0
 40
1.0
 40
2.0
 40
2.0
 40
2.0
 10
4.999895211988023
 20
5.207717051692001
 30
0.0
 10
4.999895211988023
 20
5.233466819133861
 30
0.0
 10
5.018583467801978
 20
5.256136005180373
 30
0.0
 10
5.033290793383374
 20
5.256136005180373
 30
0.0
  0
SPLINE
  5
82
330
A
100
AcDbEntity
  8
1
  6
solid
 62
     7
100
AcDbSpline
210
0.0
220
0.0
230
1.0
 70
     8
 71
     2
 72
     7
 73
     4
 74
     0
 42
0.0000000001
 43
0.0000000001
 40
0.0
 40
0.0
 40
0.0
 40
1.0
 40
2.0
 40
2.0
 40
2.0
 10
5.033290793383374
 20
5.256136005180373
 30
0.0
 10
5.043935211988023
 20
5.256136005180373
 30
0.0
 10
5.057861142220581
 20
5.243143912157116
 30
0.0
 10
5.059851607336861
 20
5.230564842389674
 30
0.0
  0
SPLINE
  5
83
330
A
100
AcDbEntity
  8
1
  6
solid
 62
     7
100
AcDbSpline
210
0.0
220
0.0
230
1.0
 70
     8
 71
     2
 72
     7
 73
     4
 74
     0
 42
0.0000000001
 43
0.0000000001
 40
0.0
 40
0.0
 40
0.0
 40
1.0
 40
2.0
 40
2.0
 40
2.0
 10
5.018427188732211
 20
5.19128716797107
 30
0.0
 10
5.018427188732211
 20
5.18465716797107
 30
0.0
 10
5.026381723615932
 20
5.177647633087348
 30
0.0
 10
5.031676025941512
 20
5.177647633087348
 30
0.0
  0
SPLINE
  5
84
330
A
100
AcDbEntity
  8
1
  6
solid
 62
     7
100
AcDbSpline
210
0.0
220
0.0
230
1.0
 70
     8
 71
     2
 72
     7
 73
     4
 74
     0
 42
0.0000000001
 43
0.0000000001
 40
0.0
 40
0.0
 40
0.0
 40
1.0
 40
2.0
 40
2.0
 40
2.0
 10
5.031676025941512
 20
5.177647633087348
 30
0.0
 10
5.036471839895002
 20
5.177647633087348
 30
0.0
 10
5.043499863150815
 20
5.183421935412931
 30
0.0
 10
5.043499863150815
 20
5.190118912157116
 30
0.0
  0
SPLINE
  5
85
330
A
100
AcDbEntity
  8
1
  6
solid
 62
     7
100
AcDbSpline
210
0.0
220
0.0
230
1.0
 70
     8
 71
     2
 72
     7
 73
     4
 74
     0
 42
0.0000000001
 43
0.0000000001
 40
0.0
 40
0.0
 40
0.0
 40
1.0
 40
2.0
 40
2.0
 40
2.0
 10
5.043499863150815
 20
5.190118912157116
 30
0.0
 10
5.043499863150815
 20
5.197314377273396
 30
0.0
 10
5.036136956174071
 20
5.203810423785023
 30
0.0
 10
5.030708700360118
 20
5.203810423785023
 30
0.0
  0
SPLINE
  5
86
330
A
100
AcDbEntity
  8
1
  6
solid
 62
     7
100
AcDbSpline
210
0.0
220
0.0
230
1.0
 70
     8
 71
     2
 72
     7
 73
     4
 74
     0
 42
0.0000000001
 43
0.0000000001
 40
0.0
 40
0.0
 40
0.0
 40
1.0
 40
2.0
 40
2.0
 40
2.0
 10
5.030708700360118
 20
5.203810423785023
 30
0.0
 10
5.025414398034536
 20
5.203810423785023
 30
0.0
 10
5.018427188732211
 20
5.197504144715257
 30
0.0
 10
5.018427188732211
 20
5.19128716797107
 30
0.0
  0
LINE
  5
87
330
A
100
AcDbEntity
  8
1
  6
solid
 62
     7
100
AcDbLine
 10
5.096359165476396
 20
5.162386005180373
 30
0.0
 11
5.128705444546164
 21
5.211653330761769
 31
0.0
  0
LINE
  5
88
330
A
100
AcDbEntity
  8
1
  6
solid
 62
     7
100
AcDbLine
 10
5.128705444546164
 20
5.211653330761769
 30
0.0
 11
5.099629514313607
 21
5.256136005180373
 31
0.0
  0
LINE
  5
89
330
A
100
AcDbEntity
  8
1
  6
solid
 62
     7
100
AcDbLine
 10
5.099629514313607
 20
5.256136005180373
 30
0.0
 11
5.121420677104302
 21
5.256136005180373
 31
0.0
  0
LINE
  5
8A
330
A
100
AcDbEntity
  8
1
  6
solid
 62
     7
100
AcDbLine
 10
5.121420677104302
 20
5.256136005180373
 30
0.0
 11
5.139606607336862
 21
5.228261819133861
 31
0.0
  0
LINE
  5
8B
330
A
100
AcDbEntity
  8
1
  6
solid
 62
     7
100
AcDbLine
 10
5.139606607336862
 20
5.228261819133861
 30
0.0
 11
5.157405677104303
 21
5.256136005180373
 31
0.0
  0
LINE
  5
8C
330
A
100
AcDbEntity
  8
1
  6
solid
 62
     7
100
AcDbLine
 10
5.157405677104303
 20
5.256136005180373
 30
0.0
 11
5.179208002685699
 21
5.256136005180373
 31
0.0
  0
LINE
  5
8D
330
A
100
AcDbEntity
  8
1
  6
solid
 62
     7
100
AcDbLine
 10
5.179208002685699
 20
5.256136005180373
 30
0.0
 11
5.150507770127559
 21
5.211653330761769
 31
0.0
  0
LINE
  5
8E
330
A
100
AcDbEntity
  8
1
  6
solid
 62
     7
100
AcDbLine
 10
5.150507770127559
 20
5.211653330761769
 30
0.0
 11
5.182478351522909
 21
5.162386005180373
 31
0.0
  0
LINE
  5
8F
330
A
100
AcDbEntity
  8
1
  6
solid
 62
     7
100
AcDbLine
 10
5.182478351522909
 20
5.162386005180373
 30
0.0
 11
5.160676025941512
 21
5.162386005180373
 31
0.0
  0
LINE
  5
90
330
A
100
AcDbEntity
  8
1
  6
solid
 62
     7
100
AcDbLine
 10
5.160676025941512
 20
5.162386005180373
 30
0.0
 11
5.139606607336862
 21
5.194680307505953
 31
0.0
  0
LINE
  5
91
330
A
100
AcDbEntity
  8
1
  6
solid
 62
     7
100
AcDbLine
 10
5.139606607336862
 20
5.194680307505953
 30
0.0
 11
5.118150328267094
 21
5.162386005180373
 31
0.0
  0
LINE
  5
92
330
A
100
AcDbEntity
  8
1
  6
solid
 62
     7
100
AcDbLine
 10
5.096359165476396
 20
5.162386005180373
 30
0.0
 11
5.118150328267094
 21
5.162386005180373
 31
0.0
  0
LINE
  5
93
330
A
100
AcDbEntity
  8
1
  6
solid
 62
     7
100
AcDbLine
 10
5.217181374778721
 20
5.189761702854791
 30
0.0
 11
5.233533118964769
 21
5.191819144715256
 31
0.0
  0
SPLINE
  5
94
330
A
100
AcDbEntity
  8
1
  6
solid
 62
     7
100
AcDbSpline
210
0.0
220
0.0
230
1.0
 70
     8
 71
     2
 72
     7
 73
     4
 74
     0
 42
0.0000000001
 43
0.0000000001
 40
0.0
 40
0.0
 40
0.0
 40
1.0
 40
2.0
 40
2.0
 40
2.0
 10
5.233533118964769
 20
5.191819144715256
 30
0.0
 10
5.234068932918257
 20
5.185278447040838
 30
0.0
 10
5.242332188732211
 20
5.177647633087348
 30
0.0
 10
5.247261956174072
 20
5.177647633087348
 30
0.0
  0
SPLINE
  5
95
330
A
100
AcDbEntity
  8
1
  6
solid
 62
     7
100
AcDbSpline
210
0.0
220
0.0
230
1.0
 70
     8
 71
     2
 72
     7
 73
     4
 74
     0
 42
0.0000000001
 43
0.0000000001
 40
0.0
 40
0.0
 40
0.0
 40
1.0
 40
2.0
 40
2.0
 40
2.0
 10
5.247261956174072
 20
5.177647633087348
 30
0.0
 10
5.253434281755467
 20
5.177647633087348
 30
0.0
 10
5.261876142220582
 20
5.184858098203627
 30
0.0
 10
5.261876142220582
 20
5.192466586575721
 30
0.0
  0
SPLINE
  5
96
330
A
100
AcDbEntity
  8
1
  6
solid
 62
     7
100
AcDbSpline
210
0.0
220
0.0
230
1.0
 70
     8
 71
     2
 72
     7
 73
     4
 74
     0
 42
0.0000000001
 43
0.0000000001
 40
0.0
 40
0.0
 40
0.0
 40
1.0
 40
2.0
 40
2.0
 40
2.0
 10
5.261876142220582
 20
5.192466586575721
 30
0.0
 10
5.261876142220582
 20
5.199773679598976
 30
0.0
 10
5.254412770127559
 20
5.207080772622233
 30
0.0
 10
5.248285095708954
 20
5.207080772622233
 30
0.0
  0
SPLINE
  5
97
330
A
100
AcDbEntity
  8
1
  6
solid
 62
     7
100
AcDbSpline
210
0.0
220
0.0
230
1.0
 70
     8
 71
     2
 72
     6
 73
     3
 74
     0
 42
0.0000000001
 43
0.0000000001
 40
0.0
 40
0.0
 40
0.0
 40
1.0
 40
1.0
 40
1.0
 10
5.248285095708954
 20
5.207080772622233
 30
0.0
 10
5.241197421290348
 20
5.207080772622233
 30
0.0
 10
5.235114398034537
 20
5.200540074947815
 30
0.0
  0
LINE
  5
98
330
A
100
AcDbEntity
  8
1
  6
solid
 62
     7
100
AcDbLine
 10
5.235114398034537
 20
5.200540074947815
 30
0.0
 11
5.219361607336861
 21
5.202232981924558
 31
0.0
  0
LINE
  5
99
330
A
100
AcDbEntity
  8
1
  6
solid
 62
     7
100
AcDbLine
 10
5.219361607336861
 20
5.202232981924558
 30
0.0
 11
5.230262770127559
 21
5.255045888901302
 31
0.0
  0
LINE
  5
9A
330
A
100
AcDbEntity
  8
1
  6
solid
 62
     7
100
AcDbLine
 10
5.230262770127559
 20
5.255045888901302
 30
0.0
 11
5.27604765384849
 21
5.255045888901302
 31
0.0
  0
LINE
  5
9B
330
A
100
AcDbEntity
  8
1
  6
solid
 62
     7
100
AcDbLine
 10
5.27604765384849
 20
5.255045888901302
 30
0.0
 11
5.27604765384849
 21
5.236513912157117
 31
0.0
  0
LINE
  5
9C
330
A
100
AcDbEntity
  8
1
  6
solid
 62
     7
100
AcDbLine
 10
5.27604765384849
 20
5.236513912157117
 30
0.0
 11
5.244869630592675
 21
5.236513912157117
 31
0.0
  0
LINE
  5
9D
330
A
100
AcDbEntity
  8
1
  6
solid
 62
     7
100
AcDbLine
 10
5.244869630592675
 20
5.236513912157117
 30
0.0
 11
5.241286723615932
 21
5.219451586575721
 31
0.0
  0
SPLINE
  5
9E
330
A
100
AcDbEntity
  8
1
  6
solid
 62
     7
100
AcDbSpline
210
0.0
220
0.0
230
1.0
 70
     8
 71
     2
 72
     6
 73
     3
 74
     0
 42
0.0000000001
 43
0.0000000001
 40
0.0
 40
0.0
 40
0.0
 40
1.0
 40
1.0
 40
1.0
 10
5.241286723615932
 20
5.219451586575721
 30
0.0
 10
5.246927072453141
 20
5.22343251680828
 30
0.0
 10
5.252734863150815
 20
5.22343251680828
 30
0.0
  0
SPLINE
  5
9F
330
A
100
AcDbEntity
  8
1
  6
solid
 62
     7
100
AcDbSpline
210
0.0
220
0.0
230
1.0
 70
     8
 71
     2
 72
     7
 73
     4
 74
     0
 42
0.0000000001
 43
0.0000000001
 40
0.0
 40
0.0
 40
0.0
 40
1.0
 40
2.0
 40
2.0
 40
2.0
 10
5.252734863150815
 20
5.22343251680828
 30
0.0
 10
5.264357770127559
 20
5.22343251680828
 30
0.0
 10
5.280408118964769
 20
5.206414842389675
 30
0.0
 10
5.280408118964769
 20
5.193121354017582
 30
0.0
  0
SPLINE
  5
A0
330
A
100
AcDbEntity
  8
1
  6
solid
 62
     7
100
AcDbSpline
210
0.0
220
0.0
230
1.0
 70
     8
 71
     2
 72
     6
 73
     3
 74
     0
 42
0.0000000001
 43
0.0000000001
 40
0.0
 40
0.0
 40
0.0
 40
1.0
 40
1.0
 40
1.0
 10
5.280408118964769
 20
5.193121354017582
 30
0.0
 10
5.280408118964769
 20
5.182030423785024
 30
0.0
 10
5.273368932918256
 20
5.172900307505954
 30
0.0
  0
SPLINE
  5
A1
330
A
100
AcDbEntity
  8
1
  6
solid
 62
     7
100
AcDbSpline
210
0.0
220
0.0
230
1.0
 70
     8
 71
     2
 72
     6
 73
     3
 74
     0
 42
0.0000000001
 43
0.0000000001
 40
0.0
 40
0.0
 40
0.0
 40
1.0
 40
1.0
 40
1.0
 10
5.273368932918256
 20
5.172900307505954
 30
0.0
 10
5.264346607336862
 20
5.161295888901302
 30
0.0
 10
5.248039514313606
 20
5.161295888901302
 30
0.0
  0
SPLINE
  5
A2
330
A
100
AcDbEntity
  8
1
  6
solid
 62
     7
100
AcDbSpline
210
0.0
220
0.0
230
1.0
 70
     8
 71
     2
 72
     7
 73
     4
 74
     0
 42
0.0000000001
 43
0.0000000001
 40
0.0
 40
0.0
 40
0.0
 40
1.0
 40
2.0
 40
2.0
 40
2.0
 10
5.248039514313606
 20
5.161295888901302
 30
0.0
 10
5.235002770127559
 20
5.161295888901302
 30
0.0
 10
5.218606374778722
 20
5.176691470296652
 30
0.0
 10
5.217181374778721
 20
5.189761702854791
 30
0.0
  0
LINE
  5
A3
330
A
100
AcDbEntity
  8
1
  6
solid
 62
     7
100
AcDbLine
 10
5.296848118964768
 20
5.187458679598976
 30
0.0
 11
5.296848118964768
 21
5.203810423785023
 31
0.0
  0
LINE
  5
A4
330
A
100
AcDbEntity
  8
1
  6
solid
 62
     7
100
AcDbLine
 10
5.296848118964768
 20
5.203810423785023
 30
0.0
 11
5.332821956174071
 21
5.203810423785023
 31
0.0
  0
LINE
  5
A5
330
A
100
AcDbEntity
  8
1
  6
solid
 62
     7
100
AcDbLine
 10
5.332821956174071
 20
5.203810423785023
 30
0.0
 11
5.332821956174071
 21
5.187458679598976
 31
0.0
  0
LINE
  5
A6
330
A
100
AcDbEntity
  8
1
  6
solid
 62
     7
100
AcDbLine
 10
5.296848118964768
 20
5.187458679598976
 30
0.0
 11
5.332821956174071
 21
5.187458679598976
 31
0.0
  0
LINE
  5
A7
330
A
100
AcDbEntity
  8
1
  6
solid
 62
     7
100
AcDbLine
 10
5.349261956174071
 20
5.189761702854791
 30
0.0
 11
5.365613700360118
 21
5.191819144715256
 31
0.0
  0
SPLINE
  5
A8
330
A
100
AcDbEntity
  8
1
  6
solid
 62
     7
100
AcDbSpline
210
0.0
220
0.0
230
1.0
 70
     8
 71
     2
 72
     7
 73
     4
 74
     0
 42
0.0000000001
 43
0.0000000001
 40
0.0
 40
0.0
 40
0.0
 40
1.0
 40
2.0
 40
2.0
 40
2.0
 10
5.365613700360118
 20
5.191819144715256
 30
0.0
 10
5.366149514313606
 20
5.185278447040838
 30
0.0
 10
5.374412770127559
 20
5.177647633087348
 30
0.0
 10
5.37934253756942
 20
5.177647633087348
 30
0.0
  0
SPLINE
  5
A9
330
A
100
AcDbEntity
  8
1
  6
solid
 62
     7
100
AcDbSpline
210
0.0
220
0.0
230
1.0
 70
     8
 71
     2
 72
     7
 73
     4
 74
     0
 42
0.0000000001
 43
0.0000000001
 40
0.0
 40
0.0
 40
0.0
 40
1.0
 40
2.0
 40
2.0
 40
2.0
 10
5.37934253756942
 20
5.177647633087348
 30
0.0
 10
5.385514863150816
 20
5.177647633087348
 30
0.0
 10
5.39395672361593
 20
5.184858098203627
 30
0.0
 10
5.39395672361593
 20
5.192466586575721
 30
0.0
  0
SPLINE
  5
AA
330
A
100
AcDbEntity
  8
1
  6
solid
 62
     7
100
AcDbSpline
210
0.0
220
0.0
230
1.0
 70
     8
 71
     2
 72
     7
 73
     4
 74
     0
 42
0.0000000001
 43
0.0000000001
 40
0.0
 40
0.0
 40
0.0
 40
1.0
 40
2.0
 40
2.0
 40
2.0
 10
5.39395672361593
 20
5.192466586575721
 30
0.0
 10
5.39395672361593
 20
5.199773679598976
 30
0.0
 10
5.386493351522909
 20
5.207080772622233
 30
0.0
 10
5.380365677104303
 20
5.207080772622233
 30
0.0
  0
SPLINE
  5
AB
330
A
100
AcDbEntity
  8
1
  6
solid
 62
     7
100
AcDbSpline
210
0.0
220
0.0
230
1.0
 70
     8
 71
     2
 72
     6
 73
     3
 74
     0
 42
0.0000000001
 43
0.0000000001
 40
0.0
 40
0.0
 40
0.0
 40
1.0
 40
1.0
 40
1.0
 10
5.380365677104303
 20
5.207080772622233
 30
0.0
 10
5.373278002685699
 20
5.207080772622233
 30
0.0
 10
5.367194979429886
 20
5.200540074947815
 30
0.0
  0
LINE
  5
AC
330
A
100
AcDbEntity
  8
1
  6
solid
 62
     7
100
AcDbLine
 10
5.367194979429886
 20
5.200540074947815
 30
0.0
 11
5.35144218873221
 21
5.202232981924558
 31
0.0
  0
LINE
  5
AD
330
A
100
AcDbEntity
  8
1
  6
solid
 62
     7
100
AcDbLine
 10
5.35144218873221
 20
5.202232981924558
 30
0.0
 11
5.362343351522909
 21
5.255045888901302
 31
0.0
  0
LINE
  5
AE
330
A
100
AcDbEntity
  8
1
  6
solid
 62
     7
100
AcDbLine
 10
5.362343351522909
 20
5.255045888901302
 30
0.0
 11
5.408128235243839
 21
5.255045888901302
 31
0.0
  0
LINE
  5
AF
330
A
100
AcDbEntity
  8
1
  6
solid
 62
     7
100
AcDbLine
 10
5.408128235243839
 20
5.255045888901302
 30
0.0
 11
5.408128235243839
 21
5.236513912157117
 31
0.0
  0
LINE
  5
B0
330
A
100
AcDbEntity
  8
1
  6
solid
 62
     7
100
AcDbLine
 10
5.408128235243839
 20
5.236513912157117
 30
0.0
 11
5.376950211988026
 21
5.236513912157117
 31
0.0
  0
LINE
  5
B1
330
A
100
AcDbEntity
  8
1
  6
solid
 62
     7
100
AcDbLine
 10
5.376950211988026
 20
5.236513912157117
 30
0.0
 11
5.373367305011281
 21
5.219451586575721
 31
0.0
  0
SPLINE
  5
B2
330
A
100
AcDbEntity
  8
1
  6
solid
 62
     7
100
AcDbSpline
210
0.0
220
0.0
230
1.0
 70
     8
 71
     2
 72
     6
 73
     3
 74
     0
 42
0.0000000001
 43
0.0000000001
 40
0.0
 40
0.0
 40
0.0
 40
1.0
 40
1.0
 40
1.0
 10
5.373367305011281
 20
5.219451586575721
 30
0.0
 10
5.37900765384849
 20
5.22343251680828
 30
0.0
 10
5.384815444546164
 20
5.22343251680828
 30
0.0
  0
SPLINE
  5
B3
330
A
100
AcDbEntity
  8
1
  6
solid
 62
     7
100
AcDbSpline
210
0.0
220
0.0
230
1.0
 70
     8
 71
     2
 72
     7
 73
     4
 74
     0
 42
0.0000000001
 43
0.0000000001
 40
0.0
 40
0.0
 40
0.0
 40
1.0
 40
2.0
 40
2.0
 40
2.0
 10
5.384815444546164
 20
5.22343251680828
 30
0.0
 10
5.396438351522909
 20
5.22343251680828
 30
0.0
 10
5.412488700360118
 20
5.206414842389675
 30
0.0
 10
5.412488700360118
 20
5.193121354017582
 30
0.0
  0
SPLINE
  5
B4
330
A
100
AcDbEntity
  8
1
  6
solid
 62
     7
100
AcDbSpline
210
0.0
220
0.0
230
1.0
 70
     8
 71
     2
 72
     6
 73
     3
 74
     0
 42
0.0000000001
 43
0.0000000001
 40
0.0
 40
0.0
 40
0.0
 40
1.0
 40
1.0
 40
1.0
 10
5.412488700360118
 20
5.193121354017582
 30
0.0
 10
5.412488700360118
 20
5.182030423785024
 30
0.0
 10
5.405449514313605
 20
5.172900307505954
 30
0.0
  0
SPLINE
  5
B5
330
A
100
AcDbEntity
  8
1
  6
solid
 62
     7
100
AcDbSpline
210
0.0
220
0.0
230
1.0
 70
     8
 71
     2
 72
     6
 73
     3
 74
     0
 42
0.0000000001
 43
0.0000000001
 40
0.0
 40
0.0
 40
0.0
 40
1.0
 40
1.0
 40
1.0
 10
5.405449514313605
 20
5.172900307505954
 30
0.0
 10
5.39642718873221
 20
5.161295888901302
 30
0.0
 10
5.380120095708955
 20
5.161295888901302
 30
0.0
  0
SPLINE
  5
B6
330
A
100
AcDbEntity
  8
1
  6
solid
 62
     7
100
AcDbSpline
210
0.0
220
0.0
230
1.0
 70
     8
 71
     2
 72
     7
 73
     4
 74
     0
 42
0.0000000001
 43
0.0000000001
 40
0.0
 40
0.0
 40
0.0
 40
1.0
 40
2.0
 40
2.0
 40
2.0
 10
5.380120095708955
 20
5.161295888901302
 30
0.0
 10
5.367083351522909
 20
5.161295888901302
 30
0.0
 10
5.350686956174071
 20
5.176691470296652
 30
0.0
 10
5.349261956174071
 20
5.189761702854791
 30
0.0
  0
LINE
  5
B7
330
A
100
AcDbEntity
  8
1
  6
solid
 62
     7
100
AcDbLine
 10
5.428307421290351
 20
5.162386005180373
 30
0.0
 11
5.450120909662443
 21
5.256136005180373
 31
0.0
  0
LINE
  5
B8
330
A
100
AcDbEntity
  8
1
  6
solid
 62
     7
100
AcDbLine
 10
5.450120909662443
 20
5.256136005180373
 30
0.0
 11
5.46490253756942
 21
5.256136005180373
 31
0.0
  0
LINE
  5
B9
330
A
100
AcDbEntity
  8
1
  6
solid
 62
     7
100
AcDbLine
 10
5.46490253756942
 20
5.256136005180373
 30
0.0
 11
5.443100211988025
 21
5.162386005180373
 31
0.0
  0
LINE
  5
BA
330
A
100
AcDbEntity
  8
1
  6
solid
 62
     7
100
AcDbLine
 10
5.428307421290351
 20
5.162386005180373
 30
0.0
 11
5.443100211988025
 21
5.162386005180373
 31
0.0
  0
SPLINE
  5
BB
330
A
100
AcDbEntity
  8
1
  6
solid
 62
     7
100
AcDbSpline
210
0.0
220
0.0
230
1.0
 70
     8
 71
     2
 72
     7
 73
     4
 74
     0
 42
0.0000000001
 43
0.0000000001
 40
0.0
 40
0.0
 40
0.0
 40
1.0
 40
2.0
 40
2.0
 40
2.0
 10
5.497694281755466
 20
5.212111005180371
 30
0.0
 10
5.490197421290351
 20
5.215169260994326
 30
0.0
 10
5.483522770127559
 20
5.225690888901301
 30
0.0
 10
5.483522770127559
 20
5.231610307505953
 30
0.0
  0
SPLINE
  5
BC
330
A
100
AcDbEntity
  8
1
  6
solid
 62
     7
100
AcDbSpline
210
0.0
220
0.0
230
1.0
 70
     8
 71
     2
 72
     7
 73
     4
 74
     0
 42
0.0000000001
 43
0.0000000001
 40
0.0
 40
0.0
 40
0.0
 40
1.0
 40
2.0
 40
2.0
 40
2.0
 10
5.483522770127559
 20
5.231610307505953
 30
0.0
 10
5.483522770127559
 20
5.242254726110605
 30
0.0
 10
5.498263584081048
 20
5.256136005180373
 30
0.0
 10
5.512223002685701
 20
5.256136005180373
 30
0.0
  0
SPLINE
  5
BD
330
A
100
AcDbEntity
  8
1
  6
solid
 62
     7
100
AcDbSpline
210
0.0
220
0.0
230
1.0
 70
     8
 71
     2
 72
     7
 73
     4
 74
     0
 42
0.0000000001
 43
0.0000000001
 40
0.0
 40
0.0
 40
0.0
 40
1.0
 40
2.0
 40
2.0
 40
2.0
 10
5.512223002685701
 20
5.256136005180373
 30
0.0
 10
5.526104281755466
 20
5.256136005180373
 30
0.0
 10
5.541298932918256
 20
5.242254726110605
 30
0.0
 10
5.541298932918256
 20
5.231610307505953
 30
0.0
  0
SPLINE
  5
BE
330
A
100
AcDbEntity
  8
1
  6
solid
 62
     7
100
AcDbSpline
210
0.0
220
0.0
230
1.0
 70
     8
 71
     2
 72
     7
 73
     4
 74
     0
 42
0.0000000001
 43
0.0000000001
 40
0.0
 40
0.0
 40
0.0
 40
1.0
 40
2.0
 40
2.0
 40
2.0
 10
5.541298932918256
 20
5.231610307505953
 30
0.0
 10
5.541298932918256
 20
5.225069609831535
 30
0.0
 10
5.533757421290349
 20
5.215001819133861
 30
0.0
 10
5.526673584081049
 20
5.212111005180371
 30
0.0
  0
SPLINE
  5
BF
330
A
100
AcDbEntity
  8
1
  6
solid
 62
     7
100
AcDbSpline
210
0.0
220
0.0
230
1.0
 70
     8
 71
     2
 72
     7
 73
     4
 74
     0
 42
0.0000000001
 43
0.0000000001
 40
0.0
 40
0.0
 40
0.0
 40
1.0
 40
2.0
 40
2.0
 40
2.0
 10
5.526673584081049
 20
5.212111005180371
 30
0.0
 10
5.534970328267093
 20
5.209350307505953
 30
0.0
 10
5.543479165476395
 20
5.197504144715257
 30
0.0
 10
5.543479165476395
 20
5.18981751680828
 30
0.0
  0
SPLINE
  5
C0
330
A
100
AcDbEntity
  8
1
  6
solid
 62
     7
100
AcDbSpline
210
0.0
220
0.0
230
1.0
 70
     8
 71
     2
 72
     7
 73
     4
 74
     0
 42
0.0000000001
 43
0.0000000001
 40
0.0
 40
0.0
 40
0.0
 40
1.0
 40
2.0
 40
2.0
 40
2.0
 10
5.543479165476395
 20
5.18981751680828
 30
0.0
 10
5.543479165476395
 20
5.17698170285479
 30
0.0
 10
5.526528467801978
 20
5.161295888901302
 30
0.0
 10
5.51255788640663
 20
5.161295888901302
 30
0.0
  0
SPLINE
  5
C1
330
A
100
AcDbEntity
  8
1
  6
solid
 62
     7
100
AcDbSpline
210
0.0
220
0.0
230
1.0
 70
     8
 71
     2
 72
     6
 73
     3
 74
     0
 42
0.0000000001
 43
0.0000000001
 40
0.0
 40
0.0
 40
0.0
 40
1.0
 40
1.0
 40
1.0
 10
5.51255788640663
 20
5.161295888901302
 30
0.0
 10
5.499974979429885
 20
5.161295888901302
 30
0.0
 10
5.491354514313606
 20
5.167858912157116
 30
0.0
  0
SPLINE
  5
C2
330
A
100
AcDbEntity
  8
1
  6
solid
 62
     7
100
AcDbSpline
210
0.0
220
0.0
230
1.0
 70
     8
 71
     2
 72
     6
 73
     3
 74
     0
 42
0.0000000001
 43
0.0000000001
 40
0.0
 40
0.0
 40
0.0
 40
1.0
 40
1.0
 40
1.0
 10
5.491354514313606
 20
5.167858912157116
 30
0.0
 10
5.48134253756942
 20
5.175579028436186
 30
0.0
 10
5.48134253756942
 20
5.188950656343163
 30
0.0
  0
SPLINE
  5
C3
330
A
100
AcDbEntity
  8
1
  6
solid
 62
     7
100
AcDbSpline
210
0.0
220
0.0
230
1.0
 70
     8
 71
     2
 72
     7
 73
     4
 74
     0
 42
0.0000000001
 43
0.0000000001
 40
0.0
 40
0.0
 40
0.0
 40
1.0
 40
2.0
 40
2.0
 40
2.0
 10
5.48134253756942
 20
5.188950656343163
 30
0.0
 10
5.48134253756942
 20
5.196469842389674
 30
0.0
 10
5.489129630592675
 20
5.208762516808278
 30
0.0
 10
5.497694281755466
 20
5.212111005180371
 30
0.0
  0
SPLINE
  5
C4
330
A
100
AcDbEntity
  8
1
  6
solid
 62
     7
100
AcDbSpline
210
0.0
220
0.0
230
1.0
 70
     8
 71
     2
 72
     7
 73
     4
 74
     0
 42
0.0000000001
 43
0.0000000001
 40
0.0
 40
0.0
 40
0.0
 40
1.0
 40
2.0
 40
2.0
 40
2.0
 10
5.502054746871746
 20
5.230397400529209
 30
0.0
 10
5.502054746871746
 20
5.224946819133861
 30
0.0
 10
5.507616956174071
 20
5.219072051692001
 30
0.0
 10
5.512189514313606
 20
5.219072051692001
 30
0.0
  0
SPLINE
  5
C5
330
A
100
AcDbEntity
  8
1
  6
solid
 62
     7
100
AcDbSpline
210
0.0
220
0.0
230
1.0
 70
     8
 71
     2
 72
     7
 73
     4
 74
     0
 42
0.0000000001
 43
0.0000000001
 40
0.0
 40
0.0
 40
0.0
 40
1.0
 40
2.0
 40
2.0
 40
2.0
 10
5.512189514313606
 20
5.219072051692001
 30
0.0
 10
5.516784398034537
 20
5.219072051692001
 30
0.0
 10
5.522766956174072
 20
5.224991470296652
 30
0.0
 10
5.522766956174072
 20
5.230442051692
 30
0.0
  0
SPLINE
  5
C6
330
A
100
AcDbEntity
  8
1
  6
solid
 62
     7
100
AcDbSpline
210
0.0
220
0.0
230
1.0
 70
     8
 71
     2
 72
     7
 73
     4
 74
     0
 42
0.0000000001
 43
0.0000000001
 40
0.0
 40
0.0
 40
0.0
 40
1.0
 40
2.0
 40
2.0
 40
2.0
 10
5.522766956174072
 20
5.230442051692
 30
0.0
 10
5.522766956174072
 20
5.235669377273396
 30
0.0
 10
5.516829049197326
 20
5.241964493552464
 30
0.0
 10
5.512301142220582
 20
5.241964493552464
 30
0.0
  0
SPLINE
  5
C7
330
A
100
AcDbEntity
  8
1
  6
solid
 62
     7
100
AcDbSpline
210
0.0
220
0.0
230
1.0
 70
     8
 71
     2
 72
     7
 73
     4
 74
     0
 42
0.0000000001
 43
0.0000000001
 40
0.0
 40
0.0
 40
0.0
 40
1.0
 40
2.0
 40
2.0
 40
2.0
 10
5.512301142220582
 20
5.241964493552464
 30
0.0
 10
5.507661607336862
 20
5.241964493552464
 30
0.0
 10
5.502054746871746
 20
5.235624726110605
 30
0.0
 10
5.502054746871746
 20
5.230397400529209
 30
0.0
  0
SPLINE
  5
C8
330
A
100
AcDbEntity
  8
1
  6
solid
 62
     7
100
AcDbSpline
210
0.0
220
0.0
230
1.0
 70
     8
 71
     2
 72
     7
 73
     4
 74
     0
 42
0.0000000001
 43
0.0000000001
 40
0.0
 40
0.0
 40
0.0
 40
1.0
 40
2.0
 40
2.0
 40
2.0
 10
5.499874514313606
 20
5.190807167971071
 30
0.0
 10
5.499874514313606
 20
5.183421935412931
 30
0.0
 10
5.506906374778722
 20
5.17546740052921
 30
0.0
 10
5.512368118964769
 20
5.17546740052921
 30
0.0
  0
SPLINE
  5
C9
330
A
100
AcDbEntity
  8
1
  6
solid
 62
     7
100
AcDbSpline
210
0.0
220
0.0
230
1.0
 70
     8
 71
     2
 72
     7
 73
     4
 74
     0
 42
0.0000000001
 43
0.0000000001
 40
0.0
 40
0.0
 40
0.0
 40
1.0
 40
2.0
 40
2.0
 40
2.0
 10
5.512368118964769
 20
5.17546740052921
 30
0.0
 10
5.517740560825235
 20
5.17546740052921
 30
0.0
 10
5.52494718873221
 20
5.183221005180373
 30
0.0
 10
5.52494718873221
 20
5.190308679598976
 30
0.0
  0
SPLINE
  5
CA
330
A
100
AcDbEntity
  8
1
  6
solid
 62
     7
100
AcDbSpline
210
0.0
220
0.0
230
1.0
 70
     8
 71
     2
 72
     7
 73
     4
 74
     0
 42
0.0000000001
 43
0.0000000001
 40
0.0
 40
0.0
 40
0.0
 40
1.0
 40
2.0
 40
2.0
 40
2.0
 10
5.52494718873221
 20
5.190308679598976
 30
0.0
 10
5.52494718873221
 20
5.196771237738511
 30
0.0
 10
5.517662421290349
 20
5.204900540064093
 30
0.0
 10
5.512200677104304
 20
5.204900540064093
 30
0.0
  0
SPLINE
  5
CB
330
A
100
AcDbEntity
  8
1
  6
solid
 62
     7
100
AcDbSpline
210
0.0
220
0.0
230
1.0
 70
     8
 71
     2
 72
     7
 73
     4
 74
     0
 42
0.0000000001
 43
0.0000000001
 40
0.0
 40
0.0
 40
0.0
 40
1.0
 40
2.0
 40
2.0
 40
2.0
 10
5.512200677104304
 20
5.204900540064093
 30
0.0
 10
5.505816258499653
 20
5.204900540064093
 30
0.0
 10
5.499874514313606
 20
5.195703447040838
 30
0.0
 10
5.499874514313606
 20
5.190807167971071
 30
0.0
  0
LINE
  5
CC
330
A
100
AcDbEntity
  8
1
  6
solid
 62
     7
100
AcDbLine
 10
4.000459926953647
 20
1.087195204609825
 30
0.0
 11
4.585125608488738
 21
1.087195204609825
 31
0.0
  0
LINE
  5
CD
330
A
100
AcDbEntity
  8
1
  6
solid
 62
     7
100
AcDbLine
 10
4.585125613001615
 20
1.087195239819249
 30
0.0
 11
4.585125613001615
 21
1.480788306680478
 31
0.0
  0
ARC
  5
CE
330
A
100
AcDbEntity
  8
1
  6
solid
 62
     7
100
AcDbCircle
 10
4.244793054081041
 20
2.874586557545983
 30
0.0
 40
1.434747526711944
100
AcDbArc
 50
283.7217702975276
 51
331.2681391659448
  0
ARC
  5
CF
330
A
100
AcDbEntity
  8
1
  6
solid
 62
     7
100
AcDbCircle
 10
2.411606911894311
 20
4.214830155487399
 30
0.0
 40
3.698204618399181
100
AcDbArc
 50
326.70845028948
 51
336.9229286149168
  0
ARC
  5
D0
330
A
100
AcDbEntity
  8
1
  6
solid
 62
     7
100
AcDbCircle
 10
18.52265894618713
 20
-2.361032414619571
 30
0.0
 40
13.70371984622822
100
AcDbArc
 50
153.1937151833566
 51
158.0325671321964
  0
ARC
  5
D1
330
A
100
AcDbEntity
  8
1
  6
solid
 62
     7
100
AcDbCircle
 10
8.440161113520911
 20
2.664524965811378
 30
0.0
 40
2.439095455480646
100
AcDbArc
 50
125.3364412378174
 51
151.7496900487017
  0
ARC
  5
D2
330
A
100
AcDbEntity
  8
1
  6
solid
 62
     7
100
AcDbCircle
 10
7.669345943414889
 20
3.907637064337178
 30
0.0
 40
0.9833246628718034
100
AcDbArc
 50
92.30318691206536
 51
130.5983220048533
  0
LINE
  5
D3
330
A
100
AcDbEntity
  8
1
  6
solid
 62
     7
100
AcDbLine
 10
7.629828711584572
 20
4.890167359544616
 30
0.0
 11
7.629828711584572
 21
5.384671725977002
 31
0.0
  0
LINE
  5
D4
330
A
100
AcDbEntity
  8
1
  6
solid
 62
     7
100
AcDbLine
 10
5.58824348449707
 20
5.641083240509032
 30
0.0
 11
7.629828929901122
 21
5.384671688079833
 31
0.0
  0
LINE
  5
D5
330
A
100
AcDbEntity
  8
1
  6
solid
 62
     7
100
AcDbLine
 10
5.58824348449707
 20
5.146578788757324
 30
0.0
 11
7.629828929901122
 21
4.890167236328125
 31
0.0
  0
LINE
  5
D6
330
A
100
AcDbEntity
  8
1
  6
solid
 62
     7
100
AcDbLine
 10
2.543540239334106
 20
1.737199544906616
 30
0.0
 11
4.58512544631958
 21
1.480788350105284
 31
0.0
  0
LINE
  5
D7
330
A
100
AcDbEntity
  8
1
  6
solid
 62
     7
100
AcDbLine
 10
2.543540239334106
 20
1.343606710433959
 30
0.0
 11
4.58512544631958
 21
1.08719527721405
 31
0.0
  0
LINE
  5
D8
330
A
100
AcDbEntity
  8
1
  6
solid
 62
     7
100
AcDbLine
 10
1.958874464035034
 20
1.343606710433959
 30
0.0
 11
4.000460147857666
 21
1.08719515800476
 31
0.0
  0
LINE
  5
D9
330
A
100
AcDbEntity
  8
1
  6
solid
 62
     7
100
AcDbLine
 10
-1.652541234747989
 20
1.454226779589949
 30
0.0
 11
-1.067875553212898
 21
1.454226779589949
 31
0.0
  0
LINE
  5
DA
330
A
100
AcDbEntity
  8
1
  6
solid
 62
     7
100
AcDbLine
 10
-1.652541234700021
 20
1.454226779589949
 30
0.0
 11
-1.652541234700021
 21
1.965564416045599
 31
0.0
  0
LINE
  5
DB
330
A
100
AcDbEntity
  8
1
  6
solid
 62
     7
100
AcDbLine
 10
-1.067875548700021
 20
1.454226814799373
 30
0.0
 11
-1.067875548700021
 21
1.847819881660602
 31
0.0
  0
LINE
  5
DC
330
A
100
AcDbEntity
  8
1
  6
solid
 62
     7
100
AcDbLine
 10
1.368805558987688
 20
5.7517033009171
 30
0.0
 11
-1.652541234579455
 21
1.965564571909969
 31
0.0
  0
LINE
  5
DD
330
A
100
AcDbEntity
  8
1
  6
solid
 62
     7
100
AcDbLine
 10
1.976827549882937
 20
5.257198934524739
 30
0.0
 11
1.976827549882937
 21
5.751703300957126
 31
0.0
  0
LINE
  5
DE
330
A
100
AcDbEntity
  8
1
  6
solid
 62
     7
100
AcDbLine
 10
1.976827549882937
 20
5.7517033009171
 30
0.0
 11
1.368805558987688
 21
5.7517033009171
 31
0.0
  0
ARC
  5
DF
330
A
100
AcDbEntity
  8
1
  6
solid
 62
     7
100
AcDbCircle
 10
-1.408208107620595
 20
3.241618132526108
 30
0.0
 40
1.434747526711944
100
AcDbArc
 50
283.7217702975276
 51
331.2681391659448
  0
ARC
  5
E0
330
A
100
AcDbEntity
  8
1
  6
solid
 62
     7
100
AcDbCircle
 10
-3.241394249807322
 20
4.581861730467524
 30
0.0
 40
3.698204618399181
100
AcDbArc
 50
326.70845028948
 51
336.9229286149168
  0
ARC
  5
E1
330
A
100
AcDbEntity
  8
1
  6
solid
 62
     7
100
AcDbCircle
 10
12.86965778448549
 20
-1.994000839639447
 30
0.0
 40
13.70371984622822
100
AcDbArc
 50
153.1937151833566
 51
158.0325671321964
  0
ARC
  5
E2
330
A
100
AcDbEntity
  8
1
  6
solid
 62
     7
100
AcDbCircle
 10
2.787159951819277
 20
3.031556540791501
 30
0.0
 40
2.439095455480646
100
AcDbArc
 50
125.3364412378174
 51
151.7496900487017
  0
ARC
  5
E3
330
A
100
AcDbEntity
  8
1
  6
solid
 62
     7
100
AcDbCircle
 10
2.016344781713252
 20
4.274668639317303
 30
0.0
 40
0.9833246628718034
100
AcDbArc
 50
92.30318691206536
 51
130.5983220048533
  0
LINE
  5
145
330
A
100
AcDbEntity
  8
1
  6
solid
 62
     7
370
     0
100
AcDbLine
 10
-1.652541271223805
 20
5.892792826902201
 30
0.0
 11
-1.652541271223805
 21
6.1821974704463
 31
0.0
  0
LINE
  5
149
330
A
100
AcDbEntity
  8
1
  6
solid
 62
     7
370
     0
100
AcDbLine
 10
-1.652541271223805
 20
6.1196974704463
 30
0.0
 11
-0.3404466566780151
 21
6.1196974704463
 31
0.0
  0
LINE
  5
14A
330
A
100
AcDbEntity
  8
1
  6
solid
 62
     7
370
     0
100
AcDbLine
 10
1.97682774923823
 20
6.1196974704463
 30
0.0
 11
0.642992515581927
 21
6.1196974704463
 31
0.0
  0
MTEXT
  5
14B
330
A
100
AcDbEntity
  8
1
  6
solid
 62
     7
370
     0
100
AcDbMText
 10
0.1621432390072126
 20
6.1196974704463
 30
0.0
 40
0.125
 41
0.0
 71
     5
 72
     1
  1
{\H0.125000;3 5/8}
 73
     1
 44
1.0
  0
SOLID
  5
14C
330
A
100
AcDbEntity
  8
1
  6
solid
 62
     7
370
     0
100
AcDbTrace
 10
-1.527541271223805
 20
6.1405099704463
 30
0.0
 11
-1.527541271223805
 21
6.098884970446301
 31
0.0
 12
-1.652541271223805
 22
6.1196974704463
 32
0.0
 13
-1.652541271223805
 23
6.1196974704463
 33
0.0
  0
SOLID
  5
14D
330
A
100
AcDbEntity
  8
1
  6
solid
 62
     7
370
     0
100
AcDbTrace
 10
1.85182774923823
 20
6.098884970446301
 30
0.0
 11
1.85182774923823
 21
6.1405099704463
 31
0.0
 12
1.97682774923823
 22
6.1196974704463
 32
0.0
 13
1.97682774923823
 23
6.1196974704463
 33
0.0
  0
LINE
  5
155
330
A
100
AcDbEntity
  8
1
  6
solid
 62
     7
370
     0
100
AcDbLine
 10
-2.022153491427205
 20
1.454226838606768
 30
0.0
 11
-2.022153491427205
 21
1.454226838606768
 31
0.0
  0
LINE
  5
156
330
A
100
AcDbEntity
  8
1
  6
solid
 62
     7
370
     0
100
AcDbLine
 10
1.146940270590942
 20
5.751703368681841
 30
0.0
 11
-2.054836421014812
 21
5.751703368681843
 31
0.0
  0
LINE
  5
157
330
A
100
AcDbEntity
  8
1
  6
solid
 62
     7
370
     0
100
AcDbLine
 10
-1.992336421014815
 20
1.454226838606768
 30
0.0
 11
-1.992336421014814
 21
3.443092507490459
 31
0.0
  0
LINE
  5
158
330
A
100
AcDbEntity
  8
1
  6
solid
 62
     7
370
     0
100
AcDbLine
 10
-1.992336421014812
 20
5.751703368681843
 30
0.0
 11
-1.992336421014813
 21
3.762837699798151
 31
0.0
  0
MTEXT
  5
159
330
A
100
AcDbEntity
  8
1
  6
solid
 62
     7
370
     0
100
AcDbMText
 10
-1.992336421014814
 20
3.602965103644305
 30
0.0
 40
0.125
 41
0.0
 71
     5
 72
     1
  1
{\H0.125000;4 1/4}
 73
     1
 44
1.0
  0
SOLID
  5
15A
330
A
100
AcDbEntity
  8
1
  6
solid
 62
     7
370
     0
100
AcDbTrace
 10
-2.013148921014815
 20
1.579226838606768
 30
0.0
 11
-1.971523921014815
 21
1.579226838606768
 31
0.0
 12
-1.992336421014815
 22
1.454226838606768
 32
0.0
 13
-1.992336421014815
 23
1.454226838606768
 33
0.0
  0
SOLID
  5
15B
330
A
100
AcDbEntity
  8
1
  6
solid
 62
     7
370
     0
100
AcDbTrace
 10
-1.971523921014812
 20
5.626703368681843
 30
0.0
 11
-2.013148921014812
 21
5.626703368681843
 31
0.0
 12
-1.992336421014812
 22
5.751703368681843
 32
0.0
 13
-1.992336421014812
 23
5.751703368681843
 33
0.0
  0
LINE
  5
15C
330
A
100
AcDbEntity
  8
1
  6
solid
 62
     7
370
     0
100
AcDbLine
 10
1.97682774923823
 20
5.892792826902201
 30
0.0
 11
1.97682774923823
 21
6.1821974704463
 31
0.0
  0
LINE
  5
15D
330
A
100
AcDbEntity
  8
1
  6
solid
 62
     7
370
     0
100
AcDbLine
 10
-1.802095082490825
 20
1.454226801529536
 30
0.0
 11
-2.054836421014813
 21
1.454226838606754
 31
0.0
  0
VIEWPORT
  5
117
330
B
100
AcDbEntity
 67
     1
  8
0
  6
Continuous
370
     0
100
AcDbViewport
 10
5.169388207690269
 20
3.942485720944619
 30
0.0
 40
15.17472265720593
 41
8.029037247939522
 68
     1
 69
     1
 12
5.169388207690269
 22
3.942485720944619
 13
0.0
 23
0.0
 14
0.5
 24
0.5
 15
0.5
 25
0.5
 16
0.0
 26
0.0
 36
1.0
 17
0.0
 27
0.0
 37
0.0
 42
50.0
 43
0.0
 44
0.0
 45
8.029037247939522
 50
0.0
 51
0.0
 72
   100
 90
   819232
  1

281
     0
 71
     1
 74
     0
110
0.0
120
0.0
130
0.0
111
1.0
121
0.0
131
0.0
112
0.0
122
1.0
132
0.0
 79
     0
146
0.0
170
     0
  0
VIEWPORT
  5
11A
330
B
100
AcDbEntity
 67
     1
  8
0
  6
Continuous
370
     0
100
AcDbViewport
 10
5.169387952843276
 20
3.942299970822601
 30
0.0
 40
10.30738343406366
 41
7.93499979536995
 68
     2
 69
     2
 12
2.805650362291206
 22
3.488447218252039
 13
0.0
 23
0.0
 14
0.5
 24
0.5
 15
0.5
 25
0.5
 16
0.0
 26
0.0
 36
1.0
 17
0.0
 27
0.0
 37
0.0
 42
50.0
 43
0.0
 44
0.0
 45
9.362826274973578
 50
0.0
 51
0.0
 72
   100
 90
   819232
  1

281
     0
 71
     1
 74
     0
110
0.0
120
0.0
130
0.0
111
1.0
121
0.0
131
0.0
112
0.0
122
1.0
132
0.0
 79
     0
146
0.0
170
     0
  0
ENDSEC
  0
SECTION
  2
OBJECTS
  0
DICTIONARY
  5
19
330
0
100
AcDbDictionary
281
     1
  3
ACAD_COLOR
350
110
  3
ACAD_GROUP
350
1A
  3
ACAD_LAYOUT
350
1E
  3
ACAD_MATERIAL
350
FB
  3
ACAD_MLEADERSTYLE
350
12E
  3
ACAD_MLINESTYLE
350
1B
  3
ACAD_PLOTSETTINGS
350
22
  3
ACAD_PLOTSTYLENAME
350
1F
  3
ACAD_SCALELIST
350
11E
  3
ACAD_TABLESTYLE
350
111
  3
ACAD_VISUALSTYLE
350
FF
  3
ACAD_WIPEOUT_VARS
350
23
  3
ACDB_RECOMPOSE_DATA
350
178
  3
AcDbVariableDictionary
350
11B
  3
ASE_INDEX_DICTIONARY
350
15F
  0
DICTIONARY
  5
139
330
14
100
AcDbDictionary
280
     1
281
     1
  3
ADSK_XREC_LAYER_RECONCILED
360
13A
  0
DICTIONARY
  5
13B
330
27
100
AcDbDictionary
280
     1
281
     1
  3
ADSK_XREC_LAYER_RECONCILED
360
13C
  0
DICTIONARY
  5
14E
330
A
100
AcDbDictionary
280
     1
281
     1
  3
ACAD_SORTENTS
360
14F
  0
DICTIONARY
  5
110
102
{ACAD_REACTORS
330
19
102
}
330
19
100
AcDbDictionary
281
     1
  0
DICTIONARY
  5
1A
102
{ACAD_REACTORS
330
19
102
}
330
19
100
AcDbDictionary
281
     1
  0
DICTIONARY
  5
1E
102
{ACAD_REACTORS
330
19
102
}
330
19
100
AcDbDictionary
281
     1
  3
Layout1
350
21
  3
Model
350
20
  0
DICTIONARY
  5
FB
102
{ACAD_REACTORS
330
19
102
}
330
19
100
AcDbDictionary
281
     1
  3
ByBlock
350
FD
  3
ByLayer
350
FC
  3
Global
350
FE
  0
DICTIONARY
  5
12E
102
{ACAD_REACTORS
330
19
102
}
330
19
100
AcDbDictionary
281
     1
  3
Standard
350
12F
  0
DICTIONARY
  5
1B
102
{ACAD_REACTORS
330
19
102
}
330
19
100
AcDbDictionary
281
     1
  3
Standard
350
1C
  0
DICTIONARY
  5
22
102
{ACAD_REACTORS
330
19
102
}
330
19
100
AcDbDictionary
281
     1
  0
ACDBDICTIONARYWDFLT
  5
1F
102
{ACAD_REACTORS
330
19
102
}
330
19
100
AcDbDictionary
281
     1
  3
Normal
350
1D
100
AcDbDictionaryWithDefault
340
1D
  0
DICTIONARY
  5
11E
102
{ACAD_REACTORS
330
19
102
}
330
19
100
AcDbDictionary
281
     1
  3
A0
350
11F
  3
A1
350
120
  3
A2
350
121
  3
A3
350
122
  3
A4
350
123
  3
A5
350
124
  3
A6
350
125
  3
A7
350
126
  3
A8
350
127
  3
A9
350
128
  3
B0
350
129
  3
B1
350
12A
  3
B2
350
12B
  3
B3
350
12C
  3
B4
350
12D
  0
DICTIONARY
  5
111
102
{ACAD_REACTORS
330
19
102
}
330
19
100
AcDbDictionary
281
     1
  3
Standard
350
112
  0
DICTIONARY
  5
FF
102
{ACAD_REACTORS
330
19
102
}
330
19
100
AcDbDictionary
281
     1
  3
2dWireframe
350
105
  3
3D Hidden
350
107
  3
3dWireframe
350
106
  3
Basic
350
104
  3
Brighten
350
10B
  3
ColorChange
350
10F
  3
Conceptual
350
108
  3
Dim
350
10A
  3
Facepattern
350
10E
  3
Flat
350
100
  3
FlatWithEdges
350
101
  3
Gouraud
350
102
  3
GouraudWithEdges
350
103
  3
Linepattern
350
10D
  3
Realistic
350
109
  3
Thicken
350
10C
  0
WIPEOUTVARIABLES
  5
23
330
19
100
AcDbWipeoutVariables
 70
     1
  0
XRECORD
  5
178
102
{ACAD_REACTORS
330
19
102
}
330
19
100
AcDbXrecord
280
     1
 90
        1
330
112
  0
DICTIONARY
  5
11B
102
{ACAD_REACTORS
330
19
102
}
330
19
100
AcDbDictionary
281
     1
  3
CANNOSCALE
350
175
  3
CMLEADERSTYLE
350
174
  3
CTABLESTYLE
350
11C
  0
DICTIONARY
  5
15F
102
{ACAD_REACTORS
330
19
102
}
330
19
100
AcDbDictionary
281
     1
  3
ASEBlockHierarchyIndexRecord
350
161
1001
DCO15
1040
1667580654.328
  0
XRECORD
  5
13A
102
{ACAD_REACTORS
330
139
102
}
330
139
100
AcDbXrecord
280
     1
290
     1
  0
XRECORD
  5
13C
102
{ACAD_REACTORS
330
13B
102
}
330
13B
100
AcDbXrecord
280
     1
290
     1
  0
SORTENTSTABLE
  5
14F
102
{ACAD_REACTORS
330
14E
102
}
330
14E
100
AcDbSortentsTable
330
A
331
78
  5
78
331
DE
  5
DE
331
BC
  5
BC
331
9A
  5
9A
331
61
  5
61
331
89
  5
89
331
14D
  5
15B
331
CD
  5
CD
331
AB
  5
AB
331
72
  5
72
331
50
  5
50
331
3F
  5
3F
331
2E
  5
2E
331
DC
  5
DC
331
BA
  5
BA
331
98
  5
98
331
87
  5
87
331
14B
  5
159
331
CB
  5
CB
331
A9
  5
A9
331
70
  5
70
331
4E
  5
4E
331
5F
  5
5F
331
3D
  5
3D
331
2C
  5
2C
331
15A
  5
14C
331
DA
  5
DA
331
B8
  5
B8
331
85
  5
85
331
149
  5
157
331
C9
  5
C9
331
A7
  5
A7
331
6E
  5
6E
331
4C
  5
4C
331
96
  5
96
331
5D
  5
5D
331
3B
  5
3B
331
2A
  5
2A
331
158
  5
14A
331
D8
  5
D8
331
83
  5
83
331
C7
  5
C7
331
A5
  5
A5
331
6C
  5
6C
331
4A
  5
4A
331
B6
  5
B6
331
94
  5
94
331
5B
  5
5B
331
39
  5
39
331
28
  5
28
331
156
  5
148
331
81
  5
81
331
145
  5
155
331
C5
  5
C5
331
A3
  5
A3
331
6A
  5
6A
331
48
  5
48
331
D6
  5
D6
331
B4
  5
B4
331
92
  5
92
331
59
  5
59
331
37
  5
37
331
7F
  5
7F
331
C3
  5
C3
331
A1
  5
A1
331
68
  5
68
331
46
  5
46
331
D4
  5
D4
331
B2
  5
B2
331
90
  5
90
331
57
  5
57
331
35
  5
35
331
7D
  5
7D
331
E3
  5
E3
331
C1
  5
C1
331
9F
  5
9F
331
66
  5
66
331
44
  5
44
331
8E
  5
8E
331
D2
  5
D2
331
B0
  5
B0
331
77
  5
77
331
55
  5
55
331
33
  5
33
331
7B
  5
7B
331
E1
  5
E1
331
BF
  5
BF
331
9D
  5
9D
331
64
  5
64
331
42
  5
42
331
8C
  5
8C
331
D0
  5
D0
331
AE
  5
AE
331
75
  5
75
331
53
  5
53
331
31
  5
31
331
79
  5
79
331
DF
  5
DF
331
BD
  5
BD
331
9B
  5
9B
331
62
  5
62
331
40
  5
40
331
8A
  5
8A
331
CE
  5
CE
331
AC
  5
AC
331
73
  5
73
331
51
  5
51
331
2F
  5
2F
331
DD
  5
DD
331
BB
  5
BB
331
99
  5
99
331
60
  5
60
331
88
  5
88
331
14C
  5
15A
331
CC
  5
CC
331
AA
  5
AA
331
71
  5
71
331
4F
  5
4F
331
3E
  5
3E
331
2D
  5
2D
331
15B
  5
14D
331
DB
  5
DB
331
B9
  5
B9
331
86
  5
86
331
14A
  5
158
331
CA
  5
CA
331
A8
  5
A8
331
6F
  5
6F
331
4D
  5
4D
331
97
  5
97
331
5E
  5
5E
331
3C
  5
3C
331
2B
  5
2B
331
159
  5
14B
331
D9
  5
D9
331
84
  5
84
331
C8
  5
C8
331
A6
  5
A6
331
6D
  5
6D
331
4B
  5
4B
331
B7
  5
B7
331
95
  5
95
331
5C
  5
5C
331
3A
  5
3A
331
29
  5
29
331
157
  5
149
331
82
  5
82
331
C6
  5
C6
331
A4
  5
A4
331
6B
  5
6B
331
49
  5
49
331
D7
  5
D7
331
B5
  5
B5
331
93
  5
93
331
5A
  5
5A
331
38
  5
38
331
155
  5
145
331
80
  5
80
331
C4
  5
C4
331
A2
  5
A2
331
69
  5
69
331
47
  5
47
331
D5
  5
D5
331
B3
  5
B3
331
91
  5
91
331
58
  5
58
331
36
  5
36
331
7E
  5
7E
331
C2
  5
C2
331
A0
  5
A0
331
67
  5
67
331
45
  5
45
331
D3
  5
D3
331
B1
  5
B1
331
8F
  5
8F
331
56
  5
56
331
34
  5
34
331
7C
  5
7C
331
E2
  5
E2
331
C0
  5
C0
331
9E
  5
9E
331
65
  5
65
331
43
  5
43
331
8D
  5
8D
331
D1
  5
D1
331
AF
  5
AF
331
76
  5
76
331
54
  5
54
331
32
  5
32
331
7A
  5
7A
331
E0
  5
E0
331
BE
  5
BE
331
9C
  5
9C
331
63
  5
63
331
41
  5
41
331
8B
  5
8B
331
CF
  5
CF
331
AD
  5
AD
331
74
  5
74
331
52
  5
52
331
30
  5
30
  0
LAYOUT
  5
21
102
{ACAD_REACTORS
330
1E
102
}
330
1E
100
AcDbPlotSettings
  1

  2
Foxit PDF Printer
  4
Letter
  6

 40
3.174999952316284
 41
3.174999952316284
 42
3.17498779296875
 43
3.175003051757812
 44
279.3999938964844
 45
215.8999938964844
 46
31.47715384821894
 47
24.12875752349356
 48
0.0
 49
0.0
140
0.0
141
0.0
142
1.0
143
1.0
 70
     4
 72
     0
 73
     0
 74
     1
  7

 75
     0
147
1.0
 76
     0
 77
     2
 78
   300
148
-26.25461124795212
149
-20.16000981431432
100
AcDbLayout
  1
Layout1
 70
     0
 71
     1
 10
-0.3306119115190196
 20
-0.2812499079328949
 11
10.66938784818509
 21
8.218749851771214
 12
0.0
 22
0.0
 32
0.0
 14
0.0156560208723917
 24
-0.025352453909214
 34
-0.0015258207003583
 15
10.32312039450815
 25
7.910323895798452
 35
0.0000000349246037
146
0.0
 13
0.0
 23
0.0
 33
0.0
 16
1.0
 26
0.0
 36
0.0
 17
0.0
 27
1.0
 37
0.0
 76
     0
330
B
331
117
1001
ACAD_PSEXT
1000
Foxit PDF Printer
1000
Foxit PDF Printer Driver
1000
FOXIT_PDF
1000

1070
     0
  0
LAYOUT
  5
20
102
{ACAD_REACTORS
330
1E
102
}
330
1E
100
AcDbPlotSettings
  1

  2

  4

  6

 40
0.0
 41
0.0
 42
0.0
 43
0.0
 44
0.0
 45
0.0
 46
0.0
 47
0.0
 48
0.0
 49
0.0
140
0.0
141
0.0
142
1.0
143
1.0
 70
  1024
 72
     0
 73
     0
 74
     0
  7

 75
     0
147
1.0
 76
     0
 77
     2
 78
   300
148
0.0
149
0.0
100
AcDbLayout
  1
Model
 70
     0
 71
     0
 10
0.0
 20
0.0
 11
0.0
 21
0.0
 12
0.0
 22
0.0
 32
0.0
 14
0.0
 24
0.0
 34
0.0
 15
0.0
 25
0.0
 35
0.0
146
0.0
 13
0.0
 23
0.0
 33
0.0
 16
0.0
 26
0.0
 36
0.0
 17
0.0
 27
0.0
 37
0.0
 76
     0
330
A
  0
MATERIAL
  5
FD
102
{ACAD_XDICTIONARY
360
17B
102
}
102
{ACAD_REACTORS
330
FB
102
}
330
FB
100
AcDbMaterial
  1
ByBlock
 73
     1
 78
     1
172
     1
176
     1
270
     1
274
     1
  0
MATERIAL
  5
FC
102
{ACAD_XDICTIONARY
360
179
102
}
102
{ACAD_REACTORS
330
FB
102
}
330
FB
100
AcDbMaterial
  1
ByLayer
 73
     1
 78
     1
172
     1
176
     1
270
     1
274
     1
  0
MATERIAL
  5
FE
102
{ACAD_XDICTIONARY
360
17D
102
}
102
{ACAD_REACTORS
330
FB
102
}
330
FB
100
AcDbMaterial
  1
Global
 73
     1
 78
     1
172
     1
176
     1
270
     1
274
     1
  0
MLEADERSTYLE
  5
12F
102
{ACAD_REACTORS
330
12E
102
}
330
12E
100
AcDbMLeaderStyle
170
     2
171
     1
172
     0
 90
        2
 40
0.0
 41
0.0
173
     1
 91
-1056964608
340
11
 92
       -2
290
     1
 42
0.09
291
     1
 43
0.36
  3
Standard
 44
0.18
300

342
17
174
     1
178
     6
175
     1
176
     0
 93
-1056964608
 45
0.18
292
     0
297
     0
 46
0.18
 94
-1056964608
 47
1.0
 49
1.0
140
1.0
293
     1
141
0.0
294
     1
177
     0
142
1.0
295
     0
296
     0
143
0.125
1001
ACAD_MLEADERVER
1070
     2
  0
MLINESTYLE
  5
1C
102
{ACAD_REACTORS
330
1B
102
}
330
1B
100
AcDbMlineStyle
  2
STANDARD
 70
     0
  3

 62
     0
 51
90.0
 52
90.0
 71
     2
 49
0.5
 62
   256
  6
BYLAYER
 49
-0.5
 62
   256
  6
BYLAYER
  0
ACDBPLACEHOLDER
  5
1D
102
{ACAD_REACTORS
330
1F
102
}
330
1F
  0
SCALE
  5
11F
102
{ACAD_REACTORS
330
11E
102
}
330
11E
100
AcDbScale
 70
     0
300
1/64" = 1'-0"
140
0.015625
141
12.0
290
     0
  0
SCALE
  5
120
102
{ACAD_REACTORS
330
11E
102
}
330
11E
100
AcDbScale
 70
     0
300
1/32" = 1'-0"
140
0.03125
141
12.0
290
     0
  0
SCALE
  5
121
102
{ACAD_REACTORS
330
11E
102
}
330
11E
100
AcDbScale
 70
     0
300
1/16" = 1'-0"
140
0.0625
141
12.0
290
     0
  0
SCALE
  5
122
102
{ACAD_REACTORS
330
11E
102
}
330
11E
100
AcDbScale
 70
     0
300
3/32" = 1'-0"
140
0.09375
141
12.0
290
     0
  0
SCALE
  5
123
102
{ACAD_REACTORS
330
11E
102
}
330
11E
100
AcDbScale
 70
     0
300
1/8" = 1'-0"
140
0.125
141
12.0
290
     0
  0
SCALE
  5
124
102
{ACAD_REACTORS
330
11E
102
}
330
11E
100
AcDbScale
 70
     0
300
3/16" = 1'-0"
140
0.1875
141
12.0
290
     0
  0
SCALE
  5
125
102
{ACAD_REACTORS
330
11E
102
}
330
11E
100
AcDbScale
 70
     0
300
1/4" = 1'-0"
140
0.25
141
12.0
290
     0
  0
SCALE
  5
126
102
{ACAD_REACTORS
330
11E
102
}
330
11E
100
AcDbScale
 70
     0
300
3/8" = 1'-0"
140
0.375
141
12.0
290
     0
  0
SCALE
  5
127
102
{ACAD_REACTORS
330
11E
102
}
330
11E
100
AcDbScale
 70
     0
300
1/2" = 1'-0"
140
0.5
141
12.0
290
     0
  0
SCALE
  5
128
102
{ACAD_REACTORS
330
11E
102
}
330
11E
100
AcDbScale
 70
     0
300
3/4" = 1'-0"
140
0.75
141
12.0
290
     0
  0
SCALE
  5
129
102
{ACAD_REACTORS
330
11E
102
}
330
11E
100
AcDbScale
 70
     0
300
1" = 1'-0"
140
1.0
141
12.0
290
     0
  0
SCALE
  5
12A
102
{ACAD_REACTORS
330
11E
102
}
330
11E
100
AcDbScale
 70
     0
300
1 1/2" = 1'-0"
140
1.5
141
12.0
290
     0
  0
SCALE
  5
12B
102
{ACAD_REACTORS
330
11E
102
}
330
11E
100
AcDbScale
 70
     0
300
3" = 1'-0"
140
3.0
141
12.0
290
     0
  0
SCALE
  5
12C
102
{ACAD_REACTORS
330
11E
102
}
330
11E
100
AcDbScale
 70
     0
300
6" = 1'-0"
140
6.0
141
12.0
290
     0
  0
SCALE
  5
12D
102
{ACAD_REACTORS
330
11E
102
}
330
11E
100
AcDbScale
 70
     0
300
1'-0" = 1'-0"
140
12.0
141
12.0
290
     1
  0
TABLESTYLE
  5
112
102
{ACAD_XDICTIONARY
360
176
102
}
102
{ACAD_REACTORS
330
111
102
}
330
111
100
AcDbTableStyle
  3
Standard
 70
     0
 71
     0
 40
0.06
 41
0.06
280
     0
281
     0
  7
Standard
140
0.18
170
     2
 62
     0
 63
     7
283
     0
274
    -2
284
     1
 64
     0
275
    -2
285
     1
 65
     0
276
    -2
286
     1
 66
     0
277
    -2
287
     1
 67
     0
278
    -2
288
     1
 68
     0
279
    -2
289
     1
 69
     0
  7
Standard
140
0.25
170
     5
 62
     0
 63
     7
283
     0
274
    -2
284
     1
 64
     0
275
    -2
285
     1
 65
     0
276
    -2
286
     1
 66
     0
277
    -2
287
     1
 67
     0
278
    -2
288
     1
 68
     0
279
    -2
289
     1
 69
     0
  7
Standard
140
0.18
170
     5
 62
     0
 63
     7
283
     0
274
    -2
284
     1
 64
     0
275
    -2
285
     1
 65
     0
276
    -2
286
     1
 66
     0
277
    -2
287
     1
 67
     0
278
    -2
288
     1
 68
     0
279
    -2
289
     1
 69
     0
  0
VISUALSTYLE
  5
105
102
{ACAD_REACTORS
330
FF
102
}
330
FF
100
AcDbVisualStyle
  2
2dWireframe
 70
     4
 71
     0
 72
     2
 73
     0
 90
        0
 40
-0.6
 41
-30.0
 62
     5
 63
     7
421
 16777215
 74
     1
 91
        4
 64
     7
 65
   257
 75
     1
175
     1
 42
1.0
 92
        0
 66
   257
 43
1.0
 76
     1
 77
     6
 78
     2
 67
     7
 79
     5
170
     0
171
     0
290
     0
174
     0
 93
        1
 44
0.0
173
     0
291
     0
 45
0.0
1001
ACAD
1000
AcDbSavedByObjectVersion
1070
     0
  0
VISUALSTYLE
  5
107
102
{ACAD_REACTORS
330
FF
102
}
330
FF
100
AcDbVisualStyle
  2
3D Hidden
 70
     6
 71
     1
 72
     2
 73
     2
 90
        0
 40
-0.6
 41
-30.0
 62
     5
 63
     7
421
 16777215
 74
     2
 91
        2
 64
     7
 65
   257
 75
     2
175
     1
 42
40.0
 92
        0
 66
   257
 43
1.0
 76
     1
 77
     6
 78
     2
 67
     7
 79
     3
170
     0
171
     0
290
     0
174
     0
 93
        1
 44
0.0
173
     0
291
     0
 45
0.0
1001
ACAD
1000
AcDbSavedByObjectVersion
1070
     0
  0
VISUALSTYLE
  5
106
102
{ACAD_REACTORS
330
FF
102
}
330
FF
100
AcDbVisualStyle
  2
3dWireframe
 70
     5
 71
     0
 72
     2
 73
     0
 90
        0
 40
-0.6
 41
-30.0
 62
     5
 63
     7
421
 16777215
 74
     1
 91
        4
 64
     7
 65
   257
 75
     1
175
     1
 42
1.0
 92
        0
 66
   257
 43
1.0
 76
     1
 77
     6
 78
     2
 67
     7
 79
     5
170
     0
171
     0
290
     0
174
     0
 93
        1
 44
0.0
173
     0
291
     0
 45
0.0
1001
ACAD
1000
AcDbSavedByObjectVersion
1070
     0
  0
VISUALSTYLE
  5
104
102
{ACAD_REACTORS
330
FF
102
}
330
FF
100
AcDbVisualStyle
  2
Basic
 70
     7
 71
     1
 72
     0
 73
     1
 90
        0
 40
-0.6
 41
-30.0
 62
     5
 63
     7
421
 16777215
 74
     0
 91
        4
 64
     7
 65
   257
 75
     1
175
     1
 42
1.0
 92
        8
 66
     7
 43
1.0
 76
     1
 77
     6
 78
     2
 67
     7
 79
     5
170
     0
171
     0
290
     0
174
     0
 93
        1
 44
0.0
173
     0
291
     1
 45
0.0
1001
ACAD
1000
AcDbSavedByObjectVersion
1070
     0
  0
VISUALSTYLE
  5
10B
102
{ACAD_REACTORS
330
FF
102
}
330
FF
100
AcDbVisualStyle
  2
Brighten
 70
    12
 71
     2
 72
     2
 73
     0
 90
        0
 40
-0.6
 41
-30.0
 62
     5
 63
     7
421
 16777215
 74
     1
 91
        4
 64
     7
 65
   257
 75
     1
175
     1
 42
1.0
 92
        8
 66
     7
 43
1.0
 76
     1
 77
     6
 78
     2
 67
     7
 79
     5
170
     0
171
     0
290
     0
174
     0
 93
        1
 44
50.0
173
     0
291
     1
 45
0.0
1001
ACAD
1000
AcDbSavedByObjectVersion
1070
     0
  0
VISUALSTYLE
  5
10F
102
{ACAD_REACTORS
330
FF
102
}
330
FF
100
AcDbVisualStyle
  2
ColorChange
 70
    16
 71
     2
 72
     2
 73
     3
 90
        0
 40
-0.6
 41
-30.0
 62
     5
 63
     8
421
  8421504
 74
     1
 91
        4
 64
     7
 65
   257
 75
     1
175
     1
 42
1.0
 92
        8
 66
     8
424
  8421504
 43
1.0
 76
     1
 77
     6
 78
     2
 67
     7
 79
     5
170
     0
171
     0
290
     0
174
     0
 93
        1
 44
0.0
173
     0
291
     1
 45
0.0
1001
ACAD
1000
AcDbSavedByObjectVersion
1070
     0
  0
VISUALSTYLE
  5
108
102
{ACAD_REACTORS
330
FF
102
}
330
FF
100
AcDbVisualStyle
  2
Conceptual
 70
     9
 71
     3
 72
     2
 73
     0
 90
        0
 40
-0.6
 41
-30.0
 62
     5
 63
     7
421
 16777215
 74
     2
 91
        2
 64
     7
 65
   257
 75
     1
175
     1
 42
40.0
 92
        8
 66
     7
 43
1.0
 76
     1
 77
     6
 78
     2
 67
     7
 79
     3
170
     0
171
     0
290
     0
174
     0
 93
        1
 44
0.0
173
     0
291
     0
 45
0.0
1001
ACAD
1000
AcDbSavedByObjectVersion
1070
     0
  0
VISUALSTYLE
  5
10A
102
{ACAD_REACTORS
330
FF
102
}
330
FF
100
AcDbVisualStyle
  2
Dim
 70
    11
 71
     2
 72
     2
 73
     0
 90
        0
 40
-0.6
 41
-30.0
 62
     5
 63
     7
421
 16777215
 74
     1
 91
        4
 64
     7
 65
   257
 75
     1
175
     1
 42
1.0
 92
        8
 66
     7
 43
1.0
 76
     1
 77
     6
 78
     2
 67
     7
 79
     5
170
     0
171
     0
290
     0
174
     0
 93
        1
 44
-50.0
173
     0
291
     1
 45
0.0
1001
ACAD
1000
AcDbSavedByObjectVersion
1070
     0
  0
VISUALSTYLE
  5
10E
102
{ACAD_REACTORS
330
FF
102
}
330
FF
100
AcDbVisualStyle
  2
Facepattern
 70
    15
 71
     2
 72
     2
 73
     0
 90
        0
 40
-0.6
 41
-30.0
 62
     5
 63
     7
421
 16777215
 74
     1
 91
        4
 64
     7
 65
   257
 75
     1
175
     1
 42
1.0
 92
        8
 66
     7
 43
1.0
 76
     1
 77
     6
 78
     2
 67
     7
 79
     5
170
     0
171
     0
290
     0
174
     0
 93
        1
 44
0.0
173
     0
291
     1
 45
0.0
1001
ACAD
1000
AcDbSavedByObjectVersion
1070
     0
  0
VISUALSTYLE
  5
100
102
{ACAD_REACTORS
330
FF
102
}
330
FF
100
AcDbVisualStyle
  2
Flat
 70
     0
 71
     2
 72
     1
 73
     1
 90
        2
 40
-0.6
 41
30.0
 62
     5
 63
     7
421
 16777215
 74
     0
 91
        4
 64
     7
 65
   257
 75
     1
175
     1
 42
1.0
 92
        8
 66
     7
 43
1.0
 76
     1
 77
     6
 78
     2
 67
     7
 79
     5
170
     0
171
     0
290
     0
174
     0
 93
       13
 44
0.0
173
     0
291
     1
 45
0.0
1001
ACAD
1000
AcDbSavedByObjectVersion
1070
     0
  0
VISUALSTYLE
  5
101
102
{ACAD_REACTORS
330
FF
102
}
330
FF
100
AcDbVisualStyle
  2
FlatWithEdges
 70
     1
 71
     2
 72
     1
 73
     1
 90
        2
 40
-0.6
 41
30.0
 62
     5
 63
     7
421
 16777215
 74
     1
 91
        4
 64
     7
 65
   257
 75
     1
175
     1
 42
1.0
 92
        0
 66
   257
 43
1.0
 76
     1
 77
     6
 78
     2
 67
     7
 79
     5
170
     0
171
     0
290
     0
174
     0
 93
       13
 44
0.0
173
     0
291
     1
 45
0.0
1001
ACAD
1000
AcDbSavedByObjectVersion
1070
     0
  0
VISUALSTYLE
  5
102
102
{ACAD_REACTORS
330
FF
102
}
330
FF
100
AcDbVisualStyle
  2
Gouraud
 70
     2
 71
     2
 72
     2
 73
     1
 90
        2
 40
-0.6
 41
30.0
 62
     5
 63
     7
421
 16777215
 74
     0
 91
        4
 64
     7
 65
   257
 75
     1
175
     1
 42
1.0
 92
        0
 66
     7
 43
1.0
 76
     1
 77
     6
 78
     2
 67
     7
 79
     5
170
     0
171
     0
290
     0
174
     0
 93
       13
 44
0.0
173
     0
291
     1
 45
0.0
1001
ACAD
1000
AcDbSavedByObjectVersion
1070
     0
  0
VISUALSTYLE
  5
103
102
{ACAD_REACTORS
330
FF
102
}
330
FF
100
AcDbVisualStyle
  2
GouraudWithEdges
 70
     3
 71
     2
 72
     2
 73
     1
 90
        2
 40
-0.6
 41
30.0
 62
     5
 63
     7
421
 16777215
 74
     1
 91
        4
 64
     7
 65
   257
 75
     1
175
     1
 42
1.0
 92
        0
 66
   257
 43
1.0
 76
     1
 77
     6
 78
     2
 67
     7
 79
     5
170
     0
171
     0
290
     0
174
     0
 93
       13
 44
0.0
173
     0
291
     1
 45
0.0
1001
ACAD
1000
AcDbSavedByObjectVersion
1070
     0
  0
VISUALSTYLE
  5
10D
102
{ACAD_REACTORS
330
FF
102
}
330
FF
100
AcDbVisualStyle
  2
Linepattern
 70
    14
 71
     2
 72
     2
 73
     0
 90
        0
 40
-0.6
 41
-30.0
 62
     5
 63
     7
421
 16777215
 74
     1
 91
        4
 64
     7
 65
   257
 75
     7
175
     7
 42
1.0
 92
        8
 66
     7
 43
1.0
 76
     1
 77
     6
 78
     2
 67
     7
 79
     5
170
     0
171
     0
290
     0
174
     0
 93
        1
 44
0.0
173
     0
291
     1
 45
0.0
1001
ACAD
1000
AcDbSavedByObjectVersion
1070
     0
  0
VISUALSTYLE
  5
109
102
{ACAD_REACTORS
330
FF
102
}
330
FF
100
AcDbVisualStyle
  2
Realistic
 70
     8
 71
     2
 72
     2
 73
     0
 90
        0
 40
-0.6
 41
-30.0
 62
     5
 63
     7
421
 16777215
 74
     1
 91
        0
 64
     7
 65
   257
 75
     1
175
     1
 42
1.0
 92
        8
 66
     8
424
  7895160
 43
1.0
 76
     1
 77
     6
 78
     2
 67
     7
 79
     5
170
     0
171
     0
290
     0
174
     0
 93
       13
 44
0.0
173
     0
291
     0
 45
0.0
1001
ACAD
1000
AcDbSavedByObjectVersion
1070
     0
  0
VISUALSTYLE
  5
10C
102
{ACAD_REACTORS
330
FF
102
}
330
FF
100
AcDbVisualStyle
  2
Thicken
 70
    13
 71
     2
 72
     2
 73
     0
 90
        0
 40
-0.6
 41
-30.0
 62
     5
 63
     7
421
 16777215
 74
     1
 91
        4
 64
     7
 65
   257
 75
     1
175
     1
 42
1.0
 92
       12
 66
     7
 43
1.0
 76
     1
 77
     6
 78
     2
 67
     7
 79
     5
170
     0
171
     0
290
     0
174
     0
 93
        1
 44
0.0
173
     0
291
     1
 45
0.0
1001
ACAD
1000
AcDbSavedByObjectVersion
1070
     0
  0
DICTIONARYVAR
  5
175
102
{ACAD_REACTORS
330
11B
102
}
330
11B
100
DictionaryVariables
280
     0
  1
1'-0" = 1'-0"
  0
DICTIONARYVAR
  5
174
102
{ACAD_REACTORS
330
11B
102
}
330
11B
100
DictionaryVariables
280
     0
  1
STANDARD
  0
DICTIONARYVAR
  5
11C
102
{ACAD_REACTORS
330
11B
102
}
330
11B
100
DictionaryVariables
280
     0
  1
STANDARD
  0
XRECORD
  5
161
102
{ACAD_REACTORS
330
15F
102
}
330
15F
100
AcDbXrecord
280
     1
  0
DICTIONARY
  5
17B
330
FD
100
AcDbDictionary
280
     1
281
     1
  3
ACAD_XREC_ROUNDTRIP
360
17C
  0
DICTIONARY
  5
179
330
FC
100
AcDbDictionary
280
     1
281
     1
  3
ACAD_XREC_ROUNDTRIP
360
17A
  0
DICTIONARY
  5
17D
330
FE
100
AcDbDictionary
280
     1
281
     1
  3
ACAD_XREC_ROUNDTRIP
360
17E
  0
DICTIONARY
  5
176
330
112
100
AcDbDictionary
280
     1
281
     1
  3
ACAD_ROUNDTRIP_2008_TABLESTYLE_CELLSTYLEMAP
360
177
  3
ACAD_XREC_ROUNDTRIP
360
17F
  0
XRECORD
  5
17C
102
{ACAD_REACTORS
330
17B
102
}
330
17B
100
AcDbXrecord
280
     1
102
MATERIAL
148
0.0
149
0.0
149
0.0
 93
        0
 94
       63
282
     0
 72
     1
 77
     1
171
     1
175
     1
179
     1
273
     0
  0
XRECORD
  5
17A
102
{ACAD_REACTORS
330
179
102
}
330
179
100
AcDbXrecord
280
     1
102
MATERIAL
148
0.0
149
0.0
149
0.0
 93
        0
 94
       63
282
     0
 72
     1
 77
     1
171
     1
175
     1
179
     1
273
     0
  0
XRECORD
  5
17E
102
{ACAD_REACTORS
330
17D
102
}
330
17D
100
AcDbXrecord
280
     1
102
MATERIAL
148
0.0
149
0.0
149
0.0
 93
        0
 94
       63
282
     0
 72
     1
 77
     1
171
     1
175
     1
179
     1
273
     0
  0
CELLSTYLEMAP
  5
177
102
{ACAD_REACTORS
330
176
102
}
330
176
100
AcDbCellStyleMap
 90
        3
300
CELLSTYLE
  1
TABLEFORMAT_BEGIN
 90
        5
170
     1
 91
        0
 92
    32768
 62
   257
 93
        1
300
CONTENTFORMAT
  1
CONTENTFORMAT_BEGIN
 90
        0
 91
        0
 92
      512
 93
        0
300

 40
0.0
140
1.0
 94
        5
 62
     0
340
17
144
0.25
309
CONTENTFORMAT_END
171
     0
 94
        6
 95
        1
302
GRIDFORMAT
  1
GRIDFORMAT_BEGIN
 90
        0
 91
        1
 62
     0
 92
       -2
340
0
 93
        0
 40
0.045
309
GRIDFORMAT_END
 95
        2
302
GRIDFORMAT
  1
GRIDFORMAT_BEGIN
 90
        0
 91
        1
 62
     0
 92
       -2
340
0
 93
        0
 40
0.045
309
GRIDFORMAT_END
 95
        4
302
GRIDFORMAT
  1
GRIDFORMAT_BEGIN
 90
        0
 91
        1
 62
     0
 92
       -2
340
0
 93
        0
 40
0.045
309
GRIDFORMAT_END
 95
        8
302
GRIDFORMAT
  1
GRIDFORMAT_BEGIN
 90
        0
 91
        1
 62
     0
 92
       -2
340
0
 93
        0
 40
0.045
309
GRIDFORMAT_END
 95
       16
302
GRIDFORMAT
  1
GRIDFORMAT_BEGIN
 90
        0
 91
        1
 62
     0
 92
       -2
340
0
 93
        0
 40
0.045
309
GRIDFORMAT_END
 95
       32
302
GRIDFORMAT
  1
GRIDFORMAT_BEGIN
 90
        0
 91
        1
 62
     0
 92
       -2
340
0
 93
        0
 40
0.045
309
GRIDFORMAT_END
309
TABLEFORMAT_END
  1
CELLSTYLE_BEGIN
 90
        1
 91
        1
300
_TITLE
309
CELLSTYLE_END
300
CELLSTYLE
  1
TABLEFORMAT_BEGIN
 90
        5
170
     1
 91
        0
 92
        0
 62
   257
 93
        1
300
CONTENTFORMAT
  1
CONTENTFORMAT_BEGIN
 90
        0
 91
        0
 92
      512
 93
        0
300

 40
0.0
140
1.0
 94
        5
 62
     0
340
17
144
0.18
309
CONTENTFORMAT_END
171
     0
 94
        6
 95
        1
302
GRIDFORMAT
  1
GRIDFORMAT_BEGIN
 90
        0
 91
        1
 62
     0
 92
       -2
340
0
 93
        0
 40
0.045
309
GRIDFORMAT_END
 95
        2
302
GRIDFORMAT
  1
GRIDFORMAT_BEGIN
 90
        0
 91
        1
 62
     0
 92
       -2
340
0
 93
        0
 40
0.045
309
GRIDFORMAT_END
 95
        4
302
GRIDFORMAT
  1
GRIDFORMAT_BEGIN
 90
        0
 91
        1
 62
     0
 92
       -2
340
0
 93
        0
 40
0.045
309
GRIDFORMAT_END
 95
        8
302
GRIDFORMAT
  1
GRIDFORMAT_BEGIN
 90
        0
 91
        1
 62
     0
 92
       -2
340
0
 93
        0
 40
0.045
309
GRIDFORMAT_END
 95
       16
302
GRIDFORMAT
  1
GRIDFORMAT_BEGIN
 90
        0
 91
        1
 62
     0
 92
       -2
340
0
 93
        0
 40
0.045
309
GRIDFORMAT_END
 95
       32
302
GRIDFORMAT
  1
GRIDFORMAT_BEGIN
 90
        0
 91
        1
 62
     0
 92
       -2
340
0
 93
        0
 40
0.045
309
GRIDFORMAT_END
309
TABLEFORMAT_END
  1
CELLSTYLE_BEGIN
 90
        2
 91
        1
300
_HEADER
309
CELLSTYLE_END
300
CELLSTYLE
  1
TABLEFORMAT_BEGIN
 90
        5
170
     1
 91
        0
 92
        0
 62
   257
 93
        1
300
CONTENTFORMAT
  1
CONTENTFORMAT_BEGIN
 90
        0
 91
        0
 92
      512
 93
        0
300

 40
0.0
140
1.0
 94
        2
 62
     0
340
17
144
0.18
309
CONTENTFORMAT_END
171
     0
 94
        6
 95
        1
302
GRIDFORMAT
  1
GRIDFORMAT_BEGIN
 90
        0
 91
        1
 62
     0
 92
       -2
340
0
 93
        0
 40
0.045
309
GRIDFORMAT_END
 95
        2
302
GRIDFORMAT
  1
GRIDFORMAT_BEGIN
 90
        0
 91
        1
 62
     0
 92
       -2
340
0
 93
        0
 40
0.045
309
GRIDFORMAT_END
 95
        4
302
GRIDFORMAT
  1
GRIDFORMAT_BEGIN
 90
        0
 91
        1
 62
     0
 92
       -2
340
0
 93
        0
 40
0.045
309
GRIDFORMAT_END
 95
        8
302
GRIDFORMAT
  1
GRIDFORMAT_BEGIN
 90
        0
 91
        1
 62
     0
 92
       -2
340
0
 93
        0
 40
0.045
309
GRIDFORMAT_END
 95
       16
302
GRIDFORMAT
  1
GRIDFORMAT_BEGIN
 90
        0
 91
        1
 62
     0
 92
       -2
340
0
 93
        0
 40
0.045
309
GRIDFORMAT_END
 95
       32
302
GRIDFORMAT
  1
GRIDFORMAT_BEGIN
 90
        0
 91
        1
 62
     0
 92
       -2
340
0
 93
        0
 40
0.045
309
GRIDFORMAT_END
309
TABLEFORMAT_END
  1
CELLSTYLE_BEGIN
 90
        3
 91
        2
300
_DATA
309
CELLSTYLE_END
  0
XRECORD
  5
17F
102
{ACAD_REACTORS
330
176
102
}
330
176
100
AcDbXrecord
280
     1
102
ACAD_ROUNDTRIP_PRE2007_TABLESTYLE
 90
      512
 91
        0
  1

 92
      512
 93
        0
  2

 94
      512
 95
        0
  3

  0
ENDSEC
  0
EOF
