  0
SECTION
  2
HEADER
  9
$ACADVER
  1
AC1018
  9
$ACADMAINTVER
 70
   104
  9
$DWGCODEPAGE
  3
ANSI_1252
  9
$LASTSAVEDBY
  1
EARL
  9
$INSBASE
 10
0.0
 20
0.0
 30
0.0
  9
$EXTMIN
 10
-1.633981432186196
 20
0.5367489402005932
 30
0.0
  9
$EXTMAX
 10
5.009204212913127
 20
4.471729397051248
 30
0.0
  9
$LIMMIN
 10
0.0
 20
0.0
  9
$LIMMAX
 10
0.0
 20
0.0
  9
$ORTHOMODE
 70
     0
  9
$REGENMODE
 70
     1
  9
$FILLMODE
 70
     1
  9
$QTEXTMODE
 70
     0
  9
$MIRRTEXT
 70
     1
  9
$LTSCALE
 40
1.0
  9
$ATTMODE
 70
     1
  9
$TEXTSIZE
 40
0.0
  9
$TRACEWID
 40
0.05
  9
$TEXTSTYLE
  7
Standard
  9
$CLAYER
  8
0
  9
$CELTYPE
  6
Continuous
  9
$CECOLOR
 62
   256
  9
$CELTSCALE
 40
1.0
  9
$DISPSILH
 70
     0
  9
$DIMSCALE
 40
1.0
  9
$DIMASZ
 40
0.18
  9
$DIMEXO
 40
0.0625
  9
$DIMDLI
 40
0.38
  9
$DIMRND
 40
0.0
  9
$DIMDLE
 40
0.0
  9
$DIMEXE
 40
0.18
  9
$DIMTP
 40
0.0
  9
$DIMTM
 40
0.0
  9
$DIMTXT
 40
0.18
  9
$DIMCEN
 40
0.09
  9
$DIMTSZ
 40
0.0
  9
$DIMTOL
 70
     0
  9
$DIMLIM
 70
     0
  9
$DIMTIH
 70
     1
  9
$DIMTOH
 70
     1
  9
$DIMSE1
 70
     0
  9
$DIMSE2
 70
     0
  9
$DIMTAD
 70
     0
  9
$DIMZIN
 70
     0
  9
$DIMBLK
  1

  9
$DIMASO
 70
     1
  9
$DIMSHO
 70
     1
  9
$DIMPOST
  1

  9
$DIMAPOST
  1

  9
$DIMALT
 70
     0
  9
$DIMALTD
 70
     2
  9
$DIMALTF
 40
25.4
  9
$DIMLFAC
 40
1.0
  9
$DIMTOFL
 70
     0
  9
$DIMTVP
 40
0.0
  9
$DIMTIX
 70
     0
  9
$DIMSOXD
 70
     0
  9
$DIMSAH
 70
     0
  9
$DIMBLK1
  1

  9
$DIMBLK2
  1

  9
$DIMSTYLE
  2
Standard
  9
$DIMCLRD
 70
     0
  9
$DIMCLRE
 70
     0
  9
$DIMCLRT
 70
     0
  9
$DIMTFAC
 40
1.0
  9
$DIMGAP
 40
0.09
  9
$DIMJUST
 70
     0
  9
$DIMSD1
 70
     0
  9
$DIMSD2
 70
     0
  9
$DIMTOLJ
 70
     1
  9
$DIMTZIN
 70
     0
  9
$DIMALTZ
 70
     0
  9
$DIMALTTZ
 70
     0
  9
$DIMUPT
 70
     0
  9
$DIMDEC
 70
     4
  9
$DIMTDEC
 70
     4
  9
$DIMALTU
 70
     2
  9
$DIMALTTD
 70
     2
  9
$DIMTXSTY
  7
Standard
  9
$DIMAUNIT
 70
     0
  9
$DIMADEC
 70
     0
  9
$DIMALTRND
 40
0.0
  9
$DIMAZIN
 70
     0
  9
$DIMDSEP
 70
    46
  9
$DIMATFIT
 70
     0
  9
$DIMFRAC
 70
     0
  9
$DIMLDRBLK
  1

  9
$DIMLUNIT
 70
     2
  9
$DIMLWD
 70
    -2
  9
$DIMLWE
 70
    -2
  9
$DIMTMOVE
 70
     0
  9
$LUNITS
 70
     2
  9
$LUPREC
 70
     4
  9
$SKETCHINC
 40
0.1
  9
$FILLETRAD
 40
0.0
  9
$AUNITS
 70
     0
  9
$AUPREC
 70
     0
  9
$MENU
  1
acad
  9
$ELEVATION
 40
0.0
  9
$PELEVATION
 40
0.0
  9
$THICKNESS
 40
0.0
  9
$LIMCHECK
 70
     0
  9
$CHAMFERA
 40
0.0
  9
$CHAMFERB
 40
0.0
  9
$CHAMFERC
 40
0.0
  9
$CHAMFERD
 40
0.0
  9
$SKPOLY
 70
     0
  9
$TDCREATE
 40
2454831.418113426
  9
$TDUCREATE
 40
2454831.584780093
  9
$TDUPDATE
 40
2455103.911920926
  9
$TDUUPDATE
 40
2455104.078587593
  9
$TDINDWG
 40
0.0018581366
  9
$TDUSRTIMER
 40
0.0018581366
  9
$USRTIMER
 70
     1
  9
$ANGBASE
 50
0.0
  9
$ANGDIR
 70
     0
  9
$PDMODE
 70
     0
  9
$PDSIZE
 40
0.0
  9
$PLINEWID
 40
0.0
  9
$SPLFRAME
 70
     0
  9
$SPLINETYPE
 70
     6
  9
$SPLINESEGS
 70
     8
  9
$HANDSEED
  5
185
  9
$SURFTAB1
 70
     6
  9
$SURFTAB2
 70
     6
  9
$SURFTYPE
 70
     6
  9
$SURFU
 70
     6
  9
$SURFV
 70
     6
  9
$UCSBASE
  2

  9
$UCSNAME
  2

  9
$UCSORG
 10
0.0
 20
0.0
 30
0.0
  9
$UCSXDIR
 10
1.0
 20
0.0
 30
0.0
  9
$UCSYDIR
 10
0.0
 20
1.0
 30
0.0
  9
$UCSORTHOREF
  2

  9
$UCSORTHOVIEW
 70
     0
  9
$UCSORGTOP
 10
0.0
 20
0.0
 30
0.0
  9
$UCSORGBOTTOM
 10
0.0
 20
0.0
 30
0.0
  9
$UCSORGLEFT
 10
0.0
 20
0.0
 30
0.0
  9
$UCSORGRIGHT
 10
0.0
 20
0.0
 30
0.0
  9
$UCSORGFRONT
 10
0.0
 20
0.0
 30
0.0
  9
$UCSORGBACK
 10
0.0
 20
0.0
 30
0.0
  9
$PUCSBASE
  2

  9
$PUCSNAME
  2

  9
$PUCSORG
 10
0.0
 20
0.0
 30
0.0
  9
$PUCSXDIR
 10
1.0
 20
0.0
 30
0.0
  9
$PUCSYDIR
 10
0.0
 20
1.0
 30
0.0
  9
$PUCSORTHOREF
  2

  9
$PUCSORTHOVIEW
 70
     0
  9
$PUCSORGTOP
 10
0.0
 20
0.0
 30
0.0
  9
$PUCSORGBOTTOM
 10
0.0
 20
0.0
 30
0.0
  9
$PUCSORGLEFT
 10
0.0
 20
0.0
 30
0.0
  9
$PUCSORGRIGHT
 10
0.0
 20
0.0
 30
0.0
  9
$PUCSORGFRONT
 10
0.0
 20
0.0
 30
0.0
  9
$PUCSORGBACK
 10
0.0
 20
0.0
 30
0.0
  9
$USERI1
 70
     0
  9
$USERI2
 70
     0
  9
$USERI3
 70
     0
  9
$USERI4
 70
     0
  9
$USERI5
 70
     0
  9
$USERR1
 40
0.0
  9
$USERR2
 40
0.0
  9
$USERR3
 40
0.0
  9
$USERR4
 40
0.0
  9
$USERR5
 40
0.0
  9
$WORLDVIEW
 70
     1
  9
$SHADEDGE
 70
     3
  9
$SHADEDIF
 70
    70
  9
$TILEMODE
 70
     0
  9
$MAXACTVP
 70
    16
  9
$PINSBASE
 10
0.0
 20
0.0
 30
0.0
  9
$PLIMCHECK
 70
     0
  9
$PEXTMIN
 10
-0.0380549155168168
 20
-0.0428619138838222
 30
-0.0015258207003583
  9
$PEXTMAX
 10
10.25262479049731
 20
7.92783335577306
 30
0.0000000349246037
  9
$PLIMMIN
 10
-0.3306119115190196
 20
-0.2812499079328949
  9
$PLIMMAX
 10
10.66938784818509
 20
8.218749851771214
  9
$UNITMODE
 70
     0
  9
$VISRETAIN
 70
     0
  9
$PLINEGEN
 70
     1
  9
$PSLTSCALE
 70
     0
  9
$TREEDEPTH
 70
  3020
  9
$CMLSTYLE
  2
Standard
  9
$CMLJUST
 70
     0
  9
$CMLSCALE
 40
1.0
  9
$PROXYGRAPHICS
 70
     0
  9
$MEASUREMENT
 70
     0
  9
$CELWEIGHT
370
     0
  9
$ENDCAPS
280
     0
  9
$JOINSTYLE
280
     0
  9
$LWDISPLAY
290
     0
  9
$INSUNITS
 70
     0
  9
$HYPERLINKBASE
  1

  9
$STYLESHEET
  1

  9
$XEDIT
290
     1
  9
$CEPSNTYPE
380
     0
  9
$PSTYLEMODE
290
     1
  9
$FINGERPRINTGUID
  2

  9
$VERSIONGUID
  2
{869BD116-31ED-4A49-93E6-E84C25D56C33}
  9
$EXTNAMES
290
     1
  9
$PSVPSCALE
 40
0.0
  9
$OLESTARTUP
290
     0
  9
$SORTENTS
280
   127
  9
$INDEXCTL
280
     0
  9
$HIDETEXT
280
     0
  9
$XCLIPFRAME
290
     0
  9
$HALOGAP
280
     0
  9
$OBSCOLOR
 70
   257
  9
$OBSLTYPE
280
     0
  9
$INTERSECTIONDISPLAY
280
     0
  9
$INTERSECTIONCOLOR
 70
   257
  9
$DIMASSOC
280
     1
  9
$PROJECTNAME
  1

  0
ENDSEC
  0
SECTION
  2
CLASSES
  0
CLASS
  1
IMAGE
  2
AcDbRasterImage
  3
ISM
 90
     2175
 91
        0
280
     0
281
     1
  0
CLASS
  1
DICTIONARYVAR
  2
AcDbDictionaryVar
  3
ObjectDBX Classes
 90
        0
 91
        5
280
     0
281
     0
  0
CLASS
  1
RASTERVARIABLES
  2
AcDbRasterVariables
  3
ISM
 90
        0
 91
        0
280
     0
281
     0
  0
CLASS
  1
IMAGEDEF
  2
AcDbRasterImageDef
  3
ISM
 90
        0
 91
        0
280
     0
281
     0
  0
CLASS
  1
IMAGEDEF_REACTOR
  2
AcDbRasterImageDefReactor
  3
ISM
 90
        1
 91
        0
280
     0
281
     0
  0
CLASS
  1
IDBUFFER
  2
AcDbIdBuffer
  3
ObjectDBX Classes
 90
        0
 91
        0
280
     0
281
     0
  0
CLASS
  1
SPATIAL_FILTER
  2
AcDbSpatialFilter
  3
ObjectDBX Classes
 90
        0
 91
        0
280
     0
281
     0
  0
CLASS
  1
SORTENTSTABLE
  2
AcDbSortentsTable
  3
ObjectDBX Classes
 90
        0
 91
        1
280
     0
281
     0
  0
CLASS
  1
LAYER_INDEX
  2
AcDbLayerIndex
  3
ObjectDBX Classes
 90
        0
 91
        0
280
     0
281
     0
  0
CLASS
  1
SPATIAL_INDEX
  2
AcDbSpatialIndex
  3
ObjectDBX Classes
 90
        0
 91
        0
280
     0
281
     0
  0
CLASS
  1
OBJECT_PTR
  2
CAseDLPNTableRecord
  3
ASE-LPNTableRecord
 90
        1
 91
        0
280
     0
281
     0
  0
CLASS
  1
PLOTSETTINGS
  2
AcDbPlotSettings
  3
ObjectDBX Classes
 90
        0
 91
        0
280
     0
281
     0
  0
CLASS
  1
ACDBDICTIONARYWDFLT
  2
AcDbDictionaryWithDefault
  3
ObjectDBX Classes
 90
        0
 91
        1
280
     0
281
     0
  0
CLASS
  1
WIPEOUT
  2
AcDbWipeout
  3
"WipeOut|Product Desc: Object Enabler for WipeOut entity                        |Company: Autodesk, Inc.                        |WEB Address: www.autodesk.com"
 90
     2175
 91
        0
280
     0
281
     1
  0
CLASS
  1
WIPEOUTVARIABLES
  2
AcDbWipeoutVariables
  3
"WipeOut|Product Desc:     WipeOut Dbx Application|Company:          Autodesk, Inc.|WEB Address:      www.autodesk.com"
 90
        0
 91
        1
280
     0
281
     0
  0
CLASS
  1
RTEXT
  2
RText
  3
RText|AutoCAD Express Tool|expresstools@autodesk.com
 90
        0
 91
        0
280
     0
281
     1
  0
CLASS
  1
ARCALIGNEDTEXT
  2
AcDbArcAlignedText
  3
ATEXT|AutoCAD Express Tool|expresstools@autodesk.com
 90
        0
 91
        0
280
     0
281
     1
  0
CLASS
  1
MATERIAL
  2
AcDbMaterial
  3
ObjectDBX Classes
 90
     1153
 91
        3
280
     0
281
     0
  0
CLASS
  1
VISUALSTYLE
  2
AcDbVisualStyle
  3
ObjectDBX Classes
 90
     4095
 91
       16
280
     0
281
     0
  0
CLASS
  1
TABLESTYLE
  2
AcDbTableStyle
  3
ObjectDBX Classes
 90
     4095
 91
        1
280
     0
281
     0
  0
CLASS
  1
SCALE
  2
AcDbScale
  3
ObjectDBX Classes
 90
     1153
 91
       15
280
     0
281
     0
  0
CLASS
  1
MLEADERSTYLE
  2
AcDbMLeaderStyle
  3
ACDB_MLEADERSTYLE_CLASS
 90
     4095
 91
        1
280
     0
281
     0
  0
CLASS
  1
AEC_REFEDIT_STATUS_TRACKER
  2
AecDbRefEditStatusTracker
  3
AecArchBase50|Product Desc: Autodesk Architectural Desktop 2007 |Company: Autodesk,Inc. |WEB Address: www.autodesk.com
 90
      129
 91
        1
280
     0
281
     0
  0
CLASS
  1
NPOCOLLECTION
  2
AcDbImpNonPersistentObjectsCollection
  3
ObjectDBX Classes
 90
     1153
 91
        1
280
     0
281
     0
  0
CLASS
  1
CELLSTYLEMAP
  2
AcDbCellStyleMap
  3
ObjectDBX Classes
 90
     1152
 91
        2
280
     0
281
     0
  0
ENDSEC
  0
SECTION
  2
TABLES
  0
TABLE
  2
VPORT
  5
7
330
0
100
AcDbSymbolTable
 70
     1
  0
VPORT
  5
15
330
7
100
AcDbSymbolTableRecord
100
AcDbViewportTableRecord
  2
*ACTIVE
 70
     0
 10
0.0
 20
0.0
 11
1.0
 21
1.0
 12
13.28065635736906
 22
4.579183999999999
 13
0.0
 23
0.0
 14
1.0
 24
1.0
 15
0.0
 25
0.0
 16
0.0
 26
0.0
 36
1.0
 17
0.0
 27
0.0
 37
0.0
 40
9.158369
 41
2.149384885764499
 42
50.0
 43
0.0
 44
0.0
 50
0.0
 51
0.0
 71
     0
 72
   100
 73
     1
 74
     1
 75
     0
 76
     0
 77
     0
 78
     0
281
     0
 65
     0
110
0.0
120
0.0
130
0.0
111
1.0
121
0.0
131
0.0
112
0.0
122
1.0
132
0.0
 79
     0
146
0.0
  0
ENDTAB
  0
TABLE
  2
LTYPE
  5
4
330
0
100
AcDbSymbolTable
 70
     5
  0
LTYPE
  5
11
330
4
100
AcDbSymbolTableRecord
100
AcDbLinetypeTableRecord
  2
ByBlock
 70
     0
  3

 72
    65
 73
     0
 40
0.0
  0
LTYPE
  5
12
330
4
100
AcDbSymbolTableRecord
100
AcDbLinetypeTableRecord
  2
ByLayer
 70
     0
  3

 72
    65
 73
     0
 40
0.0
  0
LTYPE
  5
13
330
4
100
AcDbSymbolTableRecord
100
AcDbLinetypeTableRecord
  2
Continuous
 70
     0
  3
Solid line
 72
    65
 73
     0
 40
0.0
  0
LTYPE
  5
24
330
4
100
AcDbSymbolTableRecord
100
AcDbLinetypeTableRecord
  2
solid
 70
     0
  3

 72
    65
 73
     0
 40
0.0
  0
LTYPE
  5
25
330
4
100
AcDbSymbolTableRecord
100
AcDbLinetypeTableRecord
  2
dashed
 70
     0
  3

 72
    65
 73
     0
 40
0.0
  0
LTYPE
  5
26
330
4
100
AcDbSymbolTableRecord
100
AcDbLinetypeTableRecord
  2
center
 70
     0
  3

 72
    65
 73
     0
 40
0.0
  0
ENDTAB
  0
TABLE
  2
LAYER
  5
2
330
0
100
AcDbSymbolTable
 70
     2
  0
LAYER
  5
14
102
{ACAD_XDICTIONARY
360
13F
102
}
330
2
100
AcDbSymbolTableRecord
100
AcDbLayerTableRecord
  2
0
 70
     0
 62
     7
  6
Continuous
370
    -3
390
1D
  0
LAYER
  5
27
102
{ACAD_XDICTIONARY
360
141
102
}
330
2
100
AcDbSymbolTableRecord
100
AcDbLayerTableRecord
  2
1
 70
     0
 62
     1
  6
solid
370
    -3
390
1D
  0
ENDTAB
  0
TABLE
  2
STYLE
  5
3
330
0
100
AcDbSymbolTable
 70
     2
  0
STYLE
  5
17
330
3
100
AcDbSymbolTableRecord
100
AcDbTextStyleTableRecord
  2
Standard
 70
     0
 40
0.0
 41
1.0
 50
0.0
 71
     0
 42
0.0
  3
txt
  4

  0
ENDTAB
  0
TABLE
  2
VIEW
  5
5
330
0
100
AcDbSymbolTable
 70
     0
  0
ENDTAB
  0
TABLE
  2
UCS
  5
6
330
0
100
AcDbSymbolTable
 70
     0
  0
ENDTAB
  0
TABLE
  2
APPID
  5
8
330
0
100
AcDbSymbolTable
 70
     5
  0
APPID
  5
16
330
8
100
AcDbSymbolTableRecord
100
AcDbRegAppTableRecord
  2
ACAD
 70
     0
  0
APPID
  5
11E
330
8
100
AcDbSymbolTableRecord
100
AcDbRegAppTableRecord
  2
ACAD_PSEXT
 70
     0
  0
APPID
  5
136
330
8
100
AcDbSymbolTableRecord
100
AcDbRegAppTableRecord
  2
ACAD_MLEADERVER
 70
     0
  0
APPID
  5
13E
330
8
100
AcDbSymbolTableRecord
100
AcDbRegAppTableRecord
  2
ACAD_EXEMPT_FROM_CAD_STANDARDS
 70
     0
  0
APPID
  5
165
330
8
100
AcDbSymbolTableRecord
100
AcDbRegAppTableRecord
  2
DCO15
 70
     0
  0
ENDTAB
  0
TABLE
  2
DIMSTYLE
  5
9
330
0
100
AcDbSymbolTable
 70
     3
100
AcDbDimStyleTable
 71
     1
340
18
  0
DIMSTYLE
105
18
330
9
100
AcDbSymbolTableRecord
100
AcDbDimStyleTableRecord
  2
Standard
 70
     0
289
     0
340
17
  0
ENDTAB
  0
TABLE
  2
BLOCK_RECORD
  5
1
330
0
100
AcDbSymbolTable
 70
     4
  0
BLOCK_RECORD
  5
A
102
{ACAD_XDICTIONARY
360
154
102
}
330
1
100
AcDbSymbolTableRecord
100
AcDbBlockTableRecord
  2
*MODEL_SPACE
340
20
  0
BLOCK_RECORD
  5
B
330
1
100
AcDbSymbolTableRecord
100
AcDbBlockTableRecord
  2
*PAPER_SPACE
340
21
  0
BLOCK_RECORD
  5
EA
330
1
100
AcDbSymbolTableRecord
100
AcDbBlockTableRecord
  2
*D0
340
0
  0
BLOCK_RECORD
  5
F5
330
1
100
AcDbSymbolTableRecord
100
AcDbBlockTableRecord
  2
*D1
340
0
  0
ENDTAB
  0
ENDSEC
  0
SECTION
  2
BLOCKS
  0
BLOCK
  5
D
330
A
100
AcDbEntity
  8
0
100
AcDbBlockBegin
  2
*MODEL_SPACE
 70
     0
 10
0.0
 20
0.0
 30
0.0
  3
*MODEL_SPACE
  1

  0
ENDBLK
  5
E
330
A
100
AcDbEntity
  8
0
100
AcDbBlockEnd
  0
BLOCK
  5
F
330
B
100
AcDbEntity
 67
     1
  8
0
100
AcDbBlockBegin
  2
*PAPER_SPACE
 70
     0
 10
0.0
 20
0.0
 30
0.0
  3
*PAPER_SPACE
  1

  0
ENDBLK
  5
10
330
B
100
AcDbEntity
 67
     1
  8
0
100
AcDbBlockEnd
  0
BLOCK
  5
EB
330
EA
100
AcDbEntity
  8
1
  6
solid
 62
     7
100
AcDbBlockBegin
  2
*D0
 70
     0
 10
0.0
 20
0.0
 30
0.0
  3
*D0
  1

  0
LINE
  5
EC
330
EA
100
AcDbEntity
  8
1
  6
solid
 62
     7
100
AcDbLine
 10
-1.186623925041705
 20
0.7037830870642981
 30
0.0
 11
-1.273553560626166
 21
0.7037830870642981
 31
0.0
  0
LINE
  5
ED
330
EA
100
AcDbEntity
  8
1
  6
solid
 62
     7
100
AcDbLine
 10
1.32002676122233
 20
4.140702120591672
 30
0.0
 11
-1.273553560626163
 21
4.140702120591674
 31
0.0
  0
LINE
  5
EE
330
EA
100
AcDbEntity
  8
1
  6
solid
 62
     7
100
AcDbLine
 10
-1.211053560626166
 20
0.7037830870642981
 30
0.0
 11
-1.211053560626164
 21
2.262370007674138
 31
0.0
  0
LINE
  5
EF
330
EA
100
AcDbEntity
  8
1
  6
solid
 62
     7
100
AcDbLine
 10
-1.211053560626163
 20
4.140702120591674
 30
0.0
 11
-1.211053560626164
 21
2.582115199981831
 31
0.0
  0
MTEXT
  5
F0
330
EA
100
AcDbEntity
  8
1
  6
solid
 62
     7
100
AcDbMText
 10
-1.211053560626164
 20
2.422242603827985
 30
0.0
 40
0.125
 41
0.0
 71
     5
 72
     1
  1
{\H0.125000;3 3/8}
 73
     1
 44
1.0
  0
SOLID
  5
F1
330
EA
100
AcDbEntity
  8
1
  6
solid
 62
     7
100
AcDbTrace
 10
-1.231866060626165
 20
0.8287830870642979
 30
0.0
 11
-1.190241060626165
 21
0.8287830870642979
 31
0.0
 12
-1.211053560626166
 22
0.7037830870642981
 32
0.0
 13
-1.211053560626166
 23
0.7037830870642981
 33
0.0
  0
SOLID
  5
F2
330
EA
100
AcDbEntity
  8
1
  6
solid
 62
     7
100
AcDbTrace
 10
-1.190241060626163
 20
4.015702120591674
 30
0.0
 11
-1.231866060626163
 21
4.015702120591674
 31
0.0
 12
-1.211053560626163
 22
4.140702120591674
 32
0.0
 13
-1.211053560626163
 23
4.140702120591674
 33
0.0
  0
ENDBLK
  5
F3
330
EA
100
AcDbEntity
  8
1
  6
solid
 62
     7
100
AcDbBlockEnd
  0
BLOCK
  5
F6
330
F5
100
AcDbEntity
  8
1
  6
solid
 62
     7
100
AcDbBlockBegin
  2
*D1
 70
     0
 10
0.0
 20
0.0
 30
0.0
  3
*D1
  1

  0
LINE
  5
F7
330
F5
100
AcDbEntity
  8
1
  6
solid
 62
     7
100
AcDbLine
 10
-1.061623925041705
 20
1.585026375581296
 30
0.0
 11
-1.061623925041705
 21
4.263533002913721
 31
0.0
  0
LINE
  5
F8
330
F5
100
AcDbEntity
  8
1
  6
solid
 62
     7
100
AcDbLine
 10
2.033244973350017
 20
4.265702120591672
 30
0.0
 11
2.033244973350017
 21
4.265702120591672
 31
0.0
  0
LINE
  5
F9
330
F5
100
AcDbEntity
  8
1
  6
solid
 62
     7
100
AcDbLine
 10
-1.061623925041705
 20
4.201033002913721
 30
0.0
 11
0.2472664065070971
 21
4.201033002913721
 31
0.0
  0
LINE
  5
FA
330
F5
100
AcDbEntity
  8
1
  6
solid
 62
     7
100
AcDbLine
 10
2.033244973350017
 20
4.201033002913721
 30
0.0
 11
0.7243546418012144
 21
4.201033002913721
 31
0.0
  0
MTEXT
  5
FB
330
F5
100
AcDbEntity
  8
1
  6
solid
 62
     7
100
AcDbMText
 10
0.485810524154156
 20
4.201033002913721
 30
0.0
 40
0.125
 41
0.0
 71
     5
 72
     1
  1
{\H0.125000;3 1/8}
 73
     1
 44
1.0
  0
SOLID
  5
FC
330
F5
100
AcDbEntity
  8
1
  6
solid
 62
     7
100
AcDbTrace
 10
-0.9366239250417059
 20
4.221845502913721
 30
0.0
 11
-0.9366239250417059
 21
4.18022050291372
 31
0.0
 12
-1.061623925041705
 22
4.201033002913721
 32
0.0
 13
-1.061623925041705
 23
4.201033002913721
 33
0.0
  0
SOLID
  5
FD
330
F5
100
AcDbEntity
  8
1
  6
solid
 62
     7
100
AcDbTrace
 10
1.908244973350017
 20
4.180220502913721
 30
0.0
 11
1.908244973350017
 21
4.221845502913721
 31
0.0
 12
2.033244973350017
 22
4.201033002913721
 32
0.0
 13
2.033244973350017
 23
4.201033002913721
 33
0.0
  0
ENDBLK
  5
FE
330
F5
100
AcDbEntity
  8
1
  6
solid
 62
     7
100
AcDbBlockEnd
  0
ENDSEC
  0
SECTION
  2
ENTITIES
  0
LINE
  5
28
330
A
100
AcDbEntity
  8
1
  6
solid
 62
     7
100
AcDbLine
 10
0.939630546268154
 20
1.446590155857564
 30
0.0
 11
3.446281286491572
 21
4.127265782881761
 31
0.0
  0
LINE
  5
29
330
A
100
AcDbEntity
  8
1
  6
solid
 62
     7
100
AcDbLine
 10
3.446281286491572
 20
4.127265782885261
 30
0.0
 11
4.034499571494094
 21
4.127265782885261
 31
0.0
  0
LINE
  5
2A
330
A
100
AcDbEntity
  8
1
  6
solid
 62
     7
100
AcDbLine
 10
4.03449957151723
 20
4.127265782885261
 30
0.0
 11
4.03449957151723
 21
3.693830379112098
 31
0.0
  0
LINE
  5
2B
330
A
100
AcDbEntity
  8
1
  6
solid
 62
     7
100
AcDbLine
 10
4.03449957151723
 20
3.693830379085262
 30
0.0
 11
3.744251853762769
 21
3.693830379085262
 31
0.0
  0
ARC
  5
2C
330
A
100
AcDbEntity
  8
1
  6
solid
 62
     7
100
AcDbCircle
 10
2.943282264578046
 20
3.649054646116542
 30
0.0
 40
0.8022200256392832
100
AcDbArc
 50
273.3749516433169
 51
3.199621167543776
  0
LINE
  5
2D
330
A
100
AcDbEntity
  8
1
  6
solid
 62
     7
100
AcDbLine
 10
2.990509041217232
 20
2.848226059667146
 30
0.0
 11
2.990509041217232
 21
2.560378610191366
 31
0.0
  0
LINE
  5
2E
330
A
100
AcDbEntity
  8
1
  6
solid
 62
     7
100
AcDbLine
 10
0.9396305521046716
 20
0.6903468876963466
 30
0.0
 11
1.282879419200496
 21
0.6903468876963466
 31
0.0
  0
LINE
  5
2F
330
A
100
AcDbEntity
  8
1
  6
solid
 62
     7
100
AcDbLine
 10
0.939630546268154
 20
0.6903469455161462
 30
0.0
 11
0.939630546268154
 21
1.446590155857564
 31
0.0
  0
LINE
  5
30
330
A
100
AcDbEntity
  8
1
  6
solid
 62
     7
100
AcDbLine
 10
1.282879420168153
 20
0.6903469455161462
 30
0.0
 11
1.282879420168153
 21
0.8990863943120555
 31
0.0
  0
LINE
  5
31
330
A
100
AcDbEntity
  8
1
  6
solid
 62
     7
100
AcDbLine
 10
1.503658210874312
 20
1.571024173382624
 30
0.0
 11
1.581016828602997
 21
1.49158906008544
 31
0.0
  0
LINE
  5
32
330
A
100
AcDbEntity
  8
1
  6
solid
 62
     7
100
AcDbLine
 10
1.581016846581788
 20
1.491589058629549
 30
0.0
 11
1.485349755101952
 21
1.40389261993712
 31
0.0
  0
ARC
  5
33
330
A
100
AcDbEntity
  8
1
  6
solid
 62
     7
100
AcDbCircle
 10
1.231576386483627
 20
1.212670315203977
 30
0.0
 40
0.3177527853638312
100
AcDbArc
 50
279.2914068099619
 51
36.99859820818942
  0
ARC
  5
34
330
A
100
AcDbEntity
  8
1
  6
solid
 62
     7
100
AcDbCircle
 10
3.09532888565375
 20
0.7909162958979695
 30
0.0
 40
1.772564198404794
100
AcDbArc
 50
93.39013981313774
 51
153.8896528473464
  0
LINE
  5
35
330
A
100
AcDbEntity
  8
1
  6
solid
 62
     7
100
AcDbLine
 10
3.246538878236362
 20
3.725230383713252
 30
0.0
 11
3.228006901492176
 21
3.725230383713252
 31
0.0
  0
LINE
  5
36
330
A
100
AcDbEntity
  8
1
  6
solid
 62
     7
100
AcDbLine
 10
3.228006901492176
 20
3.725230383713252
 30
0.0
 11
3.228006901492176
 21
3.791872593015578
 31
0.0
  0
SPLINE
  5
37
330
A
100
AcDbEntity
  8
1
  6
solid
 62
     7
100
AcDbSpline
210
0.0
220
0.0
230
1.0
 70
     8
 71
     2
 72
     6
 73
     3
 74
     0
 42
0.0000000001
 43
0.0000000001
 40
0.0
 40
0.0
 40
0.0
 40
1.0
 40
1.0
 40
1.0
 10
3.228006901492176
 20
3.791872593015578
 30
0.0
 10
3.218262831724734
 20
3.781250499992321
 30
0.0
 10
3.205114459631711
 20
3.776465848829531
 30
0.0
  0
LINE
  5
38
330
A
100
AcDbEntity
  8
1
  6
solid
 62
     7
100
AcDbLine
 10
3.205114459631711
 20
3.776465848829531
 30
0.0
 11
3.205114459631711
 21
3.794997825573718
 31
0.0
  0
SPLINE
  5
39
330
A
100
AcDbEntity
  8
1
  6
solid
 62
     7
100
AcDbSpline
210
0.0
220
0.0
230
1.0
 70
     8
 71
     2
 72
     7
 73
     4
 74
     0
 42
0.0000000001
 43
0.0000000001
 40
0.0
 40
0.0
 40
0.0
 40
1.0
 40
2.0
 40
2.0
 40
2.0
 10
3.205114459631711
 20
3.794997825573718
 30
0.0
 10
3.212001203817757
 20
3.797278523248135
 30
0.0
 10
3.228520389864268
 20
3.810292941852787
 30
0.0
 10
3.231667948003804
 20
3.818980383713252
 30
0.0
  0
LINE
  5
3A
330
A
100
AcDbEntity
  8
1
  6
solid
 62
     7
100
AcDbLine
 10
3.231667948003804
 20
3.818980383713252
 30
0.0
 11
3.246538878236362
 21
3.818980383713252
 31
0.0
  0
LINE
  5
3B
330
A
100
AcDbEntity
  8
1
  6
solid
 62
     7
100
AcDbLine
 10
3.246538878236362
 20
3.725230383713252
 30
0.0
 11
3.246538878236362
 21
3.818980383713252
 31
0.0
  0
LINE
  5
3C
330
A
100
AcDbEntity
  8
1
  6
solid
 62
     7
100
AcDbLine
 10
3.304043296841014
 20
3.725230383713252
 30
0.0
 11
3.285511320096827
 21
3.725230383713252
 31
0.0
  0
LINE
  5
3D
330
A
100
AcDbEntity
  8
1
  6
solid
 62
     7
100
AcDbLine
 10
3.285511320096827
 20
3.725230383713252
 30
0.0
 11
3.285511320096827
 21
3.791872593015578
 31
0.0
  0
SPLINE
  5
3E
330
A
100
AcDbEntity
  8
1
  6
solid
 62
     7
100
AcDbSpline
210
0.0
220
0.0
230
1.0
 70
     8
 71
     2
 72
     6
 73
     3
 74
     0
 42
0.0000000001
 43
0.0000000001
 40
0.0
 40
0.0
 40
0.0
 40
1.0
 40
1.0
 40
1.0
 10
3.285511320096827
 20
3.791872593015578
 30
0.0
 10
3.275767250329385
 20
3.781250499992321
 30
0.0
 10
3.262618878236362
 20
3.776465848829531
 30
0.0
  0
LINE
  5
3F
330
A
100
AcDbEntity
  8
1
  6
solid
 62
     7
100
AcDbLine
 10
3.262618878236362
 20
3.776465848829531
 30
0.0
 11
3.262618878236362
 21
3.794997825573718
 31
0.0
  0
SPLINE
  5
40
330
A
100
AcDbEntity
  8
1
  6
solid
 62
     7
100
AcDbSpline
210
0.0
220
0.0
230
1.0
 70
     8
 71
     2
 72
     7
 73
     4
 74
     0
 42
0.0000000001
 43
0.0000000001
 40
0.0
 40
0.0
 40
0.0
 40
1.0
 40
2.0
 40
2.0
 40
2.0
 10
3.262618878236362
 20
3.794997825573718
 30
0.0
 10
3.269505622422409
 20
3.797278523248135
 30
0.0
 10
3.28602480846892
 20
3.810292941852787
 30
0.0
 10
3.289172366608455
 20
3.818980383713252
 30
0.0
  0
LINE
  5
41
330
A
100
AcDbEntity
  8
1
  6
solid
 62
     7
100
AcDbLine
 10
3.289172366608455
 20
3.818980383713252
 30
0.0
 11
3.304043296841014
 21
3.818980383713252
 31
0.0
  0
LINE
  5
42
330
A
100
AcDbEntity
  8
1
  6
solid
 62
     7
100
AcDbLine
 10
3.304043296841014
 20
3.725230383713252
 30
0.0
 11
3.304043296841014
 21
3.818980383713252
 31
0.0
  0
LINE
  5
43
330
A
100
AcDbEntity
  8
1
  6
solid
 62
     7
100
AcDbLine
 10
3.319502017771246
 20
3.725230383713252
 30
0.0
 11
3.341315506143339
 21
3.818980383713252
 31
0.0
  0
LINE
  5
44
330
A
100
AcDbEntity
  8
1
  6
solid
 62
     7
100
AcDbLine
 10
3.341315506143339
 20
3.818980383713252
 30
0.0
 11
3.356097134050315
 21
3.818980383713252
 31
0.0
  0
LINE
  5
45
330
A
100
AcDbEntity
  8
1
  6
solid
 62
     7
100
AcDbLine
 10
3.356097134050315
 20
3.818980383713252
 30
0.0
 11
3.33429480846892
 21
3.725230383713252
 31
0.0
  0
LINE
  5
46
330
A
100
AcDbEntity
  8
1
  6
solid
 62
     7
100
AcDbLine
 10
3.319502017771246
 20
3.725230383713252
 30
0.0
 11
3.33429480846892
 21
3.725230383713252
 31
0.0
  0
LINE
  5
47
330
A
100
AcDbEntity
  8
1
  6
solid
 62
     7
100
AcDbLine
 10
3.413601552654966
 20
3.725230383713252
 30
0.0
 11
3.395069575910781
 21
3.725230383713252
 31
0.0
  0
LINE
  5
48
330
A
100
AcDbEntity
  8
1
  6
solid
 62
     7
100
AcDbLine
 10
3.395069575910781
 20
3.725230383713252
 30
0.0
 11
3.395069575910781
 21
3.791872593015578
 31
0.0
  0
SPLINE
  5
49
330
A
100
AcDbEntity
  8
1
  6
solid
 62
     7
100
AcDbSpline
210
0.0
220
0.0
230
1.0
 70
     8
 71
     2
 72
     6
 73
     3
 74
     0
 42
0.0000000001
 43
0.0000000001
 40
0.0
 40
0.0
 40
0.0
 40
1.0
 40
1.0
 40
1.0
 10
3.395069575910781
 20
3.791872593015578
 30
0.0
 10
3.385325506143339
 20
3.781250499992321
 30
0.0
 10
3.372177134050315
 20
3.776465848829531
 30
0.0
  0
LINE
  5
4A
330
A
100
AcDbEntity
  8
1
  6
solid
 62
     7
100
AcDbLine
 10
3.372177134050315
 20
3.776465848829531
 30
0.0
 11
3.372177134050315
 21
3.794997825573718
 31
0.0
  0
SPLINE
  5
4B
330
A
100
AcDbEntity
  8
1
  6
solid
 62
     7
100
AcDbSpline
210
0.0
220
0.0
230
1.0
 70
     8
 71
     2
 72
     7
 73
     4
 74
     0
 42
0.0000000001
 43
0.0000000001
 40
0.0
 40
0.0
 40
0.0
 40
1.0
 40
2.0
 40
2.0
 40
2.0
 10
3.372177134050315
 20
3.794997825573718
 30
0.0
 10
3.379063878236362
 20
3.797278523248135
 30
0.0
 10
3.395583064282873
 20
3.810292941852787
 30
0.0
 10
3.398730622422409
 20
3.818980383713252
 30
0.0
  0
LINE
  5
4C
330
A
100
AcDbEntity
  8
1
  6
solid
 62
     7
100
AcDbLine
 10
3.398730622422409
 20
3.818980383713252
 30
0.0
 11
3.413601552654966
 21
3.818980383713252
 31
0.0
  0
LINE
  5
4D
330
A
100
AcDbEntity
  8
1
  6
solid
 62
     7
100
AcDbLine
 10
3.413601552654966
 20
3.725230383713252
 30
0.0
 11
3.413601552654966
 21
3.818980383713252
 31
0.0
  0
LINE
  5
4E
330
A
100
AcDbEntity
  8
1
  6
solid
 62
     7
100
AcDbLine
 10
3.489637948003804
 20
3.793409220922555
 30
0.0
 11
3.471105971259619
 21
3.791727476736507
 31
0.0
  0
SPLINE
  5
4F
330
A
100
AcDbEntity
  8
1
  6
solid
 62
     7
100
AcDbSpline
210
0.0
220
0.0
230
1.0
 70
     8
 71
     2
 72
     7
 73
     4
 74
     0
 42
0.0000000001
 43
0.0000000001
 40
0.0
 40
0.0
 40
0.0
 40
1.0
 40
2.0
 40
2.0
 40
2.0
 10
3.471105971259619
 20
3.791727476736507
 30
0.0
 10
3.470317250329385
 20
3.797267360457438
 30
0.0
 10
3.465000622422409
 20
3.802628639527205
 30
0.0
 10
3.460751785213106
 20
3.802628639527205
 30
0.0
  0
SPLINE
  5
50
330
A
100
AcDbEntity
  8
1
  6
solid
 62
     7
100
AcDbSpline
210
0.0
220
0.0
230
1.0
 70
     8
 71
     2
 72
     7
 73
     4
 74
     0
 42
0.0000000001
 43
0.0000000001
 40
0.0
 40
0.0
 40
0.0
 40
1.0
 40
2.0
 40
2.0
 40
2.0
 10
3.460751785213106
 20
3.802628639527205
 30
0.0
 10
3.455234227073571
 20
3.802628639527205
 30
0.0
 10
3.447569924747991
 20
3.791749802317903
 30
0.0
 10
3.446535622422409
 20
3.774810267434183
 30
0.0
  0
SPLINE
  5
51
330
A
100
AcDbEntity
  8
1
  6
solid
 62
     7
100
AcDbSpline
210
0.0
220
0.0
230
1.0
 70
     8
 71
     2
 72
     6
 73
     3
 74
     0
 42
0.0000000001
 43
0.0000000001
 40
0.0
 40
0.0
 40
0.0
 40
1.0
 40
1.0
 40
1.0
 10
3.446535622422409
 20
3.774810267434183
 30
0.0
 10
3.453664110794502
 20
3.78300654650395
 30
0.0
 10
3.463743064282873
 20
3.78300654650395
 30
0.0
  0
SPLINE
  5
52
330
A
100
AcDbEntity
  8
1
  6
solid
 62
     7
100
AcDbSpline
210
0.0
220
0.0
230
1.0
 70
     8
 71
     2
 72
     7
 73
     4
 74
     0
 42
0.0000000001
 43
0.0000000001
 40
0.0
 40
0.0
 40
0.0
 40
1.0
 40
2.0
 40
2.0
 40
2.0
 10
3.463743064282873
 20
3.78300654650395
 30
0.0
 10
3.475046087538688
 20
3.78300654650395
 30
0.0
 10
3.491818180561943
 20
3.766788755806276
 30
0.0
 10
3.491818180561943
 20
3.753908290689996
 30
0.0
  0
SPLINE
  5
53
330
A
100
AcDbEntity
  8
1
  6
solid
 62
     7
100
AcDbSpline
210
0.0
220
0.0
230
1.0
 70
     8
 71
     2
 72
     7
 73
     4
 74
     0
 42
0.0000000001
 43
0.0000000001
 40
0.0
 40
0.0
 40
0.0
 40
1.0
 40
2.0
 40
2.0
 40
2.0
 10
3.491818180561943
 20
3.753908290689996
 30
0.0
 10
3.491818180561943
 20
3.740514337201623
 30
0.0
 10
3.474822831724734
 20
3.724140267434183
 30
0.0
 10
3.461707948003803
 20
3.724140267434183
 30
0.0
  0
SPLINE
  5
54
330
A
100
AcDbEntity
  8
1
  6
solid
 62
     7
100
AcDbSpline
210
0.0
220
0.0
230
1.0
 70
     8
 71
     2
 72
     7
 73
     4
 74
     0
 42
0.0000000001
 43
0.0000000001
 40
0.0
 40
0.0
 40
0.0
 40
1.0
 40
2.0
 40
2.0
 40
2.0
 10
3.461707948003803
 20
3.724140267434183
 30
0.0
 10
3.447592250329385
 20
3.724140267434183
 30
0.0
 10
3.429681552654967
 20
3.745976081387671
 30
0.0
 10
3.429681552654967
 20
3.770561430224879
 30
0.0
  0
SPLINE
  5
55
330
A
100
AcDbEntity
  8
1
  6
solid
 62
     7
100
AcDbSpline
210
0.0
220
0.0
230
1.0
 70
     8
 71
     2
 72
     7
 73
     4
 74
     0
 42
0.0000000001
 43
0.0000000001
 40
0.0
 40
0.0
 40
0.0
 40
1.0
 40
2.0
 40
2.0
 40
2.0
 10
3.429681552654967
 20
3.770561430224879
 30
0.0
 10
3.429681552654967
 20
3.79631119766674
 30
0.0
 10
3.44836980846892
 20
3.818980383713252
 30
0.0
 10
3.463077134050315
 20
3.818980383713252
 30
0.0
  0
SPLINE
  5
56
330
A
100
AcDbEntity
  8
1
  6
solid
 62
     7
100
AcDbSpline
210
0.0
220
0.0
230
1.0
 70
     8
 71
     2
 72
     7
 73
     4
 74
     0
 42
0.0000000001
 43
0.0000000001
 40
0.0
 40
0.0
 40
0.0
 40
1.0
 40
2.0
 40
2.0
 40
2.0
 10
3.463077134050315
 20
3.818980383713252
 30
0.0
 10
3.473721552654967
 20
3.818980383713252
 30
0.0
 10
3.487647482887525
 20
3.805988290689997
 30
0.0
 10
3.489637948003804
 20
3.793409220922555
 30
0.0
  0
SPLINE
  5
57
330
A
100
AcDbEntity
  8
1
  6
solid
 62
     7
100
AcDbSpline
210
0.0
220
0.0
230
1.0
 70
     8
 71
     2
 72
     7
 73
     4
 74
     0
 42
0.0000000001
 43
0.0000000001
 40
0.0
 40
0.0
 40
0.0
 40
1.0
 40
2.0
 40
2.0
 40
2.0
 10
3.448213529399154
 20
3.75413154650395
 30
0.0
 10
3.448213529399154
 20
3.74750154650395
 30
0.0
 10
3.456168064282874
 20
3.740492011620228
 30
0.0
 10
3.461462366608455
 20
3.740492011620228
 30
0.0
  0
SPLINE
  5
58
330
A
100
AcDbEntity
  8
1
  6
solid
 62
     7
100
AcDbSpline
210
0.0
220
0.0
230
1.0
 70
     8
 71
     2
 72
     7
 73
     4
 74
     0
 42
0.0000000001
 43
0.0000000001
 40
0.0
 40
0.0
 40
0.0
 40
1.0
 40
2.0
 40
2.0
 40
2.0
 10
3.461462366608455
 20
3.740492011620228
 30
0.0
 10
3.466258180561943
 20
3.740492011620228
 30
0.0
 10
3.473286203817758
 20
3.74626631394581
 30
0.0
 10
3.473286203817758
 20
3.752963290689997
 30
0.0
  0
SPLINE
  5
59
330
A
100
AcDbEntity
  8
1
  6
solid
 62
     7
100
AcDbSpline
210
0.0
220
0.0
230
1.0
 70
     8
 71
     2
 72
     7
 73
     4
 74
     0
 42
0.0000000001
 43
0.0000000001
 40
0.0
 40
0.0
 40
0.0
 40
1.0
 40
2.0
 40
2.0
 40
2.0
 10
3.473286203817758
 20
3.752963290689997
 30
0.0
 10
3.473286203817758
 20
3.760158755806276
 30
0.0
 10
3.465923296841014
 20
3.766654802317903
 30
0.0
 10
3.46049504102706
 20
3.766654802317903
 30
0.0
  0
SPLINE
  5
5A
330
A
100
AcDbEntity
  8
1
  6
solid
 62
     7
100
AcDbSpline
210
0.0
220
0.0
230
1.0
 70
     8
 71
     2
 72
     7
 73
     4
 74
     0
 42
0.0000000001
 43
0.0000000001
 40
0.0
 40
0.0
 40
0.0
 40
1.0
 40
2.0
 40
2.0
 40
2.0
 10
3.46049504102706
 20
3.766654802317903
 30
0.0
 10
3.455200738701478
 20
3.766654802317903
 30
0.0
 10
3.448213529399154
 20
3.760348523248135
 30
0.0
 10
3.448213529399154
 20
3.75413154650395
 30
0.0
  0
LINE
  5
5B
330
A
100
AcDbEntity
  8
1
  6
solid
 62
     7
100
AcDbLine
 10
3.525425506143339
 20
3.725230383713252
 30
0.0
 11
3.557771785213106
 21
3.774497709294648
 31
0.0
  0
LINE
  5
5C
330
A
100
AcDbEntity
  8
1
  6
solid
 62
     7
100
AcDbLine
 10
3.557771785213106
 20
3.774497709294648
 30
0.0
 11
3.528695854980549
 21
3.818980383713252
 31
0.0
  0
LINE
  5
5D
330
A
100
AcDbEntity
  8
1
  6
solid
 62
     7
100
AcDbLine
 10
3.528695854980549
 20
3.818980383713252
 30
0.0
 11
3.550487017771246
 21
3.818980383713252
 31
0.0
  0
LINE
  5
5E
330
A
100
AcDbEntity
  8
1
  6
solid
 62
     7
100
AcDbLine
 10
3.550487017771246
 20
3.818980383713252
 30
0.0
 11
3.568672948003804
 21
3.79110619766674
 31
0.0
  0
LINE
  5
5F
330
A
100
AcDbEntity
  8
1
  6
solid
 62
     7
100
AcDbLine
 10
3.568672948003804
 20
3.79110619766674
 30
0.0
 11
3.586472017771246
 21
3.818980383713252
 31
0.0
  0
LINE
  5
60
330
A
100
AcDbEntity
  8
1
  6
solid
 62
     7
100
AcDbLine
 10
3.586472017771246
 20
3.818980383713252
 30
0.0
 11
3.608274343352641
 21
3.818980383713252
 31
0.0
  0
LINE
  5
61
330
A
100
AcDbEntity
  8
1
  6
solid
 62
     7
100
AcDbLine
 10
3.608274343352641
 20
3.818980383713252
 30
0.0
 11
3.579574110794502
 21
3.774497709294648
 31
0.0
  0
LINE
  5
62
330
A
100
AcDbEntity
  8
1
  6
solid
 62
     7
100
AcDbLine
 10
3.579574110794502
 20
3.774497709294648
 30
0.0
 11
3.61154469218985
 21
3.725230383713252
 31
0.0
  0
LINE
  5
63
330
A
100
AcDbEntity
  8
1
  6
solid
 62
     7
100
AcDbLine
 10
3.61154469218985
 20
3.725230383713252
 30
0.0
 11
3.589742366608455
 21
3.725230383713252
 31
0.0
  0
LINE
  5
64
330
A
100
AcDbEntity
  8
1
  6
solid
 62
     7
100
AcDbLine
 10
3.589742366608455
 20
3.725230383713252
 30
0.0
 11
3.568672948003804
 21
3.757524686038833
 31
0.0
  0
LINE
  5
65
330
A
100
AcDbEntity
  8
1
  6
solid
 62
     7
100
AcDbLine
 10
3.568672948003804
 20
3.757524686038833
 30
0.0
 11
3.547216668934036
 21
3.725230383713252
 31
0.0
  0
LINE
  5
66
330
A
100
AcDbEntity
  8
1
  6
solid
 62
     7
100
AcDbLine
 10
3.525425506143339
 20
3.725230383713252
 30
0.0
 11
3.547216668934036
 21
3.725230383713252
 31
0.0
  0
LINE
  5
67
330
A
100
AcDbEntity
  8
1
  6
solid
 62
     7
100
AcDbLine
 10
3.682591668934036
 20
3.725230383713252
 30
0.0
 11
3.682591668934036
 21
3.743762360457438
 31
0.0
  0
LINE
  5
68
330
A
100
AcDbEntity
  8
1
  6
solid
 62
     7
100
AcDbLine
 10
3.682591668934036
 20
3.743762360457438
 30
0.0
 11
3.645527715445664
 21
3.743762360457438
 31
0.0
  0
LINE
  5
69
330
A
100
AcDbEntity
  8
1
  6
solid
 62
     7
100
AcDbLine
 10
3.645527715445664
 20
3.743762360457438
 30
0.0
 11
3.645527715445664
 21
3.758603639527205
 31
0.0
  0
LINE
  5
6A
330
A
100
AcDbEntity
  8
1
  6
solid
 62
     7
100
AcDbLine
 10
3.645527715445664
 20
3.758603639527205
 30
0.0
 11
3.684950506143338
 21
3.817890267434183
 31
0.0
  0
LINE
  5
6B
330
A
100
AcDbEntity
  8
1
  6
solid
 62
     7
100
AcDbLine
 10
3.684950506143338
 20
3.817890267434183
 30
0.0
 11
3.701123645678222
 21
3.817890267434183
 31
0.0
  0
LINE
  5
6C
330
A
100
AcDbEntity
  8
1
  6
solid
 62
     7
100
AcDbLine
 10
3.701123645678222
 20
3.817890267434183
 30
0.0
 11
3.701123645678222
 21
3.759023988364415
 31
0.0
  0
LINE
  5
6D
330
A
100
AcDbEntity
  8
1
  6
solid
 62
     7
100
AcDbLine
 10
3.701123645678222
 20
3.759023988364415
 30
0.0
 11
3.713114924747991
 21
3.759023988364415
 31
0.0
  0
LINE
  5
6E
330
A
100
AcDbEntity
  8
1
  6
solid
 62
     7
100
AcDbLine
 10
3.713114924747991
 20
3.759023988364415
 30
0.0
 11
3.713114924747991
 21
3.743762360457438
 31
0.0
  0
LINE
  5
6F
330
A
100
AcDbEntity
  8
1
  6
solid
 62
     7
100
AcDbLine
 10
3.713114924747991
 20
3.743762360457438
 30
0.0
 11
3.701123645678222
 21
3.743762360457438
 31
0.0
  0
LINE
  5
70
330
A
100
AcDbEntity
  8
1
  6
solid
 62
     7
100
AcDbLine
 10
3.701123645678222
 20
3.743762360457438
 30
0.0
 11
3.701123645678222
 21
3.725230383713252
 31
0.0
  0
LINE
  5
71
330
A
100
AcDbEntity
  8
1
  6
solid
 62
     7
100
AcDbLine
 10
3.682591668934036
 20
3.725230383713252
 30
0.0
 11
3.701123645678222
 21
3.725230383713252
 31
0.0
  0
LINE
  5
72
330
A
100
AcDbEntity
  8
1
  6
solid
 62
     7
100
AcDbLine
 10
3.682591668934036
 20
3.759023988364415
 30
0.0
 11
3.682591668934036
 21
3.788892476736508
 31
0.0
  0
LINE
  5
73
330
A
100
AcDbEntity
  8
1
  6
solid
 62
     7
100
AcDbLine
 10
3.682591668934036
 20
3.788892476736508
 30
0.0
 11
3.662225506143339
 21
3.759023988364415
 31
0.0
  0
LINE
  5
74
330
A
100
AcDbEntity
  8
1
  6
solid
 62
     7
100
AcDbLine
 10
3.682591668934036
 20
3.759023988364415
 30
0.0
 11
3.662225506143339
 21
3.759023988364415
 31
0.0
  0
LINE
  5
75
330
A
100
AcDbEntity
  8
1
  6
solid
 62
     7
100
AcDbLine
 10
3.729194924747989
 20
3.750303058131856
 30
0.0
 11
3.729194924747989
 21
3.766654802317903
 31
0.0
  0
LINE
  5
76
330
A
100
AcDbEntity
  8
1
  6
solid
 62
     7
100
AcDbLine
 10
3.729194924747989
 20
3.766654802317903
 30
0.0
 11
3.765168761957292
 21
3.766654802317903
 31
0.0
  0
LINE
  5
77
330
A
100
AcDbEntity
  8
1
  6
solid
 62
     7
100
AcDbLine
 10
3.765168761957292
 20
3.766654802317903
 30
0.0
 11
3.765168761957292
 21
3.750303058131856
 31
0.0
  0
LINE
  5
78
330
A
100
AcDbEntity
  8
1
  6
solid
 62
     7
100
AcDbLine
 10
3.729194924747989
 20
3.750303058131856
 30
0.0
 11
3.765168761957292
 21
3.750303058131856
 31
0.0
  0
LINE
  5
79
330
A
100
AcDbEntity
  8
1
  6
solid
 62
     7
100
AcDbLine
 10
3.781248761957292
 20
3.752606081387671
 30
0.0
 11
3.797600506143338
 21
3.754663523248136
 31
0.0
  0
SPLINE
  5
7A
330
A
100
AcDbEntity
  8
1
  6
solid
 62
     7
100
AcDbSpline
210
0.0
220
0.0
230
1.0
 70
     8
 71
     2
 72
     7
 73
     4
 74
     0
 42
0.0000000001
 43
0.0000000001
 40
0.0
 40
0.0
 40
0.0
 40
1.0
 40
2.0
 40
2.0
 40
2.0
 10
3.797600506143338
 20
3.754663523248136
 30
0.0
 10
3.798136320096826
 20
3.748122825573718
 30
0.0
 10
3.80639957591078
 20
3.740492011620228
 30
0.0
 10
3.81132934335264
 20
3.740492011620228
 30
0.0
  0
SPLINE
  5
7B
330
A
100
AcDbEntity
  8
1
  6
solid
 62
     7
100
AcDbSpline
210
0.0
220
0.0
230
1.0
 70
     8
 71
     2
 72
     7
 73
     4
 74
     0
 42
0.0000000001
 43
0.0000000001
 40
0.0
 40
0.0
 40
0.0
 40
1.0
 40
2.0
 40
2.0
 40
2.0
 10
3.81132934335264
 20
3.740492011620228
 30
0.0
 10
3.817501668934036
 20
3.740492011620228
 30
0.0
 10
3.825943529399152
 20
3.747702476736507
 30
0.0
 10
3.825943529399152
 20
3.7553109651086
 30
0.0
  0
SPLINE
  5
7C
330
A
100
AcDbEntity
  8
1
  6
solid
 62
     7
100
AcDbSpline
210
0.0
220
0.0
230
1.0
 70
     8
 71
     2
 72
     7
 73
     4
 74
     0
 42
0.0000000001
 43
0.0000000001
 40
0.0
 40
0.0
 40
0.0
 40
1.0
 40
2.0
 40
2.0
 40
2.0
 10
3.825943529399152
 20
3.7553109651086
 30
0.0
 10
3.825943529399152
 20
3.762618058131856
 30
0.0
 10
3.818480157306129
 20
3.769925151155113
 30
0.0
 10
3.812352482887524
 20
3.769925151155113
 30
0.0
  0
SPLINE
  5
7D
330
A
100
AcDbEntity
  8
1
  6
solid
 62
     7
100
AcDbSpline
210
0.0
220
0.0
230
1.0
 70
     8
 71
     2
 72
     6
 73
     3
 74
     0
 42
0.0000000001
 43
0.0000000001
 40
0.0
 40
0.0
 40
0.0
 40
1.0
 40
1.0
 40
1.0
 10
3.812352482887524
 20
3.769925151155113
 30
0.0
 10
3.805264808468919
 20
3.769925151155113
 30
0.0
 10
3.799181785213105
 20
3.763384453480695
 30
0.0
  0
LINE
  5
7E
330
A
100
AcDbEntity
  8
1
  6
solid
 62
     7
100
AcDbLine
 10
3.799181785213105
 20
3.763384453480695
 30
0.0
 11
3.783428994515431
 21
3.765077360457438
 31
0.0
  0
LINE
  5
7F
330
A
100
AcDbEntity
  8
1
  6
solid
 62
     7
100
AcDbLine
 10
3.783428994515431
 20
3.765077360457438
 30
0.0
 11
3.794330157306128
 21
3.817890267434183
 31
0.0
  0
LINE
  5
80
330
A
100
AcDbEntity
  8
1
  6
solid
 62
     7
100
AcDbLine
 10
3.794330157306128
 20
3.817890267434183
 30
0.0
 11
3.840115041027059
 21
3.817890267434183
 31
0.0
  0
LINE
  5
81
330
A
100
AcDbEntity
  8
1
  6
solid
 62
     7
100
AcDbLine
 10
3.840115041027059
 20
3.817890267434183
 30
0.0
 11
3.840115041027059
 21
3.799358290689997
 31
0.0
  0
LINE
  5
82
330
A
100
AcDbEntity
  8
1
  6
solid
 62
     7
100
AcDbLine
 10
3.840115041027059
 20
3.799358290689997
 30
0.0
 11
3.808937017771246
 21
3.799358290689997
 31
0.0
  0
LINE
  5
83
330
A
100
AcDbEntity
  8
1
  6
solid
 62
     7
100
AcDbLine
 10
3.808937017771246
 20
3.799358290689997
 30
0.0
 11
3.805354110794501
 21
3.7822959651086
 31
0.0
  0
SPLINE
  5
84
330
A
100
AcDbEntity
  8
1
  6
solid
 62
     7
100
AcDbSpline
210
0.0
220
0.0
230
1.0
 70
     8
 71
     2
 72
     6
 73
     3
 74
     0
 42
0.0000000001
 43
0.0000000001
 40
0.0
 40
0.0
 40
0.0
 40
1.0
 40
1.0
 40
1.0
 10
3.805354110794501
 20
3.7822959651086
 30
0.0
 10
3.81099445963171
 20
3.786276895341158
 30
0.0
 10
3.816802250329385
 20
3.786276895341158
 30
0.0
  0
SPLINE
  5
85
330
A
100
AcDbEntity
  8
1
  6
solid
 62
     7
100
AcDbSpline
210
0.0
220
0.0
230
1.0
 70
     8
 71
     2
 72
     7
 73
     4
 74
     0
 42
0.0000000001
 43
0.0000000001
 40
0.0
 40
0.0
 40
0.0
 40
1.0
 40
2.0
 40
2.0
 40
2.0
 10
3.816802250329385
 20
3.786276895341158
 30
0.0
 10
3.828425157306129
 20
3.786276895341158
 30
0.0
 10
3.844475506143338
 20
3.769259220922555
 30
0.0
 10
3.844475506143338
 20
3.755965732550461
 30
0.0
  0
SPLINE
  5
86
330
A
100
AcDbEntity
  8
1
  6
solid
 62
     7
100
AcDbSpline
210
0.0
220
0.0
230
1.0
 70
     8
 71
     2
 72
     6
 73
     3
 74
     0
 42
0.0000000001
 43
0.0000000001
 40
0.0
 40
0.0
 40
0.0
 40
1.0
 40
1.0
 40
1.0
 10
3.844475506143338
 20
3.755965732550461
 30
0.0
 10
3.844475506143338
 20
3.744874802317903
 30
0.0
 10
3.837436320096826
 20
3.735744686038833
 30
0.0
  0
SPLINE
  5
87
330
A
100
AcDbEntity
  8
1
  6
solid
 62
     7
100
AcDbSpline
210
0.0
220
0.0
230
1.0
 70
     8
 71
     2
 72
     6
 73
     3
 74
     0
 42
0.0000000001
 43
0.0000000001
 40
0.0
 40
0.0
 40
0.0
 40
1.0
 40
1.0
 40
1.0
 10
3.837436320096826
 20
3.735744686038833
 30
0.0
 10
3.828413994515431
 20
3.724140267434183
 30
0.0
 10
3.812106901492175
 20
3.724140267434183
 30
0.0
  0
SPLINE
  5
88
330
A
100
AcDbEntity
  8
1
  6
solid
 62
     7
100
AcDbSpline
210
0.0
220
0.0
230
1.0
 70
     8
 71
     2
 72
     7
 73
     4
 74
     0
 42
0.0000000001
 43
0.0000000001
 40
0.0
 40
0.0
 40
0.0
 40
1.0
 40
2.0
 40
2.0
 40
2.0
 10
3.812106901492175
 20
3.724140267434183
 30
0.0
 10
3.799070157306129
 20
3.724140267434183
 30
0.0
 10
3.782673761957291
 20
3.739535848829531
 30
0.0
 10
3.781248761957292
 20
3.752606081387671
 30
0.0
  0
LINE
  5
89
330
A
100
AcDbEntity
  8
1
  6
solid
 62
     7
100
AcDbLine
 10
3.85993422707357
 20
3.725230383713252
 30
0.0
 11
3.881747715445663
 21
3.818980383713252
 31
0.0
  0
LINE
  5
8A
330
A
100
AcDbEntity
  8
1
  6
solid
 62
     7
100
AcDbLine
 10
3.881747715445663
 20
3.818980383713252
 30
0.0
 11
3.89652934335264
 21
3.818980383713252
 31
0.0
  0
LINE
  5
8B
330
A
100
AcDbEntity
  8
1
  6
solid
 62
     7
100
AcDbLine
 10
3.89652934335264
 20
3.818980383713252
 30
0.0
 11
3.874727017771245
 21
3.725230383713252
 31
0.0
  0
LINE
  5
8C
330
A
100
AcDbEntity
  8
1
  6
solid
 62
     7
100
AcDbLine
 10
3.85993422707357
 20
3.725230383713252
 30
0.0
 11
3.874727017771245
 21
3.725230383713252
 31
0.0
  0
SPLINE
  5
8D
330
A
100
AcDbEntity
  8
1
  6
solid
 62
     7
100
AcDbSpline
210
0.0
220
0.0
230
1.0
 70
     8
 71
     2
 72
     7
 73
     4
 74
     0
 42
0.0000000001
 43
0.0000000001
 40
0.0
 40
0.0
 40
0.0
 40
1.0
 40
2.0
 40
2.0
 40
2.0
 10
3.928961087538687
 20
3.774955383713253
 30
0.0
 10
3.92146422707357
 20
3.778013639527205
 30
0.0
 10
3.91478957591078
 20
3.788535267434183
 30
0.0
 10
3.91478957591078
 20
3.794454686038833
 30
0.0
  0
SPLINE
  5
8E
330
A
100
AcDbEntity
  8
1
  6
solid
 62
     7
100
AcDbSpline
210
0.0
220
0.0
230
1.0
 70
     8
 71
     2
 72
     7
 73
     4
 74
     0
 42
0.0000000001
 43
0.0000000001
 40
0.0
 40
0.0
 40
0.0
 40
1.0
 40
2.0
 40
2.0
 40
2.0
 10
3.91478957591078
 20
3.794454686038833
 30
0.0
 10
3.91478957591078
 20
3.805099104643484
 30
0.0
 10
3.929530389864268
 20
3.818980383713252
 30
0.0
 10
3.943489808468919
 20
3.818980383713252
 30
0.0
  0
SPLINE
  5
8F
330
A
100
AcDbEntity
  8
1
  6
solid
 62
     7
100
AcDbSpline
210
0.0
220
0.0
230
1.0
 70
     8
 71
     2
 72
     7
 73
     4
 74
     0
 42
0.0000000001
 43
0.0000000001
 40
0.0
 40
0.0
 40
0.0
 40
1.0
 40
2.0
 40
2.0
 40
2.0
 10
3.943489808468919
 20
3.818980383713252
 30
0.0
 10
3.957371087538687
 20
3.818980383713252
 30
0.0
 10
3.972565738701478
 20
3.805099104643484
 30
0.0
 10
3.972565738701478
 20
3.794454686038833
 30
0.0
  0
SPLINE
  5
90
330
A
100
AcDbEntity
  8
1
  6
solid
 62
     7
100
AcDbSpline
210
0.0
220
0.0
230
1.0
 70
     8
 71
     2
 72
     7
 73
     4
 74
     0
 42
0.0000000001
 43
0.0000000001
 40
0.0
 40
0.0
 40
0.0
 40
1.0
 40
2.0
 40
2.0
 40
2.0
 10
3.972565738701478
 20
3.794454686038833
 30
0.0
 10
3.972565738701478
 20
3.787913988364415
 30
0.0
 10
3.965024227073571
 20
3.777846197666741
 30
0.0
 10
3.957940389864269
 20
3.774955383713253
 30
0.0
  0
SPLINE
  5
91
330
A
100
AcDbEntity
  8
1
  6
solid
 62
     7
100
AcDbSpline
210
0.0
220
0.0
230
1.0
 70
     8
 71
     2
 72
     7
 73
     4
 74
     0
 42
0.0000000001
 43
0.0000000001
 40
0.0
 40
0.0
 40
0.0
 40
1.0
 40
2.0
 40
2.0
 40
2.0
 10
3.957940389864269
 20
3.774955383713253
 30
0.0
 10
3.966237134050315
 20
3.772194686038834
 30
0.0
 10
3.974745971259617
 20
3.760348523248135
 30
0.0
 10
3.974745971259617
 20
3.75266189534116
 30
0.0
  0
SPLINE
  5
92
330
A
100
AcDbEntity
  8
1
  6
solid
 62
     7
100
AcDbSpline
210
0.0
220
0.0
230
1.0
 70
     8
 71
     2
 72
     7
 73
     4
 74
     0
 42
0.0000000001
 43
0.0000000001
 40
0.0
 40
0.0
 40
0.0
 40
1.0
 40
2.0
 40
2.0
 40
2.0
 10
3.974745971259617
 20
3.75266189534116
 30
0.0
 10
3.974745971259617
 20
3.739826081387671
 30
0.0
 10
3.957795273585199
 20
3.724140267434183
 30
0.0
 10
3.943824692189851
 20
3.724140267434183
 30
0.0
  0
SPLINE
  5
93
330
A
100
AcDbEntity
  8
1
  6
solid
 62
     7
100
AcDbSpline
210
0.0
220
0.0
230
1.0
 70
     8
 71
     2
 72
     6
 73
     3
 74
     0
 42
0.0000000001
 43
0.0000000001
 40
0.0
 40
0.0
 40
0.0
 40
1.0
 40
1.0
 40
1.0
 10
3.943824692189851
 20
3.724140267434183
 30
0.0
 10
3.931241785213106
 20
3.724140267434183
 30
0.0
 10
3.922621320096826
 20
3.730703290689997
 30
0.0
  0
SPLINE
  5
94
330
A
100
AcDbEntity
  8
1
  6
solid
 62
     7
100
AcDbSpline
210
0.0
220
0.0
230
1.0
 70
     8
 71
     2
 72
     6
 73
     3
 74
     0
 42
0.0000000001
 43
0.0000000001
 40
0.0
 40
0.0
 40
0.0
 40
1.0
 40
1.0
 40
1.0
 10
3.922621320096826
 20
3.730703290689997
 30
0.0
 10
3.91260934335264
 20
3.738423406969066
 30
0.0
 10
3.91260934335264
 20
3.751795034876043
 30
0.0
  0
SPLINE
  5
95
330
A
100
AcDbEntity
  8
1
  6
solid
 62
     7
100
AcDbSpline
210
0.0
220
0.0
230
1.0
 70
     8
 71
     2
 72
     7
 73
     4
 74
     0
 42
0.0000000001
 43
0.0000000001
 40
0.0
 40
0.0
 40
0.0
 40
1.0
 40
2.0
 40
2.0
 40
2.0
 10
3.91260934335264
 20
3.751795034876043
 30
0.0
 10
3.91260934335264
 20
3.759314220922555
 30
0.0
 10
3.920396436375896
 20
3.77160689534116
 30
0.0
 10
3.928961087538687
 20
3.774955383713253
 30
0.0
  0
SPLINE
  5
96
330
A
100
AcDbEntity
  8
1
  6
solid
 62
     7
100
AcDbSpline
210
0.0
220
0.0
230
1.0
 70
     8
 71
     2
 72
     7
 73
     4
 74
     0
 42
0.0000000001
 43
0.0000000001
 40
0.0
 40
0.0
 40
0.0
 40
1.0
 40
2.0
 40
2.0
 40
2.0
 10
3.933321552654966
 20
3.79324177906209
 30
0.0
 10
3.933321552654966
 20
3.787791197666741
 30
0.0
 10
3.938883761957292
 20
3.781916430224879
 30
0.0
 10
3.943456320096827
 20
3.781916430224879
 30
0.0
  0
SPLINE
  5
97
330
A
100
AcDbEntity
  8
1
  6
solid
 62
     7
100
AcDbSpline
210
0.0
220
0.0
230
1.0
 70
     8
 71
     2
 72
     7
 73
     4
 74
     0
 42
0.0000000001
 43
0.0000000001
 40
0.0
 40
0.0
 40
0.0
 40
1.0
 40
2.0
 40
2.0
 40
2.0
 10
3.943456320096827
 20
3.781916430224879
 30
0.0
 10
3.948051203817757
 20
3.781916430224879
 30
0.0
 10
3.954033761957291
 20
3.787835848829531
 30
0.0
 10
3.954033761957291
 20
3.793286430224879
 30
0.0
  0
SPLINE
  5
98
330
A
100
AcDbEntity
  8
1
  6
solid
 62
     7
100
AcDbSpline
210
0.0
220
0.0
230
1.0
 70
     8
 71
     2
 72
     7
 73
     4
 74
     0
 42
0.0000000001
 43
0.0000000001
 40
0.0
 40
0.0
 40
0.0
 40
1.0
 40
2.0
 40
2.0
 40
2.0
 10
3.954033761957291
 20
3.793286430224879
 30
0.0
 10
3.954033761957291
 20
3.798513755806276
 30
0.0
 10
3.948095854980549
 20
3.804808872085346
 30
0.0
 10
3.943567948003804
 20
3.804808872085346
 30
0.0
  0
SPLINE
  5
99
330
A
100
AcDbEntity
  8
1
  6
solid
 62
     7
100
AcDbSpline
210
0.0
220
0.0
230
1.0
 70
     8
 71
     2
 72
     7
 73
     4
 74
     0
 42
0.0000000001
 43
0.0000000001
 40
0.0
 40
0.0
 40
0.0
 40
1.0
 40
2.0
 40
2.0
 40
2.0
 10
3.943567948003804
 20
3.804808872085346
 30
0.0
 10
3.938928413120082
 20
3.804808872085346
 30
0.0
 10
3.933321552654966
 20
3.798469104643484
 30
0.0
 10
3.933321552654966
 20
3.79324177906209
 30
0.0
  0
SPLINE
  5
9A
330
A
100
AcDbEntity
  8
1
  6
solid
 62
     7
100
AcDbSpline
210
0.0
220
0.0
230
1.0
 70
     8
 71
     2
 72
     7
 73
     4
 74
     0
 42
0.0000000001
 43
0.0000000001
 40
0.0
 40
0.0
 40
0.0
 40
1.0
 40
2.0
 40
2.0
 40
2.0
 10
3.931141320096827
 20
3.75365154650395
 30
0.0
 10
3.931141320096827
 20
3.74626631394581
 30
0.0
 10
3.938173180561943
 20
3.738311779062089
 30
0.0
 10
3.943634924747989
 20
3.738311779062089
 30
0.0
  0
SPLINE
  5
9B
330
A
100
AcDbEntity
  8
1
  6
solid
 62
     7
100
AcDbSpline
210
0.0
220
0.0
230
1.0
 70
     8
 71
     2
 72
     7
 73
     4
 74
     0
 42
0.0000000001
 43
0.0000000001
 40
0.0
 40
0.0
 40
0.0
 40
1.0
 40
2.0
 40
2.0
 40
2.0
 10
3.943634924747989
 20
3.738311779062089
 30
0.0
 10
3.949007366608454
 20
3.738311779062089
 30
0.0
 10
3.956213994515431
 20
3.746065383713252
 30
0.0
 10
3.956213994515431
 20
3.753153058131856
 30
0.0
  0
SPLINE
  5
9C
330
A
100
AcDbEntity
  8
1
  6
solid
 62
     7
100
AcDbSpline
210
0.0
220
0.0
230
1.0
 70
     8
 71
     2
 72
     7
 73
     4
 74
     0
 42
0.0000000001
 43
0.0000000001
 40
0.0
 40
0.0
 40
0.0
 40
1.0
 40
2.0
 40
2.0
 40
2.0
 10
3.956213994515431
 20
3.753153058131856
 30
0.0
 10
3.956213994515431
 20
3.759615616271392
 30
0.0
 10
3.948929227073571
 20
3.767744918596973
 30
0.0
 10
3.943467482887524
 20
3.767744918596973
 30
0.0
  0
SPLINE
  5
9D
330
A
100
AcDbEntity
  8
1
  6
solid
 62
     7
100
AcDbSpline
210
0.0
220
0.0
230
1.0
 70
     8
 71
     2
 72
     7
 73
     4
 74
     0
 42
0.0000000001
 43
0.0000000001
 40
0.0
 40
0.0
 40
0.0
 40
1.0
 40
2.0
 40
2.0
 40
2.0
 10
3.943467482887524
 20
3.767744918596973
 30
0.0
 10
3.937083064282873
 20
3.767744918596973
 30
0.0
 10
3.931141320096827
 20
3.758547825573716
 30
0.0
 10
3.931141320096827
 20
3.75365154650395
 30
0.0
  0
LINE
  5
9E
330
A
100
AcDbEntity
  8
1
  6
solid
 62
     7
100
AcDbLine
 10
2.777704079663802
 20
3.143952266956896
 30
0.0
 11
2.777704079663802
 21
3.268952266956896
 31
0.0
  0
LINE
  5
A0
330
A
100
AcDbEntity
  8
1
  6
solid
 62
     7
100
AcDbLine
 10
2.802413381989383
 20
3.268952266956896
 30
0.0
 11
2.802413381989383
 21
3.165754592538291
 31
0.0
  0
LINE
  5
A1
330
A
100
AcDbEntity
  8
1
  6
solid
 62
     7
100
AcDbLine
 10
2.802413381989383
 20
3.165754592538291
 30
0.0
 11
2.864913381989383
 21
3.165754592538291
 31
0.0
  0
LINE
  5
A2
330
A
100
AcDbEntity
  8
1
  6
solid
 62
     7
100
AcDbLine
 10
2.864913381989383
 20
3.165754592538291
 30
0.0
 11
2.864913381989383
 21
3.143952266956896
 31
0.0
  0
LINE
  5
A3
330
A
100
AcDbEntity
  8
1
  6
solid
 62
     7
100
AcDbLine
 10
2.777704079663802
 20
3.143952266956896
 30
0.0
 11
2.864913381989383
 21
3.143952266956896
 31
0.0
  0
LINE
  5
A4
330
A
100
AcDbEntity
  8
1
  6
solid
 62
     7
100
AcDbLine
 10
2.978279428501012
 20
3.143952266956896
 30
0.0
 11
2.95357012617543
 21
3.143952266956896
 31
0.0
  0
LINE
  5
A5
330
A
100
AcDbEntity
  8
1
  6
solid
 62
     7
100
AcDbLine
 10
2.95357012617543
 20
3.143952266956896
 30
0.0
 11
2.95357012617543
 21
3.232808546026663
 31
0.0
  0
SPLINE
  5
A6
330
A
100
AcDbEntity
  8
1
  6
solid
 62
     7
100
AcDbSpline
210
0.0
220
0.0
230
1.0
 70
     8
 71
     2
 72
     6
 73
     3
 74
     0
 42
0.0000000001
 43
0.0000000001
 40
0.0
 40
0.0
 40
0.0
 40
1.0
 40
1.0
 40
1.0
 10
2.95357012617543
 20
3.232808546026663
 30
0.0
 10
2.940578033152174
 20
3.218645755328989
 30
0.0
 10
2.923046870361477
 20
3.212266220445268
 30
0.0
  0
LINE
  5
A7
330
A
100
AcDbEntity
  8
1
  6
solid
 62
     7
100
AcDbLine
 10
2.923046870361477
 20
3.212266220445268
 30
0.0
 11
2.923046870361477
 21
3.236975522770849
 31
0.0
  0
SPLINE
  5
A8
330
A
100
AcDbEntity
  8
1
  6
solid
 62
     7
100
AcDbSpline
210
0.0
220
0.0
230
1.0
 70
     8
 71
     2
 72
     7
 73
     4
 74
     0
 42
0.0000000001
 43
0.0000000001
 40
0.0
 40
0.0
 40
0.0
 40
1.0
 40
2.0
 40
2.0
 40
2.0
 10
2.923046870361477
 20
3.236975522770849
 30
0.0
 10
2.932229195942872
 20
3.240016453003408
 30
0.0
 10
2.954254777338221
 20
3.257369011142943
 30
0.0
 10
2.958451521524267
 20
3.268952266956896
 30
0.0
  0
LINE
  5
A9
330
A
100
AcDbEntity
  8
1
  6
solid
 62
     7
100
AcDbLine
 10
2.958451521524267
 20
3.268952266956896
 30
0.0
 11
2.978279428501012
 21
3.268952266956896
 31
0.0
  0
LINE
  5
AA
330
A
100
AcDbEntity
  8
1
  6
solid
 62
     7
100
AcDbLine
 10
2.978279428501012
 20
3.143952266956896
 30
0.0
 11
2.978279428501012
 21
3.268952266956896
 31
0.0
  0
LINE
  5
AB
330
A
100
AcDbEntity
  8
1
  6
solid
 62
     7
100
AcDbLine
 10
3.006619428501012
 20
3.180453197189454
 30
0.0
 11
3.028421754082407
 21
3.183196453003408
 31
0.0
  0
SPLINE
  5
AC
330
A
100
AcDbEntity
  8
1
  6
solid
 62
     7
100
AcDbSpline
210
0.0
220
0.0
230
1.0
 70
     8
 71
     2
 72
     7
 73
     4
 74
     0
 42
0.0000000001
 43
0.0000000001
 40
0.0
 40
0.0
 40
0.0
 40
1.0
 40
2.0
 40
2.0
 40
2.0
 10
3.028421754082407
 20
3.183196453003408
 30
0.0
 10
3.029136172687058
 20
3.174475522770849
 30
0.0
 10
3.040153847105663
 20
3.164301104166198
 30
0.0
 10
3.046726870361477
 20
3.164301104166198
 30
0.0
  0
SPLINE
  5
AD
330
A
100
AcDbEntity
  8
1
  6
solid
 62
     7
100
AcDbSpline
210
0.0
220
0.0
230
1.0
 70
     8
 71
     2
 72
     7
 73
     4
 74
     0
 42
0.0000000001
 43
0.0000000001
 40
0.0
 40
0.0
 40
0.0
 40
1.0
 40
2.0
 40
2.0
 40
2.0
 10
3.046726870361477
 20
3.164301104166198
 30
0.0
 10
3.054956637803337
 20
3.164301104166198
 30
0.0
 10
3.066212451756825
 20
3.173915057654571
 30
0.0
 10
3.066212451756825
 20
3.184059708817361
 30
0.0
  0
SPLINE
  5
AE
330
A
100
AcDbEntity
  8
1
  6
solid
 62
     7
100
AcDbSpline
210
0.0
220
0.0
230
1.0
 70
     8
 71
     2
 72
     7
 73
     4
 74
     0
 42
0.0000000001
 43
0.0000000001
 40
0.0
 40
0.0
 40
0.0
 40
1.0
 40
2.0
 40
2.0
 40
2.0
 10
3.066212451756825
 20
3.184059708817361
 30
0.0
 10
3.066212451756825
 20
3.193802499515036
 30
0.0
 10
3.056261288966128
 20
3.203545290212711
 30
0.0
 10
3.048091056407988
 20
3.203545290212711
 30
0.0
  0
SPLINE
  5
AF
330
A
100
AcDbEntity
  8
1
  6
solid
 62
     7
100
AcDbSpline
210
0.0
220
0.0
230
1.0
 70
     8
 71
     2
 72
     6
 73
     3
 74
     0
 42
0.0000000001
 43
0.0000000001
 40
0.0
 40
0.0
 40
0.0
 40
1.0
 40
1.0
 40
1.0
 10
3.048091056407988
 20
3.203545290212711
 30
0.0
 10
3.038640823849849
 20
3.203545290212711
 30
0.0
 10
3.030530126175431
 20
3.194824359980151
 30
0.0
  0
LINE
  5
B0
330
A
100
AcDbEntity
  8
1
  6
solid
 62
     7
100
AcDbLine
 10
3.030530126175431
 20
3.194824359980151
 30
0.0
 11
3.009526405245197
 21
3.197081569282477
 31
0.0
  0
LINE
  5
B1
330
A
100
AcDbEntity
  8
1
  6
solid
 62
     7
100
AcDbLine
 10
3.009526405245197
 20
3.197081569282477
 30
0.0
 11
3.024061288966128
 21
3.267498778584803
 31
0.0
  0
LINE
  5
B2
330
A
100
AcDbEntity
  8
1
  6
solid
 62
     7
100
AcDbLine
 10
3.024061288966128
 20
3.267498778584803
 30
0.0
 11
3.085107800594036
 21
3.267498778584803
 31
0.0
  0
LINE
  5
B3
330
A
100
AcDbEntity
  8
1
  6
solid
 62
     7
100
AcDbLine
 10
3.085107800594036
 20
3.267498778584803
 30
0.0
 11
3.085107800594036
 21
3.242789476259221
 31
0.0
  0
LINE
  5
B4
330
A
100
AcDbEntity
  8
1
  6
solid
 62
     7
100
AcDbLine
 10
3.085107800594036
 20
3.242789476259221
 30
0.0
 11
3.043537102919616
 21
3.242789476259221
 31
0.0
  0
LINE
  5
B5
330
A
100
AcDbEntity
  8
1
  6
solid
 62
     7
100
AcDbLine
 10
3.043537102919616
 20
3.242789476259221
 30
0.0
 11
3.038759893617291
 21
3.220039708817361
 31
0.0
  0
SPLINE
  5
B6
330
A
100
AcDbEntity
  8
1
  6
solid
 62
     7
100
AcDbSpline
210
0.0
220
0.0
230
1.0
 70
     8
 71
     2
 72
     6
 73
     3
 74
     0
 42
0.0000000001
 43
0.0000000001
 40
0.0
 40
0.0
 40
0.0
 40
1.0
 40
1.0
 40
1.0
 10
3.038759893617291
 20
3.220039708817361
 30
0.0
 10
3.04628035873357
 20
3.225347615794106
 30
0.0
 10
3.054024079663802
 20
3.225347615794106
 30
0.0
  0
SPLINE
  5
B7
330
A
100
AcDbEntity
  8
1
  6
solid
 62
     7
100
AcDbSpline
210
0.0
220
0.0
230
1.0
 70
     8
 71
     2
 72
     7
 73
     4
 74
     0
 42
0.0000000001
 43
0.0000000001
 40
0.0
 40
0.0
 40
0.0
 40
1.0
 40
2.0
 40
2.0
 40
2.0
 10
3.054024079663802
 20
3.225347615794106
 30
0.0
 10
3.069521288966128
 20
3.225347615794106
 30
0.0
 10
3.090921754082407
 20
3.202657383235966
 30
0.0
 10
3.090921754082407
 20
3.184932732073176
 30
0.0
  0
SPLINE
  5
B8
330
A
100
AcDbEntity
  8
1
  6
solid
 62
     7
100
AcDbSpline
210
0.0
220
0.0
230
1.0
 70
     8
 71
     2
 72
     6
 73
     3
 74
     0
 42
0.0000000001
 43
0.0000000001
 40
0.0
 40
0.0
 40
0.0
 40
1.0
 40
1.0
 40
1.0
 10
3.090921754082407
 20
3.184932732073176
 30
0.0
 10
3.090921754082407
 20
3.170144825096431
 30
0.0
 10
3.081536172687058
 20
3.157971336724338
 30
0.0
  0
SPLINE
  5
B9
330
A
100
AcDbEntity
  8
1
  6
solid
 62
     7
100
AcDbSpline
210
0.0
220
0.0
230
1.0
 70
     8
 71
     2
 72
     6
 73
     3
 74
     0
 42
0.0000000001
 43
0.0000000001
 40
0.0
 40
0.0
 40
0.0
 40
1.0
 40
1.0
 40
1.0
 10
3.081536172687058
 20
3.157971336724338
 30
0.0
 10
3.069506405245197
 20
3.142498778584803
 30
0.0
 10
3.047763614547523
 20
3.142498778584803
 30
0.0
  0
SPLINE
  5
BA
330
A
100
AcDbEntity
  8
1
  6
solid
 62
     7
100
AcDbSpline
210
0.0
220
0.0
230
1.0
 70
     8
 71
     2
 72
     7
 73
     4
 74
     0
 42
0.0000000001
 43
0.0000000001
 40
0.0
 40
0.0
 40
0.0
 40
1.0
 40
2.0
 40
2.0
 40
2.0
 10
3.047763614547523
 20
3.142498778584803
 30
0.0
 10
3.030381288966128
 20
3.142498778584803
 30
0.0
 10
3.008519428501012
 20
3.163026220445268
 30
0.0
 10
3.006619428501012
 20
3.180453197189454
 30
0.0
  0
LINE
  5
BB
330
A
100
AcDbEntity
  8
1
  6
solid
 62
     7
100
AcDbLine
 10
3.202110591291709
 20
3.168661569282478
 30
0.0
 11
3.202110591291709
 21
3.143952266956896
 31
0.0
  0
LINE
  5
BC
330
A
100
AcDbEntity
  8
1
  6
solid
 62
     7
100
AcDbLine
 10
3.202110591291709
 20
3.143952266956896
 30
0.0
 11
3.119261754082407
 21
3.143952266956896
 31
0.0
  0
SPLINE
  5
BD
330
A
100
AcDbEntity
  8
1
  6
solid
 62
     7
100
AcDbSpline
210
0.0
220
0.0
230
1.0
 70
     8
 71
     2
 72
     7
 73
     4
 74
     0
 42
0.0000000001
 43
0.0000000001
 40
0.0
 40
0.0
 40
0.0
 40
1.0
 40
2.0
 40
2.0
 40
2.0
 10
3.119261754082407
 20
3.143952266956896
 30
0.0
 10
3.12012500989636
 20
3.156041569282478
 30
0.0
 10
3.133811521524267
 20
3.178022499515036
 30
0.0
 10
3.153108730826593
 20
3.196486220445268
 30
0.0
  0
SPLINE
  5
BE
330
A
100
AcDbEntity
  8
1
  6
solid
 62
     7
100
AcDbSpline
210
0.0
220
0.0
230
1.0
 70
     8
 71
     2
 72
     6
 73
     3
 74
     0
 42
0.0000000001
 43
0.0000000001
 40
0.0
 40
0.0
 40
0.0
 40
1.0
 40
1.0
 40
1.0
 10
3.153108730826593
 20
3.196486220445268
 30
0.0
 10
3.168918498268454
 20
3.211155057654571
 30
0.0
 10
3.172257102919616
 20
3.216095987887129
 30
0.0
  0
SPLINE
  5
BF
330
A
100
AcDbEntity
  8
1
  6
solid
 62
     7
100
AcDbSpline
210
0.0
220
0.0
230
1.0
 70
     8
 71
     2
 72
     6
 73
     3
 74
     0
 42
0.0000000001
 43
0.0000000001
 40
0.0
 40
0.0
 40
0.0
 40
1.0
 40
1.0
 40
1.0
 10
3.172257102919616
 20
3.216095987887129
 30
0.0
 10
3.177401288966128
 20
3.223348546026663
 30
0.0
 10
3.177401288966128
 20
3.230496918119686
 30
0.0
  0
SPLINE
  5
C0
330
A
100
AcDbEntity
  8
1
  6
solid
 62
     7
100
AcDbSpline
210
0.0
220
0.0
230
1.0
 70
     8
 71
     2
 72
     7
 73
     4
 74
     0
 42
0.0000000001
 43
0.0000000001
 40
0.0
 40
0.0
 40
0.0
 40
1.0
 40
2.0
 40
2.0
 40
2.0
 10
3.177401288966128
 20
3.230496918119686
 30
0.0
 10
3.177401288966128
 20
3.238637383235966
 30
0.0
 10
3.169216172687058
 20
3.247149941375501
 30
0.0
 10
3.162142219198686
 20
3.247149941375501
 30
0.0
  0
SPLINE
  5
C1
330
A
100
AcDbEntity
  8
1
  6
solid
 62
     7
100
AcDbSpline
210
0.0
220
0.0
230
1.0
 70
     8
 71
     2
 72
     7
 73
     4
 74
     0
 42
0.0000000001
 43
0.0000000001
 40
0.0
 40
0.0
 40
0.0
 40
1.0
 40
2.0
 40
2.0
 40
2.0
 10
3.162142219198686
 20
3.247149941375501
 30
0.0
 10
3.155628730826593
 20
3.247149941375501
 30
0.0
 10
3.14729477733822
 20
3.237913197189455
 30
0.0
 10
3.146878033152174
 20
3.228254592538291
 30
0.0
  0
LINE
  5
C2
330
A
100
AcDbEntity
  8
1
  6
solid
 62
     7
100
AcDbLine
 10
3.146878033152174
 20
3.228254592538291
 30
0.0
 11
3.122168730826593
 21
3.230273662305734
 31
0.0
  0
SPLINE
  5
C3
330
A
100
AcDbEntity
  8
1
  6
solid
 62
     7
100
AcDbSpline
210
0.0
220
0.0
230
1.0
 70
     8
 71
     2
 72
     7
 73
     4
 74
     0
 42
0.0000000001
 43
0.0000000001
 40
0.0
 40
0.0
 40
0.0
 40
1.0
 40
2.0
 40
2.0
 40
2.0
 10
3.122168730826593
 20
3.230273662305734
 30
0.0
 10
3.124038963384732
 20
3.250726685561548
 30
0.0
 10
3.146094312221942
 20
3.268952266956896
 30
0.0
 10
3.16300035873357
 20
3.268952266956896
 30
0.0
  0
SPLINE
  5
C4
330
A
100
AcDbEntity
  8
1
  6
solid
 62
     7
100
AcDbSpline
210
0.0
220
0.0
230
1.0
 70
     8
 71
     2
 72
     7
 73
     4
 74
     0
 42
0.0000000001
 43
0.0000000001
 40
0.0
 40
0.0
 40
0.0
 40
1.0
 40
2.0
 40
2.0
 40
2.0
 10
3.16300035873357
 20
3.268952266956896
 30
0.0
 10
3.180948265710314
 20
3.268952266956896
 30
0.0
 10
3.202110591291709
 20
3.249243429747593
 30
0.0
 10
3.202110591291709
 20
3.234782964631314
 30
0.0
  0
SPLINE
  5
C5
330
A
100
AcDbEntity
  8
1
  6
solid
 62
     7
100
AcDbSpline
210
0.0
220
0.0
230
1.0
 70
     8
 71
     2
 72
     7
 73
     4
 74
     0
 42
0.0000000001
 43
0.0000000001
 40
0.0
 40
0.0
 40
0.0
 40
1.0
 40
2.0
 40
2.0
 40
2.0
 10
3.202110591291709
 20
3.234782964631314
 30
0.0
 10
3.202110591291709
 20
3.226905290212711
 30
0.0
 10
3.195736172687058
 20
3.211675987887129
 30
0.0
 10
3.18952035873357
 20
3.203857848352245
 30
0.0
  0
SPLINE
  5
C6
330
A
100
AcDbEntity
  8
1
  6
solid
 62
     7
100
AcDbSpline
210
0.0
220
0.0
230
1.0
 70
     8
 71
     2
 72
     8
 73
     5
 74
     0
 42
0.0000000001
 43
0.0000000001
 40
0.0
 40
0.0
 40
0.0
 40
1.0
 40
2.0
 40
3.0
 40
3.0
 40
3.0
 10
3.18952035873357
 20
3.203857848352245
 30
0.0
 10
3.185234312221942
 20
3.198326685561548
 30
0.0
 10
3.162231521524268
 20
3.178067150677826
 30
0.0
 10
3.156358033152174
 20
3.171732266956896
 30
0.0
 10
3.154651521524268
 20
3.168661569282478
 30
0.0
  0
LINE
  5
C7
330
A
100
AcDbEntity
  8
1
  6
solid
 62
     7
100
AcDbLine
 10
3.202110591291709
 20
3.168661569282478
 30
0.0
 11
3.154651521524268
 21
3.168661569282478
 31
0.0
  0
LINE
  5
C8
330
A
100
AcDbEntity
  8
1
  6
solid
 62
     7
100
AcDbLine
 10
5.009204111556095
 20
3.973667835389508
 30
0.0
 11
5.009204111556095
 21
3.540232431616344
 31
0.0
  0
LINE
  5
C9
330
A
100
AcDbEntity
  8
1
  6
solid
 62
     7
100
AcDbLine
 10
5.009204111556095
 20
3.540232431589508
 30
0.0
 11
4.718956393801633
 21
3.540232431589508
 31
0.0
  0
ARC
  5
CA
330
A
100
AcDbEntity
  8
1
  6
solid
 62
     7
100
AcDbCircle
 10
3.917986804616911
 20
3.495456698620788
 30
0.0
 40
0.8022200256392832
100
AcDbArc
 50
273.3749516433169
 51
3.199621167543776
  0
LINE
  5
CB
330
A
100
AcDbEntity
  8
1
  6
solid
 62
     7
100
AcDbLine
 10
3.965213581256096
 20
2.694628112171392
 30
0.0
 11
3.965213581256096
 21
2.406780662695614
 31
0.0
  0
LINE
  5
CC
330
A
100
AcDbEntity
  8
1
  6
solid
 62
     7
100
AcDbLine
 10
1.914335092143535
 20
0.5367489402005932
 30
0.0
 11
2.25758395923936
 21
0.5367489402005932
 31
0.0
  0
LINE
  5
CD
330
A
100
AcDbEntity
  8
1
  6
solid
 62
     7
100
AcDbLine
 10
2.257583960207017
 20
0.5367489980203928
 30
0.0
 11
2.257583960207017
 21
0.7454884468163021
 31
0.0
  0
LINE
  5
CE
330
A
100
AcDbEntity
  8
1
  6
solid
 62
     7
100
AcDbLine
 10
2.555721386620652
 20
1.337991111133795
 30
0.0
 11
2.460054295140816
 21
1.250294672441367
 31
0.0
  0
ARC
  5
CF
330
A
100
AcDbEntity
  8
1
  6
solid
 62
     7
100
AcDbCircle
 10
2.20628092652249
 20
1.059072367708224
 30
0.0
 40
0.3177527853638312
100
AcDbArc
 50
279.2914068099619
 51
36.99859820818942
  0
LINE
  5
D0
330
A
100
AcDbEntity
  8
1
  6
solid
 62
     7
100
AcDbLine
 10
2.478362750913176
 20
1.417426225886871
 30
0.0
 11
2.555721368641862
 21
1.337991112589687
 31
0.0
  0
ARC
  5
D1
330
A
100
AcDbEntity
  8
1
  6
solid
 62
     7
100
AcDbCircle
 10
4.070033425692614
 20
0.6373183484022161
 30
0.0
 40
1.772564198404794
100
AcDbArc
 50
93.39013981313774
 51
153.8896528473464
  0
LINE
  5
D2
330
A
100
AcDbEntity
  8
1
  6
solid
 62
     7
100
AcDbLine
 10
4.034499470481486
 20
4.127265930175781
 30
0.0
 11
5.009204212913127
 21
3.973667860031126
 31
0.0
  0
LINE
  5
D3
330
A
100
AcDbEntity
  8
1
  6
solid
 62
     7
100
AcDbLine
 10
4.034499470481486
 20
3.693830490112303
 30
0.0
 11
5.009204212913127
 21
3.540232419967651
 31
0.0
  0
LINE
  5
D4
330
A
100
AcDbEntity
  8
1
  6
solid
 62
     7
100
AcDbLine
 10
3.744251791724772
 20
3.693830490112303
 30
0.0
 11
4.718956295737834
 21
3.540232419967651
 31
0.0
  0
LINE
  5
D5
330
A
100
AcDbEntity
  8
1
  6
solid
 62
     7
100
AcDbLine
 10
2.990508858451457
 20
2.848225831985473
 30
0.0
 11
3.965213600883096
 21
2.694628000259398
 31
0.0
  0
LINE
  5
D6
330
A
100
AcDbEntity
  8
1
  6
solid
 62
     7
100
AcDbLine
 10
3.965213600883096
 20
2.40678071975708
 30
0.0
 11
2.990509096870036
 21
2.560378551483154
 31
0.0
  0
LINE
  5
D7
330
A
100
AcDbEntity
  8
1
  6
solid
 62
     7
100
AcDbLine
 10
2.478362862357707
 20
1.417426228523254
 30
0.0
 11
1.503658239135356
 21
1.571024179458618
 31
0.0
  0
LINE
  5
D8
330
A
100
AcDbEntity
  8
1
  6
solid
 62
     7
100
AcDbLine
 10
2.555721346625895
 20
1.33799111843109
 30
0.0
 11
1.581016842612834
 21
1.491589069366455
 31
0.0
  0
LINE
  5
D9
330
A
100
AcDbEntity
  8
1
  6
solid
 62
     7
100
AcDbLine
 10
2.460054222831339
 20
1.250294685363769
 30
0.0
 11
1.485349718818278
 21
1.403892636299133
 31
0.0
  0
LINE
  5
DA
330
A
100
AcDbEntity
  8
1
  6
solid
 62
     7
100
AcDbLine
 10
2.257583920249552
 20
0.7454885244369507
 30
0.0
 11
1.282879416236491
 21
0.8990864157676695
 31
0.0
  0
LINE
  5
DB
330
A
100
AcDbEntity
  8
1
  6
solid
 62
     7
100
AcDbLine
 10
2.257583920249552
 20
0.5367489457130433
 30
0.0
 11
1.282879416236491
 21
0.6903469562530518
 31
0.0
  0
LINE
  5
DC
330
A
100
AcDbEntity
  8
1
  6
solid
 62
     7
100
AcDbLine
 10
1.914335076102824
 20
0.5367489457130433
 30
0.0
 11
0.9396305720897634
 21
0.690346896648407
 31
0.0
  0
LINE
  5
DD
330
A
100
AcDbEntity
  8
1
  6
solid
 62
     7
100
AcDbLine
 10
-1.061623950863315
 20
1.460026346273455
 30
0.0
 11
1.445026789360102
 21
4.140701973297652
 31
0.0
  0
LINE
  5
DE
330
A
100
AcDbEntity
  8
1
  6
solid
 62
     7
100
AcDbLine
 10
1.445026789360102
 20
4.140701973301153
 30
0.0
 11
2.033245074362624
 21
4.140701973301153
 31
0.0
  0
LINE
  5
DF
330
A
100
AcDbEntity
  8
1
  6
solid
 62
     7
100
AcDbLine
 10
2.033245074385761
 20
4.140701973301153
 30
0.0
 11
2.033245074385761
 21
3.707266569527989
 31
0.0
  0
LINE
  5
E0
330
A
100
AcDbEntity
  8
1
  6
solid
 62
     7
100
AcDbLine
 10
2.033245074385761
 20
3.707266569501153
 30
0.0
 11
1.742997356631299
 21
3.707266569501153
 31
0.0
  0
ARC
  5
E1
330
A
100
AcDbEntity
  8
1
  6
solid
 62
     7
100
AcDbCircle
 10
0.9420277674465772
 20
3.662490836532433
 30
0.0
 40
0.8022200256392832
100
AcDbArc
 50
273.3749516433169
 51
363.1996211675438
  0
LINE
  5
E2
330
A
100
AcDbEntity
  8
1
  6
solid
 62
     7
100
AcDbLine
 10
0.9892545440857634
 20
2.861662250083037
 30
0.0
 11
0.9892545440857634
 21
2.573814800607257
 31
0.0
  0
LINE
  5
E3
330
A
100
AcDbEntity
  8
1
  6
solid
 62
     7
100
AcDbLine
 10
-1.061623945026797
 20
0.7037830781122377
 30
0.0
 11
-0.7183750779309726
 21
0.7037830781122377
 31
0.0
  0
LINE
  5
E4
330
A
100
AcDbEntity
  8
1
  6
solid
 62
     7
100
AcDbLine
 10
-1.061623950863315
 20
0.7037831359320373
 30
0.0
 11
-1.061623950863315
 21
1.460026346273455
 31
0.0
  0
LINE
  5
E5
330
A
100
AcDbEntity
  8
1
  6
solid
 62
     7
100
AcDbLine
 10
-0.7183750769633153
 20
0.7037831359320373
 30
0.0
 11
-0.7183750769633153
 21
0.9125225847279466
 31
0.0
  0
LINE
  5
E6
330
A
100
AcDbEntity
  8
1
  6
solid
 62
     7
100
AcDbLine
 10
-0.4975962862571568
 20
1.584460363798515
 30
0.0
 11
-0.4202376685284719
 21
1.505025250501331
 31
0.0
  0
LINE
  5
E7
330
A
100
AcDbEntity
  8
1
  6
solid
 62
     7
100
AcDbLine
 10
-0.4202376505496808
 20
1.50502524904544
 30
0.0
 11
-0.5159047420295167
 21
1.417328810353011
 31
0.0
  0
ARC
  5
E8
330
A
100
AcDbEntity
  8
1
  6
solid
 62
     7
100
AcDbCircle
 10
-0.7696781106478421
 20
1.226106505619868
 30
0.0
 40
0.3177527853638312
100
AcDbArc
 50
279.2914068099619
 51
396.9985982081894
  0
ARC
  5
E9
330
A
100
AcDbEntity
  8
1
  6
solid
 62
     7
100
AcDbCircle
 10
1.094074388522281
 20
0.8043524863138605
 30
0.0
 40
1.772564198404794
100
AcDbArc
 50
93.39013981313776
 51
153.8896528473464
  0
LINE
  5
14B
330
A
100
AcDbEntity
  8
1
  6
solid
 62
     7
370
     0
100
AcDbLine
 10
-1.061623925041705
 20
4.238526420452316
 30
0.0
 11
-1.061623925041705
 21
4.469560279373297
 31
0.0
  0
LINE
  5
14E
330
A
100
AcDbEntity
  8
1
  6
solid
 62
     7
370
     0
100
AcDbLine
 10
2.033244973350017
 20
4.471729397051248
 30
0.0
 11
2.033244973350017
 21
4.471729397051248
 31
0.0
  0
LINE
  5
14F
330
A
100
AcDbEntity
  8
1
  6
solid
 62
     7
370
     0
100
AcDbLine
 10
-1.061623925041705
 20
4.407060279373297
 30
0.0
 11
0.0959395765846107
 21
4.407060279373297
 31
0.0
  0
LINE
  5
150
330
A
100
AcDbEntity
  8
1
  6
solid
 62
     7
370
     0
100
AcDbLine
 10
2.033244973350017
 20
4.407060279373297
 30
0.0
 11
0.8685273481091133
 21
4.407060279373297
 31
0.0
  0
MTEXT
  5
151
330
A
100
AcDbEntity
  8
1
  6
solid
 62
     7
370
     0
100
AcDbMText
 10
0.485810524154156
 20
4.407060279373297
 30
0.0
 40
0.125
 41
0.0
 71
     5
 72
     1
  1
{\H0.125000;3 1/8}
 73
     1
 44
1.0
  0
SOLID
  5
152
330
A
100
AcDbEntity
  8
1
  6
solid
 62
     7
370
     0
100
AcDbTrace
 10
-0.9366239250417059
 20
4.427872779373297
 30
0.0
 11
-0.9366239250417059
 21
4.386247779373296
 31
0.0
 12
-1.061623925041705
 22
4.407060279373297
 32
0.0
 13
-1.061623925041705
 23
4.407060279373297
 33
0.0
  0
SOLID
  5
153
330
A
100
AcDbEntity
  8
1
  6
solid
 62
     7
370
     0
100
AcDbTrace
 10
1.908244973350017
 20
4.386247779373297
 30
0.0
 11
1.908244973350017
 21
4.427872779373297
 31
0.0
 12
2.033244973350017
 22
4.407060279373297
 32
0.0
 13
2.033244973350017
 23
4.407060279373297
 33
0.0
  0
LINE
  5
156
330
A
100
AcDbEntity
  8
1
  6
solid
 62
     7
370
     0
100
AcDbLine
 10
-1.196305598305711
 20
0.7037830870642981
 30
0.0
 11
-1.40481476551953
 21
0.7037830870642981
 31
0.0
  0
LINE
  5
157
330
A
100
AcDbEntity
  8
1
  6
solid
 62
     7
370
     0
100
AcDbLine
 10
1.188765556328966
 20
4.140702120591672
 30
0.0
 11
-1.404814765519528
 21
4.140702120591674
 31
0.0
  0
LINE
  5
158
330
A
100
AcDbEntity
  8
1
  6
solid
 62
     7
370
     0
100
AcDbLine
 10
-1.34231476551953
 20
0.7037830870642981
 30
0.0
 11
-1.342314765519529
 21
2.262370007674138
 31
0.0
  0
LINE
  5
159
330
A
100
AcDbEntity
  8
1
  6
solid
 62
     7
370
     0
100
AcDbLine
 10
-1.342314765519528
 20
4.140702120591674
 30
0.0
 11
-1.342314765519529
 21
2.582115199981831
 31
0.0
  0
MTEXT
  5
15A
330
A
100
AcDbEntity
  8
1
  6
solid
 62
     7
370
     0
100
AcDbMText
 10
-1.342314765519529
 20
2.422242603827985
 30
0.0
 40
0.125
 41
0.0
 71
     5
 72
     1
  1
{\H0.125000;3 3/8}
 73
     1
 44
1.0
  0
SOLID
  5
15B
330
A
100
AcDbEntity
  8
1
  6
solid
 62
     7
370
     0
100
AcDbTrace
 10
-1.36312726551953
 20
0.8287830870642979
 30
0.0
 11
-1.32150226551953
 21
0.8287830870642979
 31
0.0
 12
-1.34231476551953
 22
0.7037830870642981
 32
0.0
 13
-1.34231476551953
 23
0.7037830870642981
 33
0.0
  0
SOLID
  5
15C
330
A
100
AcDbEntity
  8
1
  6
solid
 62
     7
370
     0
100
AcDbTrace
 10
-1.321502265519528
 20
4.015702120591674
 30
0.0
 11
-1.363127265519528
 21
4.015702120591674
 31
0.0
 12
-1.342314765519528
 22
4.140702120591674
 32
0.0
 13
-1.342314765519528
 23
4.140702120591674
 33
0.0
  0
LINE
  5
162
330
A
100
AcDbEntity
  8
1
  6
solid
 62
     7
370
     0
100
AcDbLine
 10
2.033244973350017
 20
4.238526420452316
 30
0.0
 11
2.033244973350017
 21
4.469560279373297
 31
0.0
  0
VIEWPORT
  5
11D
330
B
100
AcDbEntity
 67
     1
  8
0
  6
Continuous
370
     0
100
AcDbViewport
 10
5.107284937490247
 20
3.942485720944619
 30
0.0
 40
15.24168637580615
 41
8.064468155182257
 68
     1
 69
     1
 12
5.107284937490247
 22
3.942485720944619
 13
0.0
 23
0.0
 14
0.5
 24
0.5
 15
0.5
 25
0.5
 16
0.0
 26
0.0
 36
1.0
 17
0.0
 27
0.0
 37
0.0
 42
50.0
 43
0.0
 44
0.0
 45
8.064468155182257
 50
0.0
 51
0.0
 72
   100
 90
   819232
  1

281
     0
 71
     1
 74
     0
110
0.0
120
0.0
130
0.0
111
1.0
121
0.0
131
0.0
112
0.0
122
1.0
132
0.0
 79
     0
146
0.0
170
     0
  0
VIEWPORT
  5
120
330
B
100
AcDbEntity
 67
     1
  8
0
  6
Continuous
370
     0
100
AcDbViewport
 10
5.107614263702149
 20
3.942299970822601
 30
0.0
 40
10.28973380859476
 41
7.970266453189712
 68
     2
 69
     2
 12
1.546377191567184
 22
2.381197169400507
 13
0.0
 23
0.0
 14
0.5
 24
0.5
 15
0.5
 25
0.5
 16
0.0
 26
0.0
 36
1.0
 17
0.0
 27
0.0
 37
0.0
 42
50.0
 43
0.0
 44
0.0
 45
6.035177261291518
 50
0.0
 51
0.0
 72
   100
 90
   819232
  1

281
     0
 71
     1
 74
     0
110
0.0
120
0.0
130
0.0
111
1.0
121
0.0
131
0.0
112
0.0
122
1.0
132
0.0
 79
     0
146
0.0
170
     0
  0
ENDSEC
  0
SECTION
  2
OBJECTS
  0
DICTIONARY
  5
19
330
0
100
AcDbDictionary
281
     1
  3
ACAD_COLOR
350
116
  3
ACAD_GROUP
350
1A
  3
ACAD_LAYOUT
350
1E
  3
ACAD_MATERIAL
350
101
  3
ACAD_MLEADERSTYLE
350
134
  3
ACAD_MLINESTYLE
350
1B
  3
ACAD_PLOTSETTINGS
350
22
  3
ACAD_PLOTSTYLENAME
350
1F
  3
ACAD_SCALELIST
350
124
  3
ACAD_TABLESTYLE
350
117
  3
ACAD_VISUALSTYLE
350
105
  3
ACAD_WIPEOUT_VARS
350
23
  3
ACDB_RECOMPOSE_DATA
350
17D
  3
AcDbVariableDictionary
350
121
  3
ASE_INDEX_DICTIONARY
350
164
  0
DICTIONARY
  5
13F
330
14
100
AcDbDictionary
280
     1
281
     1
  3
ADSK_XREC_LAYER_RECONCILED
360
140
  0
DICTIONARY
  5
141
330
27
100
AcDbDictionary
280
     1
281
     1
  3
ADSK_XREC_LAYER_RECONCILED
360
142
  0
DICTIONARY
  5
154
330
A
100
AcDbDictionary
280
     1
281
     1
  3
ACAD_SORTENTS
360
155
  0
DICTIONARY
  5
116
102
{ACAD_REACTORS
330
19
102
}
330
19
100
AcDbDictionary
281
     1
  0
DICTIONARY
  5
1A
102
{ACAD_REACTORS
330
19
102
}
330
19
100
AcDbDictionary
281
     1
  0
DICTIONARY
  5
1E
102
{ACAD_REACTORS
330
19
102
}
330
19
100
AcDbDictionary
281
     1
  3
Layout1
350
21
  3
Model
350
20
  0
DICTIONARY
  5
101
102
{ACAD_REACTORS
330
19
102
}
330
19
100
AcDbDictionary
281
     1
  3
ByBlock
350
103
  3
ByLayer
350
102
  3
Global
350
104
  0
DICTIONARY
  5
134
102
{ACAD_REACTORS
330
19
102
}
330
19
100
AcDbDictionary
281
     1
  3
Standard
350
135
  0
DICTIONARY
  5
1B
102
{ACAD_REACTORS
330
19
102
}
330
19
100
AcDbDictionary
281
     1
  3
Standard
350
1C
  0
DICTIONARY
  5
22
102
{ACAD_REACTORS
330
19
102
}
330
19
100
AcDbDictionary
281
     1
  0
ACDBDICTIONARYWDFLT
  5
1F
102
{ACAD_REACTORS
330
19
102
}
330
19
100
AcDbDictionary
281
     1
  3
Normal
350
1D
100
AcDbDictionaryWithDefault
340
1D
  0
DICTIONARY
  5
124
102
{ACAD_REACTORS
330
19
102
}
330
19
100
AcDbDictionary
281
     1
  3
A0
350
125
  3
A1
350
126
  3
A2
350
127
  3
A3
350
128
  3
A4
350
129
  3
A5
350
12A
  3
A6
350
12B
  3
A7
350
12C
  3
A8
350
12D
  3
A9
350
12E
  3
B0
350
12F
  3
B1
350
130
  3
B2
350
131
  3
B3
350
132
  3
B4
350
133
  0
DICTIONARY
  5
117
102
{ACAD_REACTORS
330
19
102
}
330
19
100
AcDbDictionary
281
     1
  3
Standard
350
118
  0
DICTIONARY
  5
105
102
{ACAD_REACTORS
330
19
102
}
330
19
100
AcDbDictionary
281
     1
  3
2dWireframe
350
10B
  3
3D Hidden
350
10D
  3
3dWireframe
350
10C
  3
Basic
350
10A
  3
Brighten
350
111
  3
ColorChange
350
115
  3
Conceptual
350
10E
  3
Dim
350
110
  3
Facepattern
350
114
  3
Flat
350
106
  3
FlatWithEdges
350
107
  3
Gouraud
350
108
  3
GouraudWithEdges
350
109
  3
Linepattern
350
113
  3
Realistic
350
10F
  3
Thicken
350
112
  0
WIPEOUTVARIABLES
  5
23
330
19
100
AcDbWipeoutVariables
 70
     1
  0
XRECORD
  5
17D
102
{ACAD_REACTORS
330
19
102
}
330
19
100
AcDbXrecord
280
     1
 90
        1
330
118
  0
DICTIONARY
  5
121
102
{ACAD_REACTORS
330
19
102
}
330
19
100
AcDbDictionary
281
     1
  3
CANNOSCALE
350
17A
  3
CMLEADERSTYLE
350
179
  3
CTABLESTYLE
350
122
  0
DICTIONARY
  5
164
102
{ACAD_REACTORS
330
19
102
}
330
19
100
AcDbDictionary
281
     1
  3
ASEBlockHierarchyIndexRecord
350
166
1001
DCO15
1040
1667580485.968
  0
XRECORD
  5
140
102
{ACAD_REACTORS
330
13F
102
}
330
13F
100
AcDbXrecord
280
     1
290
     1
  0
XRECORD
  5
142
102
{ACAD_REACTORS
330
141
102
}
330
141
100
AcDbXrecord
280
     1
290
     1
  0
SORTENTSTABLE
  5
155
102
{ACAD_REACTORS
330
154
102
}
330
154
100
AcDbSortentsTable
330
A
331
E0
  5
E0
331
BE
  5
BE
331
9C
  5
9C
331
7A
  5
7A
331
61
  5
61
331
14F
  5
158
331
CF
  5
CF
331
AD
  5
AD
331
8B
  5
8B
331
72
  5
72
331
50
  5
50
331
3F
  5
3F
331
2E
  5
2E
331
DE
  5
DE
331
BC
  5
BC
331
9A
  5
9A
331
78
  5
78
331
CD
  5
CD
331
AB
  5
AB
331
89
  5
89
331
70
  5
70
331
4E
  5
4E
331
5F
  5
5F
331
3D
  5
3D
331
2C
  5
2C
331
DC
  5
DC
331
BA
  5
BA
331
98
  5
98
331
15C
  5
153
331
14B
  5
156
331
CB
  5
CB
331
A9
  5
A9
331
87
  5
87
331
6E
  5
6E
331
4C
  5
4C
331
5D
  5
5D
331
3B
  5
3B
331
2A
  5
2A
331
DA
  5
DA
331
B8
  5
B8
331
15A
  5
151
331
C9
  5
C9
331
A7
  5
A7
331
85
  5
85
331
6C
  5
6C
331
4A
  5
4A
331
96
  5
96
331
5B
  5
5B
331
39
  5
39
331
28
  5
28
331
158
  5
14F
331
D8
  5
D8
331
E9
  5
E9
331
C7
  5
C7
331
A5
  5
A5
331
83
  5
83
331
6A
  5
6A
331
48
  5
48
331
B6
  5
B6
331
94
  5
94
331
59
  5
59
331
37
  5
37
331
156
  5
14B
331
E7
  5
E7
331
C5
  5
C5
331
A3
  5
A3
331
81
  5
81
331
68
  5
68
331
46
  5
46
331
D6
  5
D6
331
B4
  5
B4
331
92
  5
92
331
57
  5
57
331
35
  5
35
331
E5
  5
E5
331
C3
  5
C3
331
A1
  5
A1
331
7F
  5
7F
331
66
  5
66
331
44
  5
44
331
D4
  5
D4
331
B2
  5
B2
331
90
  5
90
331
77
  5
77
331
55
  5
55
331
33
  5
33
331
152
  5
15B
331
E3
  5
E3
331
C1
  5
C1
331
7D
  5
7D
331
64
  5
64
331
42
  5
42
331
D2
  5
D2
331
B0
  5
B0
331
8E
  5
8E
331
75
  5
75
331
53
  5
53
331
31
  5
31
331
150
  5
159
331
E1
  5
E1
331
BF
  5
BF
331
9D
  5
9D
331
7B
  5
7B
331
62
  5
62
331
40
  5
40
331
D0
  5
D0
331
AE
  5
AE
331
8C
  5
8C
331
73
  5
73
331
51
  5
51
331
2F
  5
2F
331
DF
  5
DF
331
BD
  5
BD
331
9B
  5
9B
331
79
  5
79
331
60
  5
60
331
14E
  5
157
331
CE
  5
CE
331
AC
  5
AC
331
8A
  5
8A
331
71
  5
71
331
4F
  5
4F
331
3E
  5
3E
331
2D
  5
2D
331
DD
  5
DD
331
BB
  5
BB
331
99
  5
99
331
CC
  5
CC
331
AA
  5
AA
331
88
  5
88
331
6F
  5
6F
331
4D
  5
4D
331
5E
  5
5E
331
3C
  5
3C
331
2B
  5
2B
331
DB
  5
DB
331
B9
  5
B9
331
15B
  5
152
331
CA
  5
CA
331
A8
  5
A8
331
86
  5
86
331
6D
  5
6D
331
4B
  5
4B
331
97
  5
97
331
5C
  5
5C
331
3A
  5
3A
331
29
  5
29
331
159
  5
150
331
D9
  5
D9
331
C8
  5
C8
331
A6
  5
A6
331
84
  5
84
331
6B
  5
6B
331
49
  5
49
331
B7
  5
B7
331
95
  5
95
331
5A
  5
5A
331
38
  5
38
331
157
  5
14E
331
E8
  5
E8
331
C6
  5
C6
331
A4
  5
A4
331
82
  5
82
331
69
  5
69
331
47
  5
47
331
D7
  5
D7
331
B5
  5
B5
331
93
  5
93
331
58
  5
58
331
36
  5
36
331
E6
  5
E6
331
C4
  5
C4
331
A2
  5
A2
331
80
  5
80
331
67
  5
67
331
45
  5
45
331
D5
  5
D5
331
B3
  5
B3
331
91
  5
91
331
56
  5
56
331
34
  5
34
331
153
  5
15C
331
E4
  5
E4
331
C2
  5
C2
331
A0
  5
A0
331
7E
  5
7E
331
65
  5
65
331
43
  5
43
331
D3
  5
D3
331
B1
  5
B1
331
8F
  5
8F
331
76
  5
76
331
54
  5
54
331
32
  5
32
331
151
  5
15A
331
E2
  5
E2
331
C0
  5
C0
331
9E
  5
9E
331
7C
  5
7C
331
63
  5
63
331
41
  5
41
331
D1
  5
D1
331
AF
  5
AF
331
8D
  5
8D
331
74
  5
74
331
52
  5
52
331
30
  5
30
  0
LAYOUT
  5
21
102
{ACAD_REACTORS
330
1E
102
}
330
1E
100
AcDbPlotSettings
  1

  2
Foxit PDF Printer
  4
Letter
  6

 40
3.174999952316284
 41
3.174999952316284
 42
3.17498779296875
 43
3.175003051757812
 44
279.3999938964844
 45
215.8999938964844
 46
31.47715384821894
 47
24.12875752349356
 48
0.0
 49
0.0
140
0.0
141
0.0
142
1.0
143
1.0
 70
     4
 72
     0
 73
     0
 74
     1
  7

 75
     0
147
1.0
 76
     0
 77
     2
 78
   300
148
-26.25461124795212
149
-20.16000981431432
100
AcDbLayout
  1
Layout1
 70
     0
 71
     1
 10
-0.3306119115190196
 20
-0.2812499079328949
 11
10.66938784818509
 21
8.218749851771214
 12
0.0
 22
0.0
 32
0.0
 14
-0.0380549155168168
 24
-0.0428619138838222
 34
-0.0015258207003583
 15
10.25262479049731
 25
7.92783335577306
 35
0.0000000349246037
146
0.0
 13
0.0
 23
0.0
 33
0.0
 16
1.0
 26
0.0
 36
0.0
 17
0.0
 27
1.0
 37
0.0
 76
     0
330
B
331
11D
1001
ACAD_PSEXT
1000
Foxit PDF Printer
1000
Foxit PDF Printer Driver
1000
FOXIT_PDF
1000

1070
     0
  0
LAYOUT
  5
20
102
{ACAD_REACTORS
330
1E
102
}
330
1E
100
AcDbPlotSettings
  1

  2

  4

  6

 40
0.0
 41
0.0
 42
0.0
 43
0.0
 44
0.0
 45
0.0
 46
0.0
 47
0.0
 48
0.0
 49
0.0
140
0.0
141
0.0
142
1.0
143
1.0
 70
  1024
 72
     0
 73
     0
 74
     0
  7

 75
     0
147
1.0
 76
     0
 77
     2
 78
   300
148
0.0
149
0.0
100
AcDbLayout
  1
Model
 70
     0
 71
     0
 10
0.0
 20
0.0
 11
0.0
 21
0.0
 12
0.0
 22
0.0
 32
0.0
 14
0.0
 24
0.0
 34
0.0
 15
0.0
 25
0.0
 35
0.0
146
0.0
 13
0.0
 23
0.0
 33
0.0
 16
0.0
 26
0.0
 36
0.0
 17
0.0
 27
0.0
 37
0.0
 76
     0
330
A
  0
MATERIAL
  5
103
102
{ACAD_XDICTIONARY
360
180
102
}
102
{ACAD_REACTORS
330
101
102
}
330
101
100
AcDbMaterial
  1
ByBlock
 73
     1
 78
     1
172
     1
176
     1
270
     1
274
     1
  0
MATERIAL
  5
102
102
{ACAD_XDICTIONARY
360
17E
102
}
102
{ACAD_REACTORS
330
101
102
}
330
101
100
AcDbMaterial
  1
ByLayer
 73
     1
 78
     1
172
     1
176
     1
270
     1
274
     1
  0
MATERIAL
  5
104
102
{ACAD_XDICTIONARY
360
182
102
}
102
{ACAD_REACTORS
330
101
102
}
330
101
100
AcDbMaterial
  1
Global
 73
     1
 78
     1
172
     1
176
     1
270
     1
274
     1
  0
MLEADERSTYLE
  5
135
102
{ACAD_REACTORS
330
134
102
}
330
134
100
AcDbMLeaderStyle
170
     2
171
     1
172
     0
 90
        2
 40
0.0
 41
0.0
173
     1
 91
-1056964608
340
11
 92
       -2
290
     1
 42
0.09
291
     1
 43
0.36
  3
Standard
 44
0.18
300

342
17
174
     1
178
     6
175
     1
176
     0
 93
-1056964608
 45
0.18
292
     0
297
     0
 46
0.18
 94
-1056964608
 47
1.0
 49
1.0
140
1.0
293
     1
141
0.0
294
     1
177
     0
142
1.0
295
     0
296
     0
143
0.125
1001
ACAD_MLEADERVER
1070
     2
  0
MLINESTYLE
  5
1C
102
{ACAD_REACTORS
330
1B
102
}
330
1B
100
AcDbMlineStyle
  2
STANDARD
 70
     0
  3

 62
     0
 51
90.0
 52
90.0
 71
     2
 49
0.5
 62
   256
  6
BYLAYER
 49
-0.5
 62
   256
  6
BYLAYER
  0
ACDBPLACEHOLDER
  5
1D
102
{ACAD_REACTORS
330
1F
102
}
330
1F
  0
SCALE
  5
125
102
{ACAD_REACTORS
330
124
102
}
330
124
100
AcDbScale
 70
     0
300
1/64" = 1'-0"
140
0.015625
141
12.0
290
     0
  0
SCALE
  5
126
102
{ACAD_REACTORS
330
124
102
}
330
124
100
AcDbScale
 70
     0
300
1/32" = 1'-0"
140
0.03125
141
12.0
290
     0
  0
SCALE
  5
127
102
{ACAD_REACTORS
330
124
102
}
330
124
100
AcDbScale
 70
     0
300
1/16" = 1'-0"
140
0.0625
141
12.0
290
     0
  0
SCALE
  5
128
102
{ACAD_REACTORS
330
124
102
}
330
124
100
AcDbScale
 70
     0
300
3/32" = 1'-0"
140
0.09375
141
12.0
290
     0
  0
SCALE
  5
129
102
{ACAD_REACTORS
330
124
102
}
330
124
100
AcDbScale
 70
     0
300
1/8" = 1'-0"
140
0.125
141
12.0
290
     0
  0
SCALE
  5
12A
102
{ACAD_REACTORS
330
124
102
}
330
124
100
AcDbScale
 70
     0
300
3/16" = 1'-0"
140
0.1875
141
12.0
290
     0
  0
SCALE
  5
12B
102
{ACAD_REACTORS
330
124
102
}
330
124
100
AcDbScale
 70
     0
300
1/4" = 1'-0"
140
0.25
141
12.0
290
     0
  0
SCALE
  5
12C
102
{ACAD_REACTORS
330
124
102
}
330
124
100
AcDbScale
 70
     0
300
3/8" = 1'-0"
140
0.375
141
12.0
290
     0
  0
SCALE
  5
12D
102
{ACAD_REACTORS
330
124
102
}
330
124
100
AcDbScale
 70
     0
300
1/2" = 1'-0"
140
0.5
141
12.0
290
     0
  0
SCALE
  5
12E
102
{ACAD_REACTORS
330
124
102
}
330
124
100
AcDbScale
 70
     0
300
3/4" = 1'-0"
140
0.75
141
12.0
290
     0
  0
SCALE
  5
12F
102
{ACAD_REACTORS
330
124
102
}
330
124
100
AcDbScale
 70
     0
300
1" = 1'-0"
140
1.0
141
12.0
290
     0
  0
SCALE
  5
130
102
{ACAD_REACTORS
330
124
102
}
330
124
100
AcDbScale
 70
     0
300
1 1/2" = 1'-0"
140
1.5
141
12.0
290
     0
  0
SCALE
  5
131
102
{ACAD_REACTORS
330
124
102
}
330
124
100
AcDbScale
 70
     0
300
3" = 1'-0"
140
3.0
141
12.0
290
     0
  0
SCALE
  5
132
102
{ACAD_REACTORS
330
124
102
}
330
124
100
AcDbScale
 70
     0
300
6" = 1'-0"
140
6.0
141
12.0
290
     0
  0
SCALE
  5
133
102
{ACAD_REACTORS
330
124
102
}
330
124
100
AcDbScale
 70
     0
300
1'-0" = 1'-0"
140
12.0
141
12.0
290
     1
  0
TABLESTYLE
  5
118
102
{ACAD_XDICTIONARY
360
17B
102
}
102
{ACAD_REACTORS
330
117
102
}
330
117
100
AcDbTableStyle
  3
Standard
 70
     0
 71
     0
 40
0.06
 41
0.06
280
     0
281
     0
  7
Standard
140
0.18
170
     2
 62
     0
 63
     7
283
     0
274
    -2
284
     1
 64
     0
275
    -2
285
     1
 65
     0
276
    -2
286
     1
 66
     0
277
    -2
287
     1
 67
     0
278
    -2
288
     1
 68
     0
279
    -2
289
     1
 69
     0
  7
Standard
140
0.25
170
     5
 62
     0
 63
     7
283
     0
274
    -2
284
     1
 64
     0
275
    -2
285
     1
 65
     0
276
    -2
286
     1
 66
     0
277
    -2
287
     1
 67
     0
278
    -2
288
     1
 68
     0
279
    -2
289
     1
 69
     0
  7
Standard
140
0.18
170
     5
 62
     0
 63
     7
283
     0
274
    -2
284
     1
 64
     0
275
    -2
285
     1
 65
     0
276
    -2
286
     1
 66
     0
277
    -2
287
     1
 67
     0
278
    -2
288
     1
 68
     0
279
    -2
289
     1
 69
     0
  0
VISUALSTYLE
  5
10B
102
{ACAD_REACTORS
330
105
102
}
330
105
100
AcDbVisualStyle
  2
2dWireframe
 70
     4
 71
     0
 72
     2
 73
     0
 90
        0
 40
-0.6
 41
-30.0
 62
     5
 63
     7
421
 16777215
 74
     1
 91
        4
 64
     7
 65
   257
 75
     1
175
     1
 42
1.0
 92
        0
 66
   257
 43
1.0
 76
     1
 77
     6
 78
     2
 67
     7
 79
     5
170
     0
171
     0
290
     0
174
     0
 93
        1
 44
0.0
173
     0
291
     0
 45
0.0
1001
ACAD
1000
AcDbSavedByObjectVersion
1070
     0
  0
VISUALSTYLE
  5
10D
102
{ACAD_REACTORS
330
105
102
}
330
105
100
AcDbVisualStyle
  2
3D Hidden
 70
     6
 71
     1
 72
     2
 73
     2
 90
        0
 40
-0.6
 41
-30.0
 62
     5
 63
     7
421
 16777215
 74
     2
 91
        2
 64
     7
 65
   257
 75
     2
175
     1
 42
40.0
 92
        0
 66
   257
 43
1.0
 76
     1
 77
     6
 78
     2
 67
     7
 79
     3
170
     0
171
     0
290
     0
174
     0
 93
        1
 44
0.0
173
     0
291
     0
 45
0.0
1001
ACAD
1000
AcDbSavedByObjectVersion
1070
     0
  0
VISUALSTYLE
  5
10C
102
{ACAD_REACTORS
330
105
102
}
330
105
100
AcDbVisualStyle
  2
3dWireframe
 70
     5
 71
     0
 72
     2
 73
     0
 90
        0
 40
-0.6
 41
-30.0
 62
     5
 63
     7
421
 16777215
 74
     1
 91
        4
 64
     7
 65
   257
 75
     1
175
     1
 42
1.0
 92
        0
 66
   257
 43
1.0
 76
     1
 77
     6
 78
     2
 67
     7
 79
     5
170
     0
171
     0
290
     0
174
     0
 93
        1
 44
0.0
173
     0
291
     0
 45
0.0
1001
ACAD
1000
AcDbSavedByObjectVersion
1070
     0
  0
VISUALSTYLE
  5
10A
102
{ACAD_REACTORS
330
105
102
}
330
105
100
AcDbVisualStyle
  2
Basic
 70
     7
 71
     1
 72
     0
 73
     1
 90
        0
 40
-0.6
 41
-30.0
 62
     5
 63
     7
421
 16777215
 74
     0
 91
        4
 64
     7
 65
   257
 75
     1
175
     1
 42
1.0
 92
        8
 66
     7
 43
1.0
 76
     1
 77
     6
 78
     2
 67
     7
 79
     5
170
     0
171
     0
290
     0
174
     0
 93
        1
 44
0.0
173
     0
291
     1
 45
0.0
1001
ACAD
1000
AcDbSavedByObjectVersion
1070
     0
  0
VISUALSTYLE
  5
111
102
{ACAD_REACTORS
330
105
102
}
330
105
100
AcDbVisualStyle
  2
Brighten
 70
    12
 71
     2
 72
     2
 73
     0
 90
        0
 40
-0.6
 41
-30.0
 62
     5
 63
     7
421
 16777215
 74
     1
 91
        4
 64
     7
 65
   257
 75
     1
175
     1
 42
1.0
 92
        8
 66
     7
 43
1.0
 76
     1
 77
     6
 78
     2
 67
     7
 79
     5
170
     0
171
     0
290
     0
174
     0
 93
        1
 44
50.0
173
     0
291
     1
 45
0.0
1001
ACAD
1000
AcDbSavedByObjectVersion
1070
     0
  0
VISUALSTYLE
  5
115
102
{ACAD_REACTORS
330
105
102
}
330
105
100
AcDbVisualStyle
  2
ColorChange
 70
    16
 71
     2
 72
     2
 73
     3
 90
        0
 40
-0.6
 41
-30.0
 62
     5
 63
     8
421
  8421504
 74
     1
 91
        4
 64
     7
 65
   257
 75
     1
175
     1
 42
1.0
 92
        8
 66
     8
424
  8421504
 43
1.0
 76
     1
 77
     6
 78
     2
 67
     7
 79
     5
170
     0
171
     0
290
     0
174
     0
 93
        1
 44
0.0
173
     0
291
     1
 45
0.0
1001
ACAD
1000
AcDbSavedByObjectVersion
1070
     0
  0
VISUALSTYLE
  5
10E
102
{ACAD_REACTORS
330
105
102
}
330
105
100
AcDbVisualStyle
  2
Conceptual
 70
     9
 71
     3
 72
     2
 73
     0
 90
        0
 40
-0.6
 41
-30.0
 62
     5
 63
     7
421
 16777215
 74
     2
 91
        2
 64
     7
 65
   257
 75
     1
175
     1
 42
40.0
 92
        8
 66
     7
 43
1.0
 76
     1
 77
     6
 78
     2
 67
     7
 79
     3
170
     0
171
     0
290
     0
174
     0
 93
        1
 44
0.0
173
     0
291
     0
 45
0.0
1001
ACAD
1000
AcDbSavedByObjectVersion
1070
     0
  0
VISUALSTYLE
  5
110
102
{ACAD_REACTORS
330
105
102
}
330
105
100
AcDbVisualStyle
  2
Dim
 70
    11
 71
     2
 72
     2
 73
     0
 90
        0
 40
-0.6
 41
-30.0
 62
     5
 63
     7
421
 16777215
 74
     1
 91
        4
 64
     7
 65
   257
 75
     1
175
     1
 42
1.0
 92
        8
 66
     7
 43
1.0
 76
     1
 77
     6
 78
     2
 67
     7
 79
     5
170
     0
171
     0
290
     0
174
     0
 93
        1
 44
-50.0
173
     0
291
     1
 45
0.0
1001
ACAD
1000
AcDbSavedByObjectVersion
1070
     0
  0
VISUALSTYLE
  5
114
102
{ACAD_REACTORS
330
105
102
}
330
105
100
AcDbVisualStyle
  2
Facepattern
 70
    15
 71
     2
 72
     2
 73
     0
 90
        0
 40
-0.6
 41
-30.0
 62
     5
 63
     7
421
 16777215
 74
     1
 91
        4
 64
     7
 65
   257
 75
     1
175
     1
 42
1.0
 92
        8
 66
     7
 43
1.0
 76
     1
 77
     6
 78
     2
 67
     7
 79
     5
170
     0
171
     0
290
     0
174
     0
 93
        1
 44
0.0
173
     0
291
     1
 45
0.0
1001
ACAD
1000
AcDbSavedByObjectVersion
1070
     0
  0
VISUALSTYLE
  5
106
102
{ACAD_REACTORS
330
105
102
}
330
105
100
AcDbVisualStyle
  2
Flat
 70
     0
 71
     2
 72
     1
 73
     1
 90
        2
 40
-0.6
 41
30.0
 62
     5
 63
     7
421
 16777215
 74
     0
 91
        4
 64
     7
 65
   257
 75
     1
175
     1
 42
1.0
 92
        8
 66
     7
 43
1.0
 76
     1
 77
     6
 78
     2
 67
     7
 79
     5
170
     0
171
     0
290
     0
174
     0
 93
       13
 44
0.0
173
     0
291
     1
 45
0.0
1001
ACAD
1000
AcDbSavedByObjectVersion
1070
     0
  0
VISUALSTYLE
  5
107
102
{ACAD_REACTORS
330
105
102
}
330
105
100
AcDbVisualStyle
  2
FlatWithEdges
 70
     1
 71
     2
 72
     1
 73
     1
 90
        2
 40
-0.6
 41
30.0
 62
     5
 63
     7
421
 16777215
 74
     1
 91
        4
 64
     7
 65
   257
 75
     1
175
     1
 42
1.0
 92
        0
 66
   257
 43
1.0
 76
     1
 77
     6
 78
     2
 67
     7
 79
     5
170
     0
171
     0
290
     0
174
     0
 93
       13
 44
0.0
173
     0
291
     1
 45
0.0
1001
ACAD
1000
AcDbSavedByObjectVersion
1070
     0
  0
VISUALSTYLE
  5
108
102
{ACAD_REACTORS
330
105
102
}
330
105
100
AcDbVisualStyle
  2
Gouraud
 70
     2
 71
     2
 72
     2
 73
     1
 90
        2
 40
-0.6
 41
30.0
 62
     5
 63
     7
421
 16777215
 74
     0
 91
        4
 64
     7
 65
   257
 75
     1
175
     1
 42
1.0
 92
        0
 66
     7
 43
1.0
 76
     1
 77
     6
 78
     2
 67
     7
 79
     5
170
     0
171
     0
290
     0
174
     0
 93
       13
 44
0.0
173
     0
291
     1
 45
0.0
1001
ACAD
1000
AcDbSavedByObjectVersion
1070
     0
  0
VISUALSTYLE
  5
109
102
{ACAD_REACTORS
330
105
102
}
330
105
100
AcDbVisualStyle
  2
GouraudWithEdges
 70
     3
 71
     2
 72
     2
 73
     1
 90
        2
 40
-0.6
 41
30.0
 62
     5
 63
     7
421
 16777215
 74
     1
 91
        4
 64
     7
 65
   257
 75
     1
175
     1
 42
1.0
 92
        0
 66
   257
 43
1.0
 76
     1
 77
     6
 78
     2
 67
     7
 79
     5
170
     0
171
     0
290
     0
174
     0
 93
       13
 44
0.0
173
     0
291
     1
 45
0.0
1001
ACAD
1000
AcDbSavedByObjectVersion
1070
     0
  0
VISUALSTYLE
  5
113
102
{ACAD_REACTORS
330
105
102
}
330
105
100
AcDbVisualStyle
  2
Linepattern
 70
    14
 71
     2
 72
     2
 73
     0
 90
        0
 40
-0.6
 41
-30.0
 62
     5
 63
     7
421
 16777215
 74
     1
 91
        4
 64
     7
 65
   257
 75
     7
175
     7
 42
1.0
 92
        8
 66
     7
 43
1.0
 76
     1
 77
     6
 78
     2
 67
     7
 79
     5
170
     0
171
     0
290
     0
174
     0
 93
        1
 44
0.0
173
     0
291
     1
 45
0.0
1001
ACAD
1000
AcDbSavedByObjectVersion
1070
     0
  0
VISUALSTYLE
  5
10F
102
{ACAD_REACTORS
330
105
102
}
330
105
100
AcDbVisualStyle
  2
Realistic
 70
     8
 71
     2
 72
     2
 73
     0
 90
        0
 40
-0.6
 41
-30.0
 62
     5
 63
     7
421
 16777215
 74
     1
 91
        0
 64
     7
 65
   257
 75
     1
175
     1
 42
1.0
 92
        8
 66
     8
424
  7895160
 43
1.0
 76
     1
 77
     6
 78
     2
 67
     7
 79
     5
170
     0
171
     0
290
     0
174
     0
 93
       13
 44
0.0
173
     0
291
     0
 45
0.0
1001
ACAD
1000
AcDbSavedByObjectVersion
1070
     0
  0
VISUALSTYLE
  5
112
102
{ACAD_REACTORS
330
105
102
}
330
105
100
AcDbVisualStyle
  2
Thicken
 70
    13
 71
     2
 72
     2
 73
     0
 90
        0
 40
-0.6
 41
-30.0
 62
     5
 63
     7
421
 16777215
 74
     1
 91
        4
 64
     7
 65
   257
 75
     1
175
     1
 42
1.0
 92
       12
 66
     7
 43
1.0
 76
     1
 77
     6
 78
     2
 67
     7
 79
     5
170
     0
171
     0
290
     0
174
     0
 93
        1
 44
0.0
173
     0
291
     1
 45
0.0
1001
ACAD
1000
AcDbSavedByObjectVersion
1070
     0
  0
DICTIONARYVAR
  5
17A
102
{ACAD_REACTORS
330
121
102
}
330
121
100
DictionaryVariables
280
     0
  1
1'-0" = 1'-0"
  0
DICTIONARYVAR
  5
179
102
{ACAD_REACTORS
330
121
102
}
330
121
100
DictionaryVariables
280
     0
  1
STANDARD
  0
DICTIONARYVAR
  5
122
102
{ACAD_REACTORS
330
121
102
}
330
121
100
DictionaryVariables
280
     0
  1
STANDARD
  0
XRECORD
  5
166
102
{ACAD_REACTORS
330
164
102
}
330
164
100
AcDbXrecord
280
     1
  0
DICTIONARY
  5
180
330
103
100
AcDbDictionary
280
     1
281
     1
  3
ACAD_XREC_ROUNDTRIP
360
181
  0
DICTIONARY
  5
17E
330
102
100
AcDbDictionary
280
     1
281
     1
  3
ACAD_XREC_ROUNDTRIP
360
17F
  0
DICTIONARY
  5
182
330
104
100
AcDbDictionary
280
     1
281
     1
  3
ACAD_XREC_ROUNDTRIP
360
183
  0
DICTIONARY
  5
17B
330
118
100
AcDbDictionary
280
     1
281
     1
  3
ACAD_ROUNDTRIP_2008_TABLESTYLE_CELLSTYLEMAP
360
17C
  3
ACAD_XREC_ROUNDTRIP
360
184
  0
XRECORD
  5
181
102
{ACAD_REACTORS
330
180
102
}
330
180
100
AcDbXrecord
280
     1
102
MATERIAL
148
0.0
149
0.0
149
0.0
 93
        0
 94
       63
282
     0
 72
     1
 77
     1
171
     1
175
     1
179
     1
273
     0
  0
XRECORD
  5
17F
102
{ACAD_REACTORS
330
17E
102
}
330
17E
100
AcDbXrecord
280
     1
102
MATERIAL
148
0.0
149
0.0
149
0.0
 93
        0
 94
       63
282
     0
 72
     1
 77
     1
171
     1
175
     1
179
     1
273
     0
  0
XRECORD
  5
183
102
{ACAD_REACTORS
330
182
102
}
330
182
100
AcDbXrecord
280
     1
102
MATERIAL
148
0.0
149
0.0
149
0.0
 93
        0
 94
       63
282
     0
 72
     1
 77
     1
171
     1
175
     1
179
     1
273
     0
  0
CELLSTYLEMAP
  5
17C
102
{ACAD_REACTORS
330
17B
102
}
330
17B
100
AcDbCellStyleMap
 90
        3
300
CELLSTYLE
  1
TABLEFORMAT_BEGIN
 90
        5
170
     1
 91
        0
 92
    32768
 62
   257
 93
        1
300
CONTENTFORMAT
  1
CONTENTFORMAT_BEGIN
 90
        0
 91
        0
 92
      512
 93
        0
300

 40
0.0
140
1.0
 94
        5
 62
     0
340
17
144
0.25
309
CONTENTFORMAT_END
171
     0
 94
        6
 95
        1
302
GRIDFORMAT
  1
GRIDFORMAT_BEGIN
 90
        0
 91
        1
 62
     0
 92
       -2
340
0
 93
        0
 40
0.045
309
GRIDFORMAT_END
 95
        2
302
GRIDFORMAT
  1
GRIDFORMAT_BEGIN
 90
        0
 91
        1
 62
     0
 92
       -2
340
0
 93
        0
 40
0.045
309
GRIDFORMAT_END
 95
        4
302
GRIDFORMAT
  1
GRIDFORMAT_BEGIN
 90
        0
 91
        1
 62
     0
 92
       -2
340
0
 93
        0
 40
0.045
309
GRIDFORMAT_END
 95
        8
302
GRIDFORMAT
  1
GRIDFORMAT_BEGIN
 90
        0
 91
        1
 62
     0
 92
       -2
340
0
 93
        0
 40
0.045
309
GRIDFORMAT_END
 95
       16
302
GRIDFORMAT
  1
GRIDFORMAT_BEGIN
 90
        0
 91
        1
 62
     0
 92
       -2
340
0
 93
        0
 40
0.045
309
GRIDFORMAT_END
 95
       32
302
GRIDFORMAT
  1
GRIDFORMAT_BEGIN
 90
        0
 91
        1
 62
     0
 92
       -2
340
0
 93
        0
 40
0.045
309
GRIDFORMAT_END
309
TABLEFORMAT_END
  1
CELLSTYLE_BEGIN
 90
        1
 91
        1
300
_TITLE
309
CELLSTYLE_END
300
CELLSTYLE
  1
TABLEFORMAT_BEGIN
 90
        5
170
     1
 91
        0
 92
        0
 62
   257
 93
        1
300
CONTENTFORMAT
  1
CONTENTFORMAT_BEGIN
 90
        0
 91
        0
 92
      512
 93
        0
300

 40
0.0
140
1.0
 94
        5
 62
     0
340
17
144
0.18
309
CONTENTFORMAT_END
171
     0
 94
        6
 95
        1
302
GRIDFORMAT
  1
GRIDFORMAT_BEGIN
 90
        0
 91
        1
 62
     0
 92
       -2
340
0
 93
        0
 40
0.045
309
GRIDFORMAT_END
 95
        2
302
GRIDFORMAT
  1
GRIDFORMAT_BEGIN
 90
        0
 91
        1
 62
     0
 92
       -2
340
0
 93
        0
 40
0.045
309
GRIDFORMAT_END
 95
        4
302
GRIDFORMAT
  1
GRIDFORMAT_BEGIN
 90
        0
 91
        1
 62
     0
 92
       -2
340
0
 93
        0
 40
0.045
309
GRIDFORMAT_END
 95
        8
302
GRIDFORMAT
  1
GRIDFORMAT_BEGIN
 90
        0
 91
        1
 62
     0
 92
       -2
340
0
 93
        0
 40
0.045
309
GRIDFORMAT_END
 95
       16
302
GRIDFORMAT
  1
GRIDFORMAT_BEGIN
 90
        0
 91
        1
 62
     0
 92
       -2
340
0
 93
        0
 40
0.045
309
GRIDFORMAT_END
 95
       32
302
GRIDFORMAT
  1
GRIDFORMAT_BEGIN
 90
        0
 91
        1
 62
     0
 92
       -2
340
0
 93
        0
 40
0.045
309
GRIDFORMAT_END
309
TABLEFORMAT_END
  1
CELLSTYLE_BEGIN
 90
        2
 91
        1
300
_HEADER
309
CELLSTYLE_END
300
CELLSTYLE
  1
TABLEFORMAT_BEGIN
 90
        5
170
     1
 91
        0
 92
        0
 62
   257
 93
        1
300
CONTENTFORMAT
  1
CONTENTFORMAT_BEGIN
 90
        0
 91
        0
 92
      512
 93
        0
300

 40
0.0
140
1.0
 94
        2
 62
     0
340
17
144
0.18
309
CONTENTFORMAT_END
171
     0
 94
        6
 95
        1
302
GRIDFORMAT
  1
GRIDFORMAT_BEGIN
 90
        0
 91
        1
 62
     0
 92
       -2
340
0
 93
        0
 40
0.045
309
GRIDFORMAT_END
 95
        2
302
GRIDFORMAT
  1
GRIDFORMAT_BEGIN
 90
        0
 91
        1
 62
     0
 92
       -2
340
0
 93
        0
 40
0.045
309
GRIDFORMAT_END
 95
        4
302
GRIDFORMAT
  1
GRIDFORMAT_BEGIN
 90
        0
 91
        1
 62
     0
 92
       -2
340
0
 93
        0
 40
0.045
309
GRIDFORMAT_END
 95
        8
302
GRIDFORMAT
  1
GRIDFORMAT_BEGIN
 90
        0
 91
        1
 62
     0
 92
       -2
340
0
 93
        0
 40
0.045
309
GRIDFORMAT_END
 95
       16
302
GRIDFORMAT
  1
GRIDFORMAT_BEGIN
 90
        0
 91
        1
 62
     0
 92
       -2
340
0
 93
        0
 40
0.045
309
GRIDFORMAT_END
 95
       32
302
GRIDFORMAT
  1
GRIDFORMAT_BEGIN
 90
        0
 91
        1
 62
     0
 92
       -2
340
0
 93
        0
 40
0.045
309
GRIDFORMAT_END
309
TABLEFORMAT_END
  1
CELLSTYLE_BEGIN
 90
        3
 91
        2
300
_DATA
309
CELLSTYLE_END
  0
XRECORD
  5
184
102
{ACAD_REACTORS
330
17B
102
}
330
17B
100
AcDbXrecord
280
     1
102
ACAD_ROUNDTRIP_PRE2007_TABLESTYLE
 90
      512
 91
        0
  1

 92
      512
 93
        0
  2

 94
      512
 95
        0
  3

  0
ENDSEC
  0
EOF
