  0
SECTION
  2
HEADER
  9
$ACADVER
  1
AC1018
  9
$ACADMAINTVER
 70
   104
  9
$DWGCODEPAGE
  3
ANSI_1252
  9
$LASTSAVEDBY
  1
EARL
  9
$INSBASE
 10
0.0
 20
0.0
 30
0.0
  9
$EXTMIN
 10
-1.292632436417549
 20
0.669386140772455
 30
0.0
  9
$EXTMAX
 10
4.097570929191467
 20
3.950355900781756
 30
0.0
  9
$LIMMIN
 10
0.0
 20
0.0
  9
$LIMMAX
 10
0.0
 20
0.0
  9
$ORTHOMODE
 70
     0
  9
$REGENMODE
 70
     1
  9
$FILLMODE
 70
     1
  9
$QTEXTMODE
 70
     0
  9
$MIRRTEXT
 70
     1
  9
$LTSCALE
 40
1.0
  9
$ATTMODE
 70
     1
  9
$TEXTSIZE
 40
0.0
  9
$TRACEWID
 40
0.05
  9
$TEXTSTYLE
  7
Standard
  9
$CLAYER
  8
0
  9
$CELTYPE
  6
Continuous
  9
$CECOLOR
 62
   256
  9
$CELTSCALE
 40
1.0
  9
$DISPSILH
 70
     0
  9
$DIMSCALE
 40
1.0
  9
$DIMASZ
 40
0.18
  9
$DIMEXO
 40
0.0625
  9
$DIMDLI
 40
0.38
  9
$DIMRND
 40
0.0
  9
$DIMDLE
 40
0.0
  9
$DIMEXE
 40
0.18
  9
$DIMTP
 40
0.0
  9
$DIMTM
 40
0.0
  9
$DIMTXT
 40
0.18
  9
$DIMCEN
 40
0.09
  9
$DIMTSZ
 40
0.0
  9
$DIMTOL
 70
     0
  9
$DIMLIM
 70
     0
  9
$DIMTIH
 70
     1
  9
$DIMTOH
 70
     1
  9
$DIMSE1
 70
     0
  9
$DIMSE2
 70
     0
  9
$DIMTAD
 70
     0
  9
$DIMZIN
 70
     0
  9
$DIMBLK
  1

  9
$DIMASO
 70
     1
  9
$DIMSHO
 70
     1
  9
$DIMPOST
  1

  9
$DIMAPOST
  1

  9
$DIMALT
 70
     0
  9
$DIMALTD
 70
     2
  9
$DIMALTF
 40
25.4
  9
$DIMLFAC
 40
1.0
  9
$DIMTOFL
 70
     0
  9
$DIMTVP
 40
0.0
  9
$DIMTIX
 70
     0
  9
$DIMSOXD
 70
     0
  9
$DIMSAH
 70
     0
  9
$DIMBLK1
  1

  9
$DIMBLK2
  1

  9
$DIMSTYLE
  2
Standard
  9
$DIMCLRD
 70
     0
  9
$DIMCLRE
 70
     0
  9
$DIMCLRT
 70
     0
  9
$DIMTFAC
 40
1.0
  9
$DIMGAP
 40
0.09
  9
$DIMJUST
 70
     0
  9
$DIMSD1
 70
     0
  9
$DIMSD2
 70
     0
  9
$DIMTOLJ
 70
     1
  9
$DIMTZIN
 70
     0
  9
$DIMALTZ
 70
     0
  9
$DIMALTTZ
 70
     0
  9
$DIMUPT
 70
     0
  9
$DIMDEC
 70
     4
  9
$DIMTDEC
 70
     4
  9
$DIMALTU
 70
     2
  9
$DIMALTTD
 70
     2
  9
$DIMTXSTY
  7
Standard
  9
$DIMAUNIT
 70
     0
  9
$DIMADEC
 70
     0
  9
$DIMALTRND
 40
0.0
  9
$DIMAZIN
 70
     0
  9
$DIMDSEP
 70
    46
  9
$DIMATFIT
 70
     0
  9
$DIMFRAC
 70
     0
  9
$DIMLDRBLK
  1

  9
$DIMLUNIT
 70
     2
  9
$DIMLWD
 70
    -2
  9
$DIMLWE
 70
    -2
  9
$DIMTMOVE
 70
     0
  9
$LUNITS
 70
     2
  9
$LUPREC
 70
     4
  9
$SKETCHINC
 40
0.1
  9
$FILLETRAD
 40
0.0
  9
$AUNITS
 70
     0
  9
$AUPREC
 70
     0
  9
$MENU
  1
acad
  9
$ELEVATION
 40
0.0
  9
$PELEVATION
 40
0.0
  9
$THICKNESS
 40
0.0
  9
$LIMCHECK
 70
     0
  9
$CHAMFERA
 40
0.0
  9
$CHAMFERB
 40
0.0
  9
$CHAMFERC
 40
0.0
  9
$CHAMFERD
 40
0.0
  9
$SKPOLY
 70
     0
  9
$TDCREATE
 40
2454831.413958333
  9
$TDUCREATE
 40
2454831.580625000
  9
$TDUPDATE
 40
2455103.909893114
  9
$TDUUPDATE
 40
2455104.076559781
  9
$TDINDWG
 40
0.0022213079
  9
$TDUSRTIMER
 40
0.0022213079
  9
$USRTIMER
 70
     1
  9
$ANGBASE
 50
0.0
  9
$ANGDIR
 70
     0
  9
$PDMODE
 70
     0
  9
$PDSIZE
 40
0.0
  9
$PLINEWID
 40
0.0
  9
$SPLFRAME
 70
     0
  9
$SPLINETYPE
 70
     6
  9
$SPLINESEGS
 70
     8
  9
$HANDSEED
  5
216
  9
$SURFTAB1
 70
     6
  9
$SURFTAB2
 70
     6
  9
$SURFTYPE
 70
     6
  9
$SURFU
 70
     6
  9
$SURFV
 70
     6
  9
$UCSBASE
  2

  9
$UCSNAME
  2

  9
$UCSORG
 10
0.0
 20
0.0
 30
0.0
  9
$UCSXDIR
 10
1.0
 20
0.0
 30
0.0
  9
$UCSYDIR
 10
0.0
 20
1.0
 30
0.0
  9
$UCSORTHOREF
  2

  9
$UCSORTHOVIEW
 70
     0
  9
$UCSORGTOP
 10
0.0
 20
0.0
 30
0.0
  9
$UCSORGBOTTOM
 10
0.0
 20
0.0
 30
0.0
  9
$UCSORGLEFT
 10
0.0
 20
0.0
 30
0.0
  9
$UCSORGRIGHT
 10
0.0
 20
0.0
 30
0.0
  9
$UCSORGFRONT
 10
0.0
 20
0.0
 30
0.0
  9
$UCSORGBACK
 10
0.0
 20
0.0
 30
0.0
  9
$PUCSBASE
  2

  9
$PUCSNAME
  2

  9
$PUCSORG
 10
0.0
 20
0.0
 30
0.0
  9
$PUCSXDIR
 10
1.0
 20
0.0
 30
0.0
  9
$PUCSYDIR
 10
0.0
 20
1.0
 30
0.0
  9
$PUCSORTHOREF
  2

  9
$PUCSORTHOVIEW
 70
     0
  9
$PUCSORGTOP
 10
0.0
 20
0.0
 30
0.0
  9
$PUCSORGBOTTOM
 10
0.0
 20
0.0
 30
0.0
  9
$PUCSORGLEFT
 10
0.0
 20
0.0
 30
0.0
  9
$PUCSORGRIGHT
 10
0.0
 20
0.0
 30
0.0
  9
$PUCSORGFRONT
 10
0.0
 20
0.0
 30
0.0
  9
$PUCSORGBACK
 10
0.0
 20
0.0
 30
0.0
  9
$USERI1
 70
     0
  9
$USERI2
 70
     0
  9
$USERI3
 70
     0
  9
$USERI4
 70
     0
  9
$USERI5
 70
     0
  9
$USERR1
 40
0.0
  9
$USERR2
 40
0.0
  9
$USERR3
 40
0.0
  9
$USERR4
 40
0.0
  9
$USERR5
 40
0.0
  9
$WORLDVIEW
 70
     1
  9
$SHADEDGE
 70
     3
  9
$SHADEDIF
 70
    70
  9
$TILEMODE
 70
     0
  9
$MAXACTVP
 70
    16
  9
$PINSBASE
 10
0.0
 20
0.0
 30
0.0
  9
$PLIMCHECK
 70
     0
  9
$PEXTMIN
 10
-0.0380549155168168
 20
-0.025352453909214
 30
-0.0015258207003583
  9
$PEXTMAX
 10
10.34074429551085
 20
7.945342815747668
 30
0.0000000349246037
  9
$PLIMMIN
 10
-0.3306119115190196
 20
-0.2812499079328949
  9
$PLIMMAX
 10
10.66938784818509
 20
8.218749851771214
  9
$UNITMODE
 70
     0
  9
$VISRETAIN
 70
     0
  9
$PLINEGEN
 70
     1
  9
$PSLTSCALE
 70
     0
  9
$TREEDEPTH
 70
  3020
  9
$CMLSTYLE
  2
Standard
  9
$CMLJUST
 70
     0
  9
$CMLSCALE
 40
1.0
  9
$PROXYGRAPHICS
 70
     0
  9
$MEASUREMENT
 70
     0
  9
$CELWEIGHT
370
     0
  9
$ENDCAPS
280
     0
  9
$JOINSTYLE
280
     0
  9
$LWDISPLAY
290
     0
  9
$INSUNITS
 70
     0
  9
$HYPERLINKBASE
  1

  9
$STYLESHEET
  1

  9
$XEDIT
290
     1
  9
$CEPSNTYPE
380
     0
  9
$PSTYLEMODE
290
     1
  9
$FINGERPRINTGUID
  2

  9
$VERSIONGUID
  2
{C434BD86-811E-4B7D-9197-0C6BA93A7D5F}
  9
$EXTNAMES
290
     1
  9
$PSVPSCALE
 40
0.0
  9
$OLESTARTUP
290
     0
  9
$SORTENTS
280
   127
  9
$INDEXCTL
280
     0
  9
$HIDETEXT
280
     0
  9
$XCLIPFRAME
290
     0
  9
$HALOGAP
280
     0
  9
$OBSCOLOR
 70
   257
  9
$OBSLTYPE
280
     0
  9
$INTERSECTIONDISPLAY
280
     0
  9
$INTERSECTIONCOLOR
 70
   257
  9
$DIMASSOC
280
     1
  9
$PROJECTNAME
  1

  0
ENDSEC
  0
SECTION
  2
CLASSES
  0
CLASS
  1
IMAGE
  2
AcDbRasterImage
  3
ISM
 90
     2175
 91
        0
280
     0
281
     1
  0
CLASS
  1
DICTIONARYVAR
  2
AcDbDictionaryVar
  3
ObjectDBX Classes
 90
        0
 91
        5
280
     0
281
     0
  0
CLASS
  1
RASTERVARIABLES
  2
AcDbRasterVariables
  3
ISM
 90
        0
 91
        0
280
     0
281
     0
  0
CLASS
  1
IMAGEDEF
  2
AcDbRasterImageDef
  3
ISM
 90
        0
 91
        0
280
     0
281
     0
  0
CLASS
  1
IMAGEDEF_REACTOR
  2
AcDbRasterImageDefReactor
  3
ISM
 90
        1
 91
        0
280
     0
281
     0
  0
CLASS
  1
IDBUFFER
  2
AcDbIdBuffer
  3
ObjectDBX Classes
 90
        0
 91
        0
280
     0
281
     0
  0
CLASS
  1
SPATIAL_FILTER
  2
AcDbSpatialFilter
  3
ObjectDBX Classes
 90
        0
 91
        0
280
     0
281
     0
  0
CLASS
  1
SORTENTSTABLE
  2
AcDbSortentsTable
  3
ObjectDBX Classes
 90
        0
 91
        1
280
     0
281
     0
  0
CLASS
  1
LAYER_INDEX
  2
AcDbLayerIndex
  3
ObjectDBX Classes
 90
        0
 91
        0
280
     0
281
     0
  0
CLASS
  1
SPATIAL_INDEX
  2
AcDbSpatialIndex
  3
ObjectDBX Classes
 90
        0
 91
        0
280
     0
281
     0
  0
CLASS
  1
OBJECT_PTR
  2
CAseDLPNTableRecord
  3
ASE-LPNTableRecord
 90
        1
 91
        0
280
     0
281
     0
  0
CLASS
  1
PLOTSETTINGS
  2
AcDbPlotSettings
  3
ObjectDBX Classes
 90
        0
 91
        0
280
     0
281
     0
  0
CLASS
  1
ACDBDICTIONARYWDFLT
  2
AcDbDictionaryWithDefault
  3
ObjectDBX Classes
 90
        0
 91
        1
280
     0
281
     0
  0
CLASS
  1
WIPEOUT
  2
AcDbWipeout
  3
"WipeOut|Product Desc: Object Enabler for WipeOut entity                        |Company: Autodesk, Inc.                        |WEB Address: www.autodesk.com"
 90
     2175
 91
        0
280
     0
281
     1
  0
CLASS
  1
WIPEOUTVARIABLES
  2
AcDbWipeoutVariables
  3
"WipeOut|Product Desc:     WipeOut Dbx Application|Company:          Autodesk, Inc.|WEB Address:      www.autodesk.com"
 90
        0
 91
        1
280
     0
281
     0
  0
CLASS
  1
RTEXT
  2
RText
  3
RText|AutoCAD Express Tool|expresstools@autodesk.com
 90
        0
 91
        0
280
     0
281
     1
  0
CLASS
  1
ARCALIGNEDTEXT
  2
AcDbArcAlignedText
  3
ATEXT|AutoCAD Express Tool|expresstools@autodesk.com
 90
        0
 91
        0
280
     0
281
     1
  0
CLASS
  1
MATERIAL
  2
AcDbMaterial
  3
ObjectDBX Classes
 90
     1153
 91
        3
280
     0
281
     0
  0
CLASS
  1
VISUALSTYLE
  2
AcDbVisualStyle
  3
ObjectDBX Classes
 90
     4095
 91
       16
280
     0
281
     0
  0
CLASS
  1
TABLESTYLE
  2
AcDbTableStyle
  3
ObjectDBX Classes
 90
     4095
 91
        1
280
     0
281
     0
  0
CLASS
  1
SCALE
  2
AcDbScale
  3
ObjectDBX Classes
 90
     1153
 91
       15
280
     0
281
     0
  0
CLASS
  1
MLEADERSTYLE
  2
AcDbMLeaderStyle
  3
ACDB_MLEADERSTYLE_CLASS
 90
     4095
 91
        1
280
     0
281
     0
  0
CLASS
  1
AEC_REFEDIT_STATUS_TRACKER
  2
AecDbRefEditStatusTracker
  3
AecArchBase50|Product Desc: Autodesk Architectural Desktop 2007 |Company: Autodesk,Inc. |WEB Address: www.autodesk.com
 90
      129
 91
        1
280
     0
281
     0
  0
CLASS
  1
NPOCOLLECTION
  2
AcDbImpNonPersistentObjectsCollection
  3
ObjectDBX Classes
 90
     1153
 91
        1
280
     0
281
     0
  0
CLASS
  1
CELLSTYLEMAP
  2
AcDbCellStyleMap
  3
ObjectDBX Classes
 90
     1152
 91
        2
280
     0
281
     0
  0
ENDSEC
  0
SECTION
  2
TABLES
  0
TABLE
  2
VPORT
  5
7
330
0
100
AcDbSymbolTable
 70
     1
  0
VPORT
  5
15
330
7
100
AcDbSymbolTableRecord
100
AcDbViewportTableRecord
  2
*ACTIVE
 70
     0
 10
0.0
 20
0.0
 11
1.0
 21
1.0
 12
1.466521337771682
 22
2.486762270493745
 13
0.0
 23
0.0
 14
1.0
 24
1.0
 15
0.0
 25
0.0
 16
0.0
 26
0.0
 36
1.0
 17
0.0
 27
0.0
 37
0.0
 40
9.15836902063333
 41
2.149384885764499
 42
50.0
 43
0.0
 44
0.0
 50
0.0
 51
0.0
 71
     0
 72
   100
 73
     1
 74
     1
 75
     0
 76
     0
 77
     0
 78
     0
281
     0
 65
     0
110
0.0
120
0.0
130
0.0
111
1.0
121
0.0
131
0.0
112
0.0
122
1.0
132
0.0
 79
     0
146
0.0
  0
ENDTAB
  0
TABLE
  2
LTYPE
  5
4
330
0
100
AcDbSymbolTable
 70
     5
  0
LTYPE
  5
11
330
4
100
AcDbSymbolTableRecord
100
AcDbLinetypeTableRecord
  2
ByBlock
 70
     0
  3

 72
    65
 73
     0
 40
0.0
  0
LTYPE
  5
12
330
4
100
AcDbSymbolTableRecord
100
AcDbLinetypeTableRecord
  2
ByLayer
 70
     0
  3

 72
    65
 73
     0
 40
0.0
  0
LTYPE
  5
13
330
4
100
AcDbSymbolTableRecord
100
AcDbLinetypeTableRecord
  2
Continuous
 70
     0
  3
Solid line
 72
    65
 73
     0
 40
0.0
  0
LTYPE
  5
24
330
4
100
AcDbSymbolTableRecord
100
AcDbLinetypeTableRecord
  2
solid
 70
     0
  3

 72
    65
 73
     0
 40
0.0
  0
LTYPE
  5
25
330
4
100
AcDbSymbolTableRecord
100
AcDbLinetypeTableRecord
  2
dashed
 70
     0
  3

 72
    65
 73
     0
 40
0.0
  0
LTYPE
  5
26
330
4
100
AcDbSymbolTableRecord
100
AcDbLinetypeTableRecord
  2
center
 70
     0
  3

 72
    65
 73
     0
 40
0.0
  0
ENDTAB
  0
TABLE
  2
LAYER
  5
2
330
0
100
AcDbSymbolTable
 70
     2
  0
LAYER
  5
14
102
{ACAD_XDICTIONARY
360
1D0
102
}
330
2
100
AcDbSymbolTableRecord
100
AcDbLayerTableRecord
  2
0
 70
     0
 62
     7
  6
Continuous
370
    -3
390
1D
  0
LAYER
  5
27
102
{ACAD_XDICTIONARY
360
1D2
102
}
330
2
100
AcDbSymbolTableRecord
100
AcDbLayerTableRecord
  2
1
 70
     0
 62
     1
  6
solid
370
    -3
390
1D
  0
ENDTAB
  0
TABLE
  2
STYLE
  5
3
330
0
100
AcDbSymbolTable
 70
     2
  0
STYLE
  5
17
330
3
100
AcDbSymbolTableRecord
100
AcDbTextStyleTableRecord
  2
Standard
 70
     0
 40
0.0
 41
1.0
 50
0.0
 71
     0
 42
0.0
  3
txt
  4

  0
ENDTAB
  0
TABLE
  2
VIEW
  5
5
330
0
100
AcDbSymbolTable
 70
     0
  0
ENDTAB
  0
TABLE
  2
UCS
  5
6
330
0
100
AcDbSymbolTable
 70
     0
  0
ENDTAB
  0
TABLE
  2
APPID
  5
8
330
0
100
AcDbSymbolTable
 70
     5
  0
APPID
  5
16
330
8
100
AcDbSymbolTableRecord
100
AcDbRegAppTableRecord
  2
ACAD
 70
     0
  0
APPID
  5
1B1
330
8
100
AcDbSymbolTableRecord
100
AcDbRegAppTableRecord
  2
ACAD_PSEXT
 70
     0
  0
APPID
  5
1C7
330
8
100
AcDbSymbolTableRecord
100
AcDbRegAppTableRecord
  2
ACAD_MLEADERVER
 70
     0
  0
APPID
  5
1CF
330
8
100
AcDbSymbolTableRecord
100
AcDbRegAppTableRecord
  2
ACAD_EXEMPT_FROM_CAD_STANDARDS
 70
     0
  0
APPID
  5
1F6
330
8
100
AcDbSymbolTableRecord
100
AcDbRegAppTableRecord
  2
DCO15
 70
     0
  0
ENDTAB
  0
TABLE
  2
DIMSTYLE
  5
9
330
0
100
AcDbSymbolTable
 70
     3
100
AcDbDimStyleTable
 71
     1
340
18
  0
DIMSTYLE
105
18
330
9
100
AcDbSymbolTableRecord
100
AcDbDimStyleTableRecord
  2
Standard
 70
     0
289
     0
340
17
  0
ENDTAB
  0
TABLE
  2
BLOCK_RECORD
  5
1
330
0
100
AcDbSymbolTable
 70
     4
  0
BLOCK_RECORD
  5
A
102
{ACAD_XDICTIONARY
360
1E5
102
}
330
1
100
AcDbSymbolTableRecord
100
AcDbBlockTableRecord
  2
*MODEL_SPACE
340
20
  0
BLOCK_RECORD
  5
B
330
1
100
AcDbSymbolTableRecord
100
AcDbBlockTableRecord
  2
*PAPER_SPACE
340
21
  0
BLOCK_RECORD
  5
177
330
1
100
AcDbSymbolTableRecord
100
AcDbBlockTableRecord
  2
*D0
340
0
  0
BLOCK_RECORD
  5
182
330
1
100
AcDbSymbolTableRecord
100
AcDbBlockTableRecord
  2
*D1
340
0
  0
ENDTAB
  0
ENDSEC
  0
SECTION
  2
BLOCKS
  0
BLOCK
  5
D
330
A
100
AcDbEntity
  8
0
100
AcDbBlockBegin
  2
*MODEL_SPACE
 70
     0
 10
0.0
 20
0.0
 30
0.0
  3
*MODEL_SPACE
  1

  0
ENDBLK
  5
E
330
A
100
AcDbEntity
  8
0
100
AcDbBlockEnd
  0
BLOCK
  5
F
330
B
100
AcDbEntity
 67
     1
  8
0
100
AcDbBlockBegin
  2
*PAPER_SPACE
 70
     0
 10
0.0
 20
0.0
 30
0.0
  3
*PAPER_SPACE
  1

  0
ENDBLK
  5
10
330
B
100
AcDbEntity
 67
     1
  8
0
100
AcDbBlockEnd
  0
BLOCK
  5
178
330
177
100
AcDbEntity
  8
1
  6
solid
 62
     7
100
AcDbBlockBegin
  2
*D0
 70
     0
 10
0.0
 20
0.0
 30
0.0
  3
*D0
  1

  0
LINE
  5
179
330
177
100
AcDbEntity
  8
1
  6
solid
 62
     7
100
AcDbLine
 10
-0.881696739533894
 20
1.810390837350939
 30
0.0
 11
-0.8816967395338942
 21
3.776477873720342
 31
0.0
  0
LINE
  5
17A
330
177
100
AcDbEntity
  8
1
  6
solid
 62
     7
100
AcDbLine
 10
1.412668964525706
 20
3.748273022333239
 30
0.0
 11
1.412668964525706
 21
3.748273022333239
 31
0.0
  0
LINE
  5
17B
330
177
100
AcDbEntity
  8
1
  6
solid
 62
     7
100
AcDbLine
 10
-0.8816967395338942
 20
3.713977873720342
 30
0.0
 11
0.0269419948488474
 21
3.713977873720342
 31
0.0
  0
LINE
  5
17C
330
177
100
AcDbEntity
  8
1
  6
solid
 62
     7
100
AcDbLine
 10
1.412668964525706
 20
3.713977873720342
 30
0.0
 11
0.5040302301429649
 21
3.713977873720342
 31
0.0
  0
MTEXT
  5
17D
330
177
100
AcDbEntity
  8
1
  6
solid
 62
     7
100
AcDbMText
 10
0.2654861124959063
 20
3.713977873720342
 30
0.0
 40
0.125
 41
0.0
 71
     5
 72
     1
  1
{\H0.125000;2 1/4}
 73
     1
 44
1.0
  0
SOLID
  5
17E
330
177
100
AcDbEntity
  8
1
  6
solid
 62
     7
100
AcDbTrace
 10
-0.7566967395338942
 20
3.734790373720342
 30
0.0
 11
-0.7566967395338942
 21
3.693165373720341
 31
0.0
 12
-0.8816967395338942
 22
3.713977873720342
 32
0.0
 13
-0.8816967395338942
 23
3.713977873720342
 33
0.0
  0
SOLID
  5
17F
330
177
100
AcDbEntity
  8
1
  6
solid
 62
     7
100
AcDbTrace
 10
1.287668964525706
 20
3.693165373720342
 30
0.0
 11
1.287668964525706
 21
3.734790373720342
 31
0.0
 12
1.412668964525706
 22
3.713977873720342
 32
0.0
 13
1.412668964525706
 23
3.713977873720342
 33
0.0
  0
ENDBLK
  5
180
330
177
100
AcDbEntity
  8
1
  6
solid
 62
     7
100
AcDbBlockEnd
  0
BLOCK
  5
183
330
182
100
AcDbEntity
  8
1
  6
solid
 62
     7
100
AcDbBlockBegin
  2
*D1
 70
     0
 10
0.0
 20
0.0
 30
0.0
  3
*D1
  1

  0
LINE
  5
184
330
182
100
AcDbEntity
  8
1
  6
solid
 62
     7
100
AcDbLine
 10
-1.006696739533893
 20
0.8454003407155024
 30
0.0
 11
-1.006696739533893
 21
0.8454003407155024
 31
0.0
  0
LINE
  5
185
330
182
100
AcDbEntity
  8
1
  6
solid
 62
     7
100
AcDbLine
 10
0.6425726624932362
 20
3.623273022333239
 30
0.0
 11
-1.063465769750881
 21
3.62327302233324
 31
0.0
  0
LINE
  5
186
330
182
100
AcDbEntity
  8
1
  6
solid
 62
     7
100
AcDbLine
 10
-1.000965769750883
 20
0.8454003407155024
 30
0.0
 11
-1.000965769750882
 21
2.074464085370524
 31
0.0
  0
LINE
  5
187
330
182
100
AcDbEntity
  8
1
  6
solid
 62
     7
100
AcDbLine
 10
-1.000965769750881
 20
3.62327302233324
 30
0.0
 11
-1.000965769750882
 21
2.394209277678217
 31
0.0
  0
MTEXT
  5
188
330
182
100
AcDbEntity
  8
1
  6
solid
 62
     7
100
AcDbMText
 10
-1.000965769750882
 20
2.234336681524371
 30
0.0
 40
0.125
 41
0.0
 71
     5
 72
     1
  1
{\H0.125000;2 3/4}
 73
     1
 44
1.0
  0
SOLID
  5
189
330
182
100
AcDbEntity
  8
1
  6
solid
 62
     7
100
AcDbTrace
 10
-1.021778269750883
 20
0.9704003407155024
 30
0.0
 11
-0.9801532697508832
 21
0.9704003407155024
 31
0.0
 12
-1.000965769750883
 22
0.8454003407155024
 32
0.0
 13
-1.000965769750883
 23
0.8454003407155024
 33
0.0
  0
SOLID
  5
18A
330
182
100
AcDbEntity
  8
1
  6
solid
 62
     7
100
AcDbTrace
 10
-0.9801532697508818
 20
3.49827302233324
 30
0.0
 11
-1.021778269750881
 21
3.49827302233324
 31
0.0
 12
-1.000965769750881
 22
3.62327302233324
 32
0.0
 13
-1.000965769750881
 23
3.62327302233324
 33
0.0
  0
ENDBLK
  5
18B
330
182
100
AcDbEntity
  8
1
  6
solid
 62
     7
100
AcDbBlockEnd
  0
ENDSEC
  0
SECTION
  2
ENTITIES
  0
LINE
  5
28
330
A
100
AcDbEntity
  8
1
  6
solid
 62
     7
100
AcDbLine
 10
1.237577967247368
 20
0.8399561919066718
 30
0.0
 11
1.505986732641074
 21
0.8399561919066718
 31
0.0
  0
LINE
  5
29
330
A
100
AcDbEntity
  8
1
  6
solid
 62
     7
100
AcDbLine
 10
1.505986732638937
 20
0.8399561919066718
 30
0.0
 11
1.505986732638937
 21
1.049482184291262
 31
0.0
  0
LINE
  5
2A
330
A
100
AcDbEntity
  8
1
  6
solid
 62
     7
100
AcDbLine
 10
1.237577971038938
 20
0.8399559922639959
 30
0.0
 11
1.237577971038938
 21
1.679946660542658
 31
0.0
  0
LINE
  5
2B
330
A
100
AcDbEntity
  8
1
  6
solid
 62
     7
100
AcDbLine
 10
1.237577971008197
 20
1.679946608108721
 30
0.0
 11
2.886847369930665
 21
3.617828941033326
 31
0.0
  0
LINE
  5
2C
330
A
100
AcDbEntity
  8
1
  6
solid
 62
     7
100
AcDbLine
 10
2.886847369930665
 20
3.617828941006671
 30
0.0
 11
3.53194369713464
 21
3.617828941006671
 31
0.0
  0
LINE
  5
2D
330
A
100
AcDbEntity
  8
1
  6
solid
 62
     7
100
AcDbLine
 10
3.531943645238937
 20
3.6178290315096
 30
0.0
 11
3.531943645238937
 21
3.248579897049287
 31
0.0
  0
LINE
  5
2E
330
A
100
AcDbEntity
  8
1
  6
solid
 62
     7
100
AcDbLine
 10
3.531943645265474
 20
3.248579687606671
 30
0.0
 11
3.314345991838555
 21
3.248579687606671
 31
0.0
  0
ARC
  5
2F
330
A
100
AcDbEntity
  8
1
  6
solid
 62
     7
100
AcDbCircle
 10
2.864806113009796
 20
3.152177639358168
 30
0.0
 40
0.4597601494383942
100
AcDbArc
 50
266.2395034413052
 51
12.10354148194251
  0
LINE
  5
30
330
A
100
AcDbEntity
  8
1
  6
solid
 62
     7
100
AcDbLine
 10
2.834652313538937
 20
2.693407388154149
 30
0.0
 11
2.834652313538937
 21
2.427963846126351
 31
0.0
  0
ARC
  5
31
330
A
100
AcDbEntity
  8
1
  6
solid
 62
     7
100
AcDbCircle
 10
2.930100776327288
 20
1.153241919915293
 30
0.0
 40
1.27829049618265
100
AcDbArc
 50
94.28219653200695
 51
153.9477054108285
  0
LINE
  5
32
330
A
100
AcDbEntity
  8
1
  6
solid
 62
     7
100
AcDbLine
 10
1.781692828920261
 20
1.714656061691485
 30
0.0
 11
1.88964716619238
 21
1.624023895935951
 31
0.0
  0
LINE
  5
33
330
A
100
AcDbEntity
  8
1
  6
solid
 62
     7
100
AcDbLine
 10
1.889647152212039
 20
1.624024099868975
 30
0.0
 11
1.808843260837247
 21
1.53908797269334
 31
0.0
  0
ARC
  5
34
330
A
100
AcDbEntity
  8
1
  6
solid
 62
     7
100
AcDbCircle
 10
1.500853300595223
 20
1.391129708535435
 30
0.0
 40
0.3416862180720565
100
AcDbArc
 50
270.86083113111
 51
25.65960888894315
  0
LINE
  5
35
330
A
100
AcDbEntity
  8
1
  6
solid
 62
     7
100
AcDbLine
 10
2.93871996440827
 20
3.374240518467748
 30
0.0
 11
2.93871996440827
 21
3.499240518467748
 31
0.0
  0
LINE
  5
36
330
A
100
AcDbEntity
  8
1
  6
solid
 62
     7
100
AcDbLine
 10
2.93871996440827
 20
3.499240518467748
 30
0.0
 11
2.963429266733851
 21
3.499240518467748
 31
0.0
  0
LINE
  5
37
330
A
100
AcDbEntity
  8
1
  6
solid
 62
     7
100
AcDbLine
 10
2.963429266733851
 20
3.499240518467748
 30
0.0
 11
2.963429266733851
 21
3.396042844049143
 31
0.0
  0
LINE
  5
38
330
A
100
AcDbEntity
  8
1
  6
solid
 62
     7
100
AcDbLine
 10
2.963429266733851
 20
3.396042844049143
 30
0.0
 11
3.025929266733851
 21
3.396042844049143
 31
0.0
  0
LINE
  5
39
330
A
100
AcDbEntity
  8
1
  6
solid
 62
     7
100
AcDbLine
 10
3.025929266733851
 20
3.396042844049143
 30
0.0
 11
3.025929266733851
 21
3.374240518467748
 31
0.0
  0
LINE
  5
3A
330
A
100
AcDbEntity
  8
1
  6
solid
 62
     7
100
AcDbLine
 10
2.93871996440827
 20
3.374240518467748
 30
0.0
 11
3.025929266733851
 21
3.374240518467748
 31
0.0
  0
LINE
  5
3B
330
A
100
AcDbEntity
  8
1
  6
solid
 62
     7
100
AcDbLine
 10
3.142935313245479
 20
3.374240518467748
 30
0.0
 11
3.118226010919897
 21
3.374240518467748
 31
0.0
  0
LINE
  5
3C
330
A
100
AcDbEntity
  8
1
  6
solid
 62
     7
100
AcDbLine
 10
3.118226010919897
 20
3.374240518467748
 30
0.0
 11
3.118226010919897
 21
3.463096797537516
 31
0.0
  0
SPLINE
  5
3D
330
A
100
AcDbEntity
  8
1
  6
solid
 62
     7
100
AcDbSpline
210
0.0
220
0.0
230
1.0
 70
     8
 71
     2
 72
     6
 73
     3
 74
     0
 42
0.0000000001
 43
0.0000000001
 40
0.0
 40
0.0
 40
0.0
 40
1.0
 40
1.0
 40
1.0
 10
3.118226010919897
 20
3.463096797537516
 30
0.0
 10
3.105233917896642
 20
3.448934006839841
 30
0.0
 10
3.087702755105945
 20
3.44255447195612
 30
0.0
  0
LINE
  5
3E
330
A
100
AcDbEntity
  8
1
  6
solid
 62
     7
100
AcDbLine
 10
3.087702755105945
 20
3.44255447195612
 30
0.0
 11
3.087702755105945
 21
3.467263774281701
 31
0.0
  0
SPLINE
  5
3F
330
A
100
AcDbEntity
  8
1
  6
solid
 62
     7
100
AcDbSpline
210
0.0
220
0.0
230
1.0
 70
     8
 71
     2
 72
     7
 73
     4
 74
     0
 42
0.0000000001
 43
0.0000000001
 40
0.0
 40
0.0
 40
0.0
 40
1.0
 40
2.0
 40
2.0
 40
2.0
 10
3.087702755105945
 20
3.467263774281701
 30
0.0
 10
3.096885080687339
 20
3.470304704514259
 30
0.0
 10
3.118910662082689
 20
3.487657262653794
 30
0.0
 10
3.123107406268735
 20
3.499240518467748
 30
0.0
  0
LINE
  5
40
330
A
100
AcDbEntity
  8
1
  6
solid
 62
     7
100
AcDbLine
 10
3.123107406268735
 20
3.499240518467748
 30
0.0
 11
3.142935313245479
 21
3.499240518467748
 31
0.0
  0
LINE
  5
41
330
A
100
AcDbEntity
  8
1
  6
solid
 62
     7
100
AcDbLine
 10
3.142935313245479
 20
3.374240518467748
 30
0.0
 11
3.142935313245479
 21
3.499240518467748
 31
0.0
  0
LINE
  5
42
330
A
100
AcDbEntity
  8
1
  6
solid
 62
     7
100
AcDbLine
 10
3.173095313245479
 20
3.410741448700306
 30
0.0
 11
3.194897638826875
 21
3.413484704514259
 31
0.0
  0
SPLINE
  5
43
330
A
100
AcDbEntity
  8
1
  6
solid
 62
     7
100
AcDbSpline
210
0.0
220
0.0
230
1.0
 70
     8
 71
     2
 72
     7
 73
     4
 74
     0
 42
0.0000000001
 43
0.0000000001
 40
0.0
 40
0.0
 40
0.0
 40
1.0
 40
2.0
 40
2.0
 40
2.0
 10
3.194897638826875
 20
3.413484704514259
 30
0.0
 10
3.195612057431525
 20
3.404763774281701
 30
0.0
 10
3.20662973185013
 20
3.394589355677049
 30
0.0
 10
3.213202755105943
 20
3.394589355677049
 30
0.0
  0
SPLINE
  5
44
330
A
100
AcDbEntity
  8
1
  6
solid
 62
     7
100
AcDbSpline
210
0.0
220
0.0
230
1.0
 70
     8
 71
     2
 72
     7
 73
     4
 74
     0
 42
0.0000000001
 43
0.0000000001
 40
0.0
 40
0.0
 40
0.0
 40
1.0
 40
2.0
 40
2.0
 40
2.0
 10
3.213202755105943
 20
3.394589355677049
 30
0.0
 10
3.221432522547805
 20
3.394589355677049
 30
0.0
 10
3.232688336501292
 20
3.404203309165421
 30
0.0
 10
3.232688336501292
 20
3.414347960328213
 30
0.0
  0
SPLINE
  5
45
330
A
100
AcDbEntity
  8
1
  6
solid
 62
     7
100
AcDbSpline
210
0.0
220
0.0
230
1.0
 70
     8
 71
     2
 72
     7
 73
     4
 74
     0
 42
0.0000000001
 43
0.0000000001
 40
0.0
 40
0.0
 40
0.0
 40
1.0
 40
2.0
 40
2.0
 40
2.0
 10
3.232688336501292
 20
3.414347960328213
 30
0.0
 10
3.232688336501292
 20
3.424090751025888
 30
0.0
 10
3.222737173710595
 20
3.433833541723561
 30
0.0
 10
3.214566941152456
 20
3.433833541723561
 30
0.0
  0
SPLINE
  5
46
330
A
100
AcDbEntity
  8
1
  6
solid
 62
     7
100
AcDbSpline
210
0.0
220
0.0
230
1.0
 70
     8
 71
     2
 72
     6
 73
     3
 74
     0
 42
0.0000000001
 43
0.0000000001
 40
0.0
 40
0.0
 40
0.0
 40
1.0
 40
1.0
 40
1.0
 10
3.214566941152456
 20
3.433833541723561
 30
0.0
 10
3.205116708594315
 20
3.433833541723561
 30
0.0
 10
3.197006010919897
 20
3.425112611491003
 30
0.0
  0
LINE
  5
47
330
A
100
AcDbEntity
  8
1
  6
solid
 62
     7
100
AcDbLine
 10
3.197006010919897
 20
3.425112611491003
 30
0.0
 11
3.176002289989665
 21
3.427369820793328
 31
0.0
  0
LINE
  5
48
330
A
100
AcDbEntity
  8
1
  6
solid
 62
     7
100
AcDbLine
 10
3.176002289989665
 20
3.427369820793328
 30
0.0
 11
3.190537173710596
 21
3.497787030095654
 31
0.0
  0
LINE
  5
49
330
A
100
AcDbEntity
  8
1
  6
solid
 62
     7
100
AcDbLine
 10
3.190537173710596
 20
3.497787030095654
 30
0.0
 11
3.251583685338503
 21
3.497787030095654
 31
0.0
  0
LINE
  5
4A
330
A
100
AcDbEntity
  8
1
  6
solid
 62
     7
100
AcDbLine
 10
3.251583685338503
 20
3.497787030095654
 30
0.0
 11
3.251583685338503
 21
3.473077727770073
 31
0.0
  0
LINE
  5
4B
330
A
100
AcDbEntity
  8
1
  6
solid
 62
     7
100
AcDbLine
 10
3.251583685338503
 20
3.473077727770073
 30
0.0
 11
3.210012987664084
 21
3.473077727770073
 31
0.0
  0
LINE
  5
4C
330
A
100
AcDbEntity
  8
1
  6
solid
 62
     7
100
AcDbLine
 10
3.210012987664084
 20
3.473077727770073
 30
0.0
 11
3.205235778361758
 21
3.450327960328213
 31
0.0
  0
SPLINE
  5
4D
330
A
100
AcDbEntity
  8
1
  6
solid
 62
     7
100
AcDbSpline
210
0.0
220
0.0
230
1.0
 70
     8
 71
     2
 72
     6
 73
     3
 74
     0
 42
0.0000000001
 43
0.0000000001
 40
0.0
 40
0.0
 40
0.0
 40
1.0
 40
1.0
 40
1.0
 10
3.205235778361758
 20
3.450327960328213
 30
0.0
 10
3.212756243478037
 20
3.455635867304958
 30
0.0
 10
3.220499964408269
 20
3.455635867304958
 30
0.0
  0
SPLINE
  5
4E
330
A
100
AcDbEntity
  8
1
  6
solid
 62
     7
100
AcDbSpline
210
0.0
220
0.0
230
1.0
 70
     8
 71
     2
 72
     7
 73
     4
 74
     0
 42
0.0000000001
 43
0.0000000001
 40
0.0
 40
0.0
 40
0.0
 40
1.0
 40
2.0
 40
2.0
 40
2.0
 10
3.220499964408269
 20
3.455635867304958
 30
0.0
 10
3.235997173710595
 20
3.455635867304958
 30
0.0
 10
3.257397638826875
 20
3.432945634746818
 30
0.0
 10
3.257397638826875
 20
3.415220983584026
 30
0.0
  0
SPLINE
  5
4F
330
A
100
AcDbEntity
  8
1
  6
solid
 62
     7
100
AcDbSpline
210
0.0
220
0.0
230
1.0
 70
     8
 71
     2
 72
     6
 73
     3
 74
     0
 42
0.0000000001
 43
0.0000000001
 40
0.0
 40
0.0
 40
0.0
 40
1.0
 40
1.0
 40
1.0
 10
3.257397638826875
 20
3.415220983584026
 30
0.0
 10
3.257397638826875
 20
3.400433076607283
 30
0.0
 10
3.248012057431526
 20
3.38825958823519
 30
0.0
  0
SPLINE
  5
50
330
A
100
AcDbEntity
  8
1
  6
solid
 62
     7
100
AcDbSpline
210
0.0
220
0.0
230
1.0
 70
     8
 71
     2
 72
     6
 73
     3
 74
     0
 42
0.0000000001
 43
0.0000000001
 40
0.0
 40
0.0
 40
0.0
 40
1.0
 40
1.0
 40
1.0
 10
3.248012057431526
 20
3.38825958823519
 30
0.0
 10
3.235982289989665
 20
3.372787030095654
 30
0.0
 10
3.21423949929199
 20
3.372787030095654
 30
0.0
  0
SPLINE
  5
51
330
A
100
AcDbEntity
  8
1
  6
solid
 62
     7
100
AcDbSpline
210
0.0
220
0.0
230
1.0
 70
     8
 71
     2
 72
     7
 73
     4
 74
     0
 42
0.0000000001
 43
0.0000000001
 40
0.0
 40
0.0
 40
0.0
 40
1.0
 40
2.0
 40
2.0
 40
2.0
 10
3.21423949929199
 20
3.372787030095654
 30
0.0
 10
3.196857173710595
 20
3.372787030095654
 30
0.0
 10
3.174995313245479
 20
3.39331447195612
 30
0.0
 10
3.173095313245479
 20
3.410741448700306
 30
0.0
  0
LINE
  5
52
330
A
100
AcDbEntity
  8
1
  6
solid
 62
     7
100
AcDbLine
 10
3.342790196966409
 20
3.374240518467748
 30
0.0
 11
3.318080894640827
 21
3.374240518467748
 31
0.0
  0
LINE
  5
53
330
A
100
AcDbEntity
  8
1
  6
solid
 62
     7
100
AcDbLine
 10
3.318080894640827
 20
3.374240518467748
 30
0.0
 11
3.318080894640827
 21
3.463096797537516
 31
0.0
  0
SPLINE
  5
54
330
A
100
AcDbEntity
  8
1
  6
solid
 62
     7
100
AcDbSpline
210
0.0
220
0.0
230
1.0
 70
     8
 71
     2
 72
     6
 73
     3
 74
     0
 42
0.0000000001
 43
0.0000000001
 40
0.0
 40
0.0
 40
0.0
 40
1.0
 40
1.0
 40
1.0
 10
3.318080894640827
 20
3.463096797537516
 30
0.0
 10
3.305088801617572
 20
3.448934006839841
 30
0.0
 10
3.287557638826875
 20
3.44255447195612
 30
0.0
  0
LINE
  5
55
330
A
100
AcDbEntity
  8
1
  6
solid
 62
     7
100
AcDbLine
 10
3.287557638826875
 20
3.44255447195612
 30
0.0
 11
3.287557638826875
 21
3.467263774281701
 31
0.0
  0
SPLINE
  5
56
330
A
100
AcDbEntity
  8
1
  6
solid
 62
     7
100
AcDbSpline
210
0.0
220
0.0
230
1.0
 70
     8
 71
     2
 72
     7
 73
     4
 74
     0
 42
0.0000000001
 43
0.0000000001
 40
0.0
 40
0.0
 40
0.0
 40
1.0
 40
2.0
 40
2.0
 40
2.0
 10
3.287557638826875
 20
3.467263774281701
 30
0.0
 10
3.29673996440827
 20
3.470304704514259
 30
0.0
 10
3.318765545803619
 20
3.487657262653794
 30
0.0
 10
3.322962289989664
 20
3.499240518467748
 30
0.0
  0
LINE
  5
57
330
A
100
AcDbEntity
  8
1
  6
solid
 62
     7
100
AcDbLine
 10
3.322962289989665
 20
3.499240518467748
 30
0.0
 11
3.342790196966409
 21
3.499240518467748
 31
0.0
  0
LINE
  5
58
330
A
100
AcDbEntity
  8
1
  6
solid
 62
     7
100
AcDbLine
 10
3.342790196966409
 20
3.374240518467748
 30
0.0
 11
3.342790196966409
 21
3.499240518467748
 31
0.0
  0
LINE
  5
59
330
A
100
AcDbEntity
  8
1
  6
solid
 62
     7
100
AcDbLine
 10
2.49355863839022
 20
2.925084446508332
 30
0.0
 11
2.475026661646035
 21
2.925084446508332
 31
0.0
  0
LINE
  5
5A
330
A
100
AcDbEntity
  8
1
  6
solid
 62
     7
100
AcDbLine
 10
2.475026661646035
 20
2.925084446508332
 30
0.0
 11
2.475026661646035
 21
2.991726655810658
 31
0.0
  0
SPLINE
  5
5B
330
A
100
AcDbEntity
  8
1
  6
solid
 62
     7
100
AcDbSpline
210
0.0
220
0.0
230
1.0
 70
     8
 71
     2
 72
     6
 73
     3
 74
     0
 42
0.0000000001
 43
0.0000000001
 40
0.0
 40
0.0
 40
0.0
 40
1.0
 40
1.0
 40
1.0
 10
2.475026661646035
 20
2.991726655810658
 30
0.0
 10
2.465282591878593
 20
2.981104562787401
 30
0.0
 10
2.452134219785569
 20
2.976319911624611
 30
0.0
  0
LINE
  5
5C
330
A
100
AcDbEntity
  8
1
  6
solid
 62
     7
100
AcDbLine
 10
2.452134219785569
 20
2.976319911624611
 30
0.0
 11
2.452134219785569
 21
2.994851888368796
 31
0.0
  0
SPLINE
  5
5D
330
A
100
AcDbEntity
  8
1
  6
solid
 62
     7
100
AcDbSpline
210
0.0
220
0.0
230
1.0
 70
     8
 71
     2
 72
     7
 73
     4
 74
     0
 42
0.0000000001
 43
0.0000000001
 40
0.0
 40
0.0
 40
0.0
 40
1.0
 40
2.0
 40
2.0
 40
2.0
 10
2.452134219785569
 20
2.994851888368796
 30
0.0
 10
2.459020963971616
 20
2.997132586043216
 30
0.0
 10
2.475540150018127
 20
3.010147004647866
 30
0.0
 10
2.478687708157662
 20
3.018834446508332
 30
0.0
  0
LINE
  5
5E
330
A
100
AcDbEntity
  8
1
  6
solid
 62
     7
100
AcDbLine
 10
2.478687708157662
 20
3.018834446508332
 30
0.0
 11
2.49355863839022
 21
3.018834446508332
 31
0.0
  0
LINE
  5
5F
330
A
100
AcDbEntity
  8
1
  6
solid
 62
     7
100
AcDbLine
 10
2.49355863839022
 20
2.925084446508332
 30
0.0
 11
2.49355863839022
 21
3.018834446508332
 31
0.0
  0
LINE
  5
60
330
A
100
AcDbEntity
  8
1
  6
solid
 62
     7
100
AcDbLine
 10
2.551513056994871
 20
2.925084446508332
 30
0.0
 11
2.532981080250686
 21
2.925084446508332
 31
0.0
  0
LINE
  5
61
330
A
100
AcDbEntity
  8
1
  6
solid
 62
     7
100
AcDbLine
 10
2.532981080250686
 20
2.925084446508332
 30
0.0
 11
2.532981080250686
 21
2.991726655810658
 31
0.0
  0
SPLINE
  5
62
330
A
100
AcDbEntity
  8
1
  6
solid
 62
     7
100
AcDbSpline
210
0.0
220
0.0
230
1.0
 70
     8
 71
     2
 72
     6
 73
     3
 74
     0
 42
0.0000000001
 43
0.0000000001
 40
0.0
 40
0.0
 40
0.0
 40
1.0
 40
1.0
 40
1.0
 10
2.532981080250686
 20
2.991726655810658
 30
0.0
 10
2.523237010483244
 20
2.981104562787401
 30
0.0
 10
2.51008863839022
 20
2.976319911624611
 30
0.0
  0
LINE
  5
63
330
A
100
AcDbEntity
  8
1
  6
solid
 62
     7
100
AcDbLine
 10
2.51008863839022
 20
2.976319911624611
 30
0.0
 11
2.51008863839022
 21
2.994851888368796
 31
0.0
  0
SPLINE
  5
64
330
A
100
AcDbEntity
  8
1
  6
solid
 62
     7
100
AcDbSpline
210
0.0
220
0.0
230
1.0
 70
     8
 71
     2
 72
     7
 73
     4
 74
     0
 42
0.0000000001
 43
0.0000000001
 40
0.0
 40
0.0
 40
0.0
 40
1.0
 40
2.0
 40
2.0
 40
2.0
 10
2.51008863839022
 20
2.994851888368796
 30
0.0
 10
2.516975382576267
 20
2.997132586043216
 30
0.0
 10
2.533494568622778
 20
3.010147004647866
 30
0.0
 10
2.536642126762313
 20
3.018834446508332
 30
0.0
  0
LINE
  5
65
330
A
100
AcDbEntity
  8
1
  6
solid
 62
     7
100
AcDbLine
 10
2.536642126762313
 20
3.018834446508332
 30
0.0
 11
2.551513056994871
 21
3.018834446508332
 31
0.0
  0
LINE
  5
66
330
A
100
AcDbEntity
  8
1
  6
solid
 62
     7
100
AcDbLine
 10
2.551513056994871
 20
2.925084446508332
 30
0.0
 11
2.551513056994871
 21
3.018834446508332
 31
0.0
  0
LINE
  5
67
330
A
100
AcDbEntity
  8
1
  6
solid
 62
     7
100
AcDbLine
 10
2.567421777925104
 20
2.925084446508332
 30
0.0
 11
2.589235266297197
 21
3.018834446508332
 31
0.0
  0
LINE
  5
68
330
A
100
AcDbEntity
  8
1
  6
solid
 62
     7
100
AcDbLine
 10
2.589235266297197
 20
3.018834446508332
 30
0.0
 11
2.604016894204174
 21
3.018834446508332
 31
0.0
  0
LINE
  5
69
330
A
100
AcDbEntity
  8
1
  6
solid
 62
     7
100
AcDbLine
 10
2.604016894204174
 20
3.018834446508332
 30
0.0
 11
2.582214568622778
 21
2.925084446508332
 31
0.0
  0
LINE
  5
6A
330
A
100
AcDbEntity
  8
1
  6
solid
 62
     7
100
AcDbLine
 10
2.567421777925104
 20
2.925084446508332
 30
0.0
 11
2.582214568622778
 21
2.925084446508332
 31
0.0
  0
LINE
  5
6B
330
A
100
AcDbEntity
  8
1
  6
solid
 62
     7
100
AcDbLine
 10
2.661971312808825
 20
2.925084446508332
 30
0.0
 11
2.643439336064639
 21
2.925084446508332
 31
0.0
  0
LINE
  5
6C
330
A
100
AcDbEntity
  8
1
  6
solid
 62
     7
100
AcDbLine
 10
2.643439336064639
 20
2.925084446508332
 30
0.0
 11
2.643439336064639
 21
2.991726655810658
 31
0.0
  0
SPLINE
  5
6D
330
A
100
AcDbEntity
  8
1
  6
solid
 62
     7
100
AcDbSpline
210
0.0
220
0.0
230
1.0
 70
     8
 71
     2
 72
     6
 73
     3
 74
     0
 42
0.0000000001
 43
0.0000000001
 40
0.0
 40
0.0
 40
0.0
 40
1.0
 40
1.0
 40
1.0
 10
2.643439336064639
 20
2.991726655810658
 30
0.0
 10
2.633695266297197
 20
2.981104562787401
 30
0.0
 10
2.620546894204173
 20
2.976319911624611
 30
0.0
  0
LINE
  5
6E
330
A
100
AcDbEntity
  8
1
  6
solid
 62
     7
100
AcDbLine
 10
2.620546894204174
 20
2.976319911624611
 30
0.0
 11
2.620546894204174
 21
2.994851888368796
 31
0.0
  0
SPLINE
  5
6F
330
A
100
AcDbEntity
  8
1
  6
solid
 62
     7
100
AcDbSpline
210
0.0
220
0.0
230
1.0
 70
     8
 71
     2
 72
     7
 73
     4
 74
     0
 42
0.0000000001
 43
0.0000000001
 40
0.0
 40
0.0
 40
0.0
 40
1.0
 40
2.0
 40
2.0
 40
2.0
 10
2.620546894204173
 20
2.994851888368796
 30
0.0
 10
2.62743363839022
 20
2.997132586043216
 30
0.0
 10
2.643952824436731
 20
3.010147004647866
 30
0.0
 10
2.647100382576266
 20
3.018834446508332
 30
0.0
  0
LINE
  5
70
330
A
100
AcDbEntity
  8
1
  6
solid
 62
     7
100
AcDbLine
 10
2.647100382576267
 20
3.018834446508332
 30
0.0
 11
2.661971312808825
 21
3.018834446508332
 31
0.0
  0
LINE
  5
71
330
A
100
AcDbEntity
  8
1
  6
solid
 62
     7
100
AcDbLine
 10
2.661971312808825
 20
2.925084446508332
 30
0.0
 11
2.661971312808825
 21
3.018834446508332
 31
0.0
  0
LINE
  5
72
330
A
100
AcDbEntity
  8
1
  6
solid
 62
     7
100
AcDbLine
 10
2.738457708157662
 20
2.993263283717634
 30
0.0
 11
2.719925731413475
 21
2.991581539531587
 31
0.0
  0
SPLINE
  5
73
330
A
100
AcDbEntity
  8
1
  6
solid
 62
     7
100
AcDbSpline
210
0.0
220
0.0
230
1.0
 70
     8
 71
     2
 72
     7
 73
     4
 74
     0
 42
0.0000000001
 43
0.0000000001
 40
0.0
 40
0.0
 40
0.0
 40
1.0
 40
2.0
 40
2.0
 40
2.0
 10
2.719925731413475
 20
2.991581539531587
 30
0.0
 10
2.719137010483244
 20
2.997121423252518
 30
0.0
 10
2.713820382576266
 20
3.002482702322286
 30
0.0
 10
2.709571545366964
 20
3.002482702322286
 30
0.0
  0
SPLINE
  5
74
330
A
100
AcDbEntity
  8
1
  6
solid
 62
     7
100
AcDbSpline
210
0.0
220
0.0
230
1.0
 70
     8
 71
     2
 72
     7
 73
     4
 74
     0
 42
0.0000000001
 43
0.0000000001
 40
0.0
 40
0.0
 40
0.0
 40
1.0
 40
2.0
 40
2.0
 40
2.0
 10
2.709571545366964
 20
3.002482702322286
 30
0.0
 10
2.704053987227429
 20
3.002482702322286
 30
0.0
 10
2.696389684901848
 20
2.991603865112983
 30
0.0
 10
2.695355382576266
 20
2.974664330229261
 30
0.0
  0
SPLINE
  5
75
330
A
100
AcDbEntity
  8
1
  6
solid
 62
     7
100
AcDbSpline
210
0.0
220
0.0
230
1.0
 70
     8
 71
     2
 72
     6
 73
     3
 74
     0
 42
0.0000000001
 43
0.0000000001
 40
0.0
 40
0.0
 40
0.0
 40
1.0
 40
1.0
 40
1.0
 10
2.695355382576266
 20
2.974664330229261
 30
0.0
 10
2.70248387094836
 20
2.982860609299029
 30
0.0
 10
2.712562824436732
 20
2.982860609299029
 30
0.0
  0
SPLINE
  5
76
330
A
100
AcDbEntity
  8
1
  6
solid
 62
     7
100
AcDbSpline
210
0.0
220
0.0
230
1.0
 70
     8
 71
     2
 72
     7
 73
     4
 74
     0
 42
0.0000000001
 43
0.0000000001
 40
0.0
 40
0.0
 40
0.0
 40
1.0
 40
2.0
 40
2.0
 40
2.0
 10
2.712562824436732
 20
2.982860609299029
 30
0.0
 10
2.723865847692546
 20
2.982860609299029
 30
0.0
 10
2.740637940715801
 20
2.966642818601354
 30
0.0
 10
2.740637940715801
 20
2.953762353485076
 30
0.0
  0
SPLINE
  5
77
330
A
100
AcDbEntity
  8
1
  6
solid
 62
     7
100
AcDbSpline
210
0.0
220
0.0
230
1.0
 70
     8
 71
     2
 72
     7
 73
     4
 74
     0
 42
0.0000000001
 43
0.0000000001
 40
0.0
 40
0.0
 40
0.0
 40
1.0
 40
2.0
 40
2.0
 40
2.0
 10
2.740637940715801
 20
2.953762353485076
 30
0.0
 10
2.740637940715801
 20
2.940368399996703
 30
0.0
 10
2.723642591878592
 20
2.923994330229261
 30
0.0
 10
2.710527708157662
 20
2.923994330229261
 30
0.0
  0
SPLINE
  5
78
330
A
100
AcDbEntity
  8
1
  6
solid
 62
     7
100
AcDbSpline
210
0.0
220
0.0
230
1.0
 70
     8
 71
     2
 72
     7
 73
     4
 74
     0
 42
0.0000000001
 43
0.0000000001
 40
0.0
 40
0.0
 40
0.0
 40
1.0
 40
2.0
 40
2.0
 40
2.0
 10
2.710527708157662
 20
2.923994330229261
 30
0.0
 10
2.696412010483244
 20
2.923994330229261
 30
0.0
 10
2.678501312808824
 20
2.945830144182751
 30
0.0
 10
2.678501312808824
 20
2.970415493019959
 30
0.0
  0
SPLINE
  5
79
330
A
100
AcDbEntity
  8
1
  6
solid
 62
     7
100
AcDbSpline
210
0.0
220
0.0
230
1.0
 70
     8
 71
     2
 72
     7
 73
     4
 74
     0
 42
0.0000000001
 43
0.0000000001
 40
0.0
 40
0.0
 40
0.0
 40
1.0
 40
2.0
 40
2.0
 40
2.0
 10
2.678501312808824
 20
2.970415493019959
 30
0.0
 10
2.678501312808824
 20
2.996165260461819
 30
0.0
 10
2.697189568622778
 20
3.018834446508332
 30
0.0
 10
2.711896894204174
 20
3.018834446508332
 30
0.0
  0
SPLINE
  5
7A
330
A
100
AcDbEntity
  8
1
  6
solid
 62
     7
100
AcDbSpline
210
0.0
220
0.0
230
1.0
 70
     8
 71
     2
 72
     7
 73
     4
 74
     0
 42
0.0000000001
 43
0.0000000001
 40
0.0
 40
0.0
 40
0.0
 40
1.0
 40
2.0
 40
2.0
 40
2.0
 10
2.711896894204174
 20
3.018834446508332
 30
0.0
 10
2.722541312808824
 20
3.018834446508332
 30
0.0
 10
2.736467243041383
 20
3.005842353485076
 30
0.0
 10
2.738457708157661
 20
2.993263283717634
 30
0.0
  0
SPLINE
  5
7B
330
A
100
AcDbEntity
  8
1
  6
solid
 62
     7
100
AcDbSpline
210
0.0
220
0.0
230
1.0
 70
     8
 71
     2
 72
     7
 73
     4
 74
     0
 42
0.0000000001
 43
0.0000000001
 40
0.0
 40
0.0
 40
0.0
 40
1.0
 40
2.0
 40
2.0
 40
2.0
 10
2.697033289553011
 20
2.953985609299029
 30
0.0
 10
2.697033289553011
 20
2.947355609299029
 30
0.0
 10
2.704987824436732
 20
2.940346074415309
 30
0.0
 10
2.710282126762312
 20
2.940346074415309
 30
0.0
  0
SPLINE
  5
7C
330
A
100
AcDbEntity
  8
1
  6
solid
 62
     7
100
AcDbSpline
210
0.0
220
0.0
230
1.0
 70
     8
 71
     2
 72
     7
 73
     4
 74
     0
 42
0.0000000001
 43
0.0000000001
 40
0.0
 40
0.0
 40
0.0
 40
1.0
 40
2.0
 40
2.0
 40
2.0
 10
2.710282126762312
 20
2.940346074415309
 30
0.0
 10
2.715077940715802
 20
2.940346074415309
 30
0.0
 10
2.722105963971616
 20
2.94612037674089
 30
0.0
 10
2.722105963971616
 20
2.952817353485076
 30
0.0
  0
SPLINE
  5
7D
330
A
100
AcDbEntity
  8
1
  6
solid
 62
     7
100
AcDbSpline
210
0.0
220
0.0
230
1.0
 70
     8
 71
     2
 72
     7
 73
     4
 74
     0
 42
0.0000000001
 43
0.0000000001
 40
0.0
 40
0.0
 40
0.0
 40
1.0
 40
2.0
 40
2.0
 40
2.0
 10
2.722105963971616
 20
2.952817353485076
 30
0.0
 10
2.722105963971616
 20
2.960012818601354
 30
0.0
 10
2.71474305699487
 20
2.966508865112983
 30
0.0
 10
2.709314801180918
 20
2.966508865112983
 30
0.0
  0
SPLINE
  5
7E
330
A
100
AcDbEntity
  8
1
  6
solid
 62
     7
100
AcDbSpline
210
0.0
220
0.0
230
1.0
 70
     8
 71
     2
 72
     7
 73
     4
 74
     0
 42
0.0000000001
 43
0.0000000001
 40
0.0
 40
0.0
 40
0.0
 40
1.0
 40
2.0
 40
2.0
 40
2.0
 10
2.709314801180918
 20
2.966508865112983
 30
0.0
 10
2.704020498855337
 20
2.966508865112983
 30
0.0
 10
2.697033289553011
 20
2.960202586043216
 30
0.0
 10
2.697033289553011
 20
2.953985609299029
 30
0.0
  0
LINE
  5
7F
330
A
100
AcDbEntity
  8
1
  6
solid
 62
     7
100
AcDbLine
 10
2.775145266297197
 20
2.925084446508332
 30
0.0
 11
2.807491545366965
 21
2.974351772089726
 31
0.0
  0
LINE
  5
80
330
A
100
AcDbEntity
  8
1
  6
solid
 62
     7
100
AcDbLine
 10
2.807491545366965
 20
2.974351772089726
 30
0.0
 11
2.778415615134406
 21
3.018834446508332
 31
0.0
  0
LINE
  5
81
330
A
100
AcDbEntity
  8
1
  6
solid
 62
     7
100
AcDbLine
 10
2.778415615134406
 20
3.018834446508332
 30
0.0
 11
2.800206777925104
 21
3.018834446508332
 31
0.0
  0
LINE
  5
82
330
A
100
AcDbEntity
  8
1
  6
solid
 62
     7
100
AcDbLine
 10
2.800206777925104
 20
3.018834446508332
 30
0.0
 11
2.818392708157662
 21
2.99096026046182
 31
0.0
  0
LINE
  5
83
330
A
100
AcDbEntity
  8
1
  6
solid
 62
     7
100
AcDbLine
 10
2.818392708157662
 20
2.99096026046182
 30
0.0
 11
2.836191777925104
 21
3.018834446508332
 31
0.0
  0
LINE
  5
84
330
A
100
AcDbEntity
  8
1
  6
solid
 62
     7
100
AcDbLine
 10
2.836191777925104
 20
3.018834446508332
 30
0.0
 11
2.8579941035065
 21
3.018834446508332
 31
0.0
  0
LINE
  5
85
330
A
100
AcDbEntity
  8
1
  6
solid
 62
     7
100
AcDbLine
 10
2.8579941035065
 20
3.018834446508332
 30
0.0
 11
2.82929387094836
 21
2.974351772089726
 31
0.0
  0
LINE
  5
86
330
A
100
AcDbEntity
  8
1
  6
solid
 62
     7
100
AcDbLine
 10
2.82929387094836
 20
2.974351772089726
 30
0.0
 11
2.861264452343709
 21
2.925084446508332
 31
0.0
  0
LINE
  5
87
330
A
100
AcDbEntity
  8
1
  6
solid
 62
     7
100
AcDbLine
 10
2.861264452343709
 20
2.925084446508332
 30
0.0
 11
2.839462126762313
 21
2.925084446508332
 31
0.0
  0
LINE
  5
88
330
A
100
AcDbEntity
  8
1
  6
solid
 62
     7
100
AcDbLine
 10
2.839462126762313
 20
2.925084446508332
 30
0.0
 11
2.818392708157662
 21
2.957378748833913
 31
0.0
  0
LINE
  5
89
330
A
100
AcDbEntity
  8
1
  6
solid
 62
     7
100
AcDbLine
 10
2.818392708157662
 20
2.957378748833913
 30
0.0
 11
2.796936429087895
 21
2.925084446508332
 31
0.0
  0
LINE
  5
8A
330
A
100
AcDbEntity
  8
1
  6
solid
 62
     7
100
AcDbLine
 10
2.775145266297197
 20
2.925084446508332
 30
0.0
 11
2.796936429087895
 21
2.925084446508332
 31
0.0
  0
LINE
  5
8B
330
A
100
AcDbEntity
  8
1
  6
solid
 62
     7
100
AcDbLine
 10
2.896147475599522
 20
2.952337353485076
 30
0.0
 11
2.914679452343709
 21
2.954517586043216
 31
0.0
  0
SPLINE
  5
8C
330
A
100
AcDbEntity
  8
1
  6
solid
 62
     7
100
AcDbSpline
210
0.0
220
0.0
230
1.0
 70
     8
 71
     2
 72
     7
 73
     4
 74
     0
 42
0.0000000001
 43
0.0000000001
 40
0.0
 40
0.0
 40
0.0
 40
1.0
 40
2.0
 40
2.0
 40
2.0
 10
2.914679452343709
 20
2.954517586043216
 30
0.0
 10
2.915192940715802
 20
2.947377934880424
 30
0.0
 10
2.922354917459988
 20
2.940346074415309
 30
0.0
 10
2.927072591878593
 20
2.940346074415309
 30
0.0
  0
SPLINE
  5
8D
330
A
100
AcDbEntity
  8
1
  6
solid
 62
     7
100
AcDbSpline
210
0.0
220
0.0
230
1.0
 70
     8
 71
     2
 72
     7
 73
     4
 74
     0
 42
0.0000000001
 43
0.0000000001
 40
0.0
 40
0.0
 40
0.0
 40
1.0
 40
2.0
 40
2.0
 40
2.0
 10
2.927072591878593
 20
2.940346074415309
 30
0.0
 10
2.932400382576267
 20
2.940346074415309
 30
0.0
 10
2.939752126762314
 20
2.947578865112983
 30
0.0
 10
2.939752126762314
 20
2.954052586043216
 30
0.0
  0
SPLINE
  5
8E
330
A
100
AcDbEntity
  8
1
  6
solid
 62
     7
100
AcDbSpline
210
0.0
220
0.0
230
1.0
 70
     8
 71
     2
 72
     7
 73
     4
 74
     0
 42
0.0000000001
 43
0.0000000001
 40
0.0
 40
0.0
 40
0.0
 40
1.0
 40
2.0
 40
2.0
 40
2.0
 10
2.939752126762314
 20
2.954052586043216
 30
0.0
 10
2.939752126762314
 20
2.960291888368796
 30
0.0
 10
2.933233754669291
 20
2.967598981392053
 30
0.0
 10
2.928296661646034
 20
2.967598981392053
 30
0.0
  0
SPLINE
  5
8F
330
A
100
AcDbEntity
  8
1
  6
solid
 62
     7
100
AcDbSpline
210
0.0
220
0.0
230
1.0
 70
     8
 71
     2
 72
     6
 73
     3
 74
     0
 42
0.0000000001
 43
0.0000000001
 40
0.0
 40
0.0
 40
0.0
 40
1.0
 40
1.0
 40
1.0
 10
2.928296661646034
 20
2.967598981392053
 30
0.0
 10
2.9251491035065
 20
2.967598981392053
 30
0.0
 10
2.921220150018127
 20
2.965965725578098
 30
0.0
  0
LINE
  5
90
330
A
100
AcDbEntity
  8
1
  6
solid
 62
     7
100
AcDbLine
 10
2.921220150018127
 20
2.965965725578098
 30
0.0
 11
2.922678638390221
 21
2.981770493019959
 31
0.0
  0
SPLINE
  5
91
330
A
100
AcDbEntity
  8
1
  6
solid
 62
     7
100
AcDbSpline
210
0.0
220
0.0
230
1.0
 70
     8
 71
     2
 72
     7
 73
     4
 74
     0
 42
0.0000000001
 43
0.0000000001
 40
0.0
 40
0.0
 40
0.0
 40
1.0
 40
2.0
 40
2.0
 40
2.0
 10
2.922678638390221
 20
2.981770493019959
 30
0.0
 10
2.9289291035065
 20
2.981260841857168
 30
0.0
 10
2.935391661646034
 20
2.987589446508332
 30
0.0
 10
2.935391661646034
 20
2.992839097671123
 30
0.0
  0
SPLINE
  5
92
330
A
100
AcDbEntity
  8
1
  6
solid
 62
     7
100
AcDbSpline
210
0.0
220
0.0
230
1.0
 70
     8
 71
     2
 72
     7
 73
     4
 74
     0
 42
0.0000000001
 43
0.0000000001
 40
0.0
 40
0.0
 40
0.0
 40
1.0
 40
2.0
 40
2.0
 40
2.0
 10
2.935391661646034
 20
2.992839097671123
 30
0.0
 10
2.935391661646034
 20
2.997199562787401
 30
0.0
 10
2.930421080250686
 20
3.002482702322286
 30
0.0
 10
2.926737708157662
 20
3.002482702322286
 30
0.0
  0
SPLINE
  5
93
330
A
100
AcDbEntity
  8
1
  6
solid
 62
     7
100
AcDbSpline
210
0.0
220
0.0
230
1.0
 70
     8
 71
     2
 72
     7
 73
     4
 74
     0
 42
0.0000000001
 43
0.0000000001
 40
0.0
 40
0.0
 40
0.0
 40
1.0
 40
2.0
 40
2.0
 40
2.0
 10
2.926737708157662
 20
3.002482702322286
 30
0.0
 10
2.922700963971616
 20
3.002482702322286
 30
0.0
 10
2.917250382576266
 20
2.996221074415308
 30
0.0
 10
2.916859684901849
 20
2.990491423252518
 30
0.0
  0
LINE
  5
94
330
A
100
AcDbEntity
  8
1
  6
solid
 62
     7
100
AcDbLine
 10
2.916859684901849
 20
2.990491423252518
 30
0.0
 11
2.898327708157662
 21
2.993006539531588
 31
0.0
  0
SPLINE
  5
95
330
A
100
AcDbEntity
  8
1
  6
solid
 62
     7
100
AcDbSpline
210
0.0
220
0.0
230
1.0
 70
     8
 71
     2
 72
     8
 73
     5
 74
     0
 42
0.0000000001
 43
0.0000000001
 40
0.0
 40
0.0
 40
0.0
 40
1.0
 40
2.0
 40
3.0
 40
3.0
 40
3.0
 10
2.898327708157662
 20
2.993006539531588
 30
0.0
 10
2.89980852211115
 20
3.001850260461821
 30
0.0
 10
2.906538987227429
 20
3.012583981392053
 30
0.0
 10
2.919062243041382
 20
3.018834446508332
 30
0.0
 10
2.92628387094836
 20
3.018834446508332
 30
0.0
  0
SPLINE
  5
96
330
A
100
AcDbEntity
  8
1
  6
solid
 62
     7
100
AcDbSpline
210
0.0
220
0.0
230
1.0
 70
     8
 71
     2
 72
     6
 73
     3
 74
     0
 42
0.0000000001
 43
0.0000000001
 40
0.0
 40
0.0
 40
0.0
 40
1.0
 40
1.0
 40
1.0
 10
2.92628387094836
 20
3.018834446508332
 30
0.0
 10
2.93929828955301
 20
3.018834446508332
 30
0.0
 10
2.947438754669291
 20
3.010258632554843
 30
0.0
  0
SPLINE
  5
97
330
A
100
AcDbEntity
  8
1
  6
solid
 62
     7
100
AcDbSpline
210
0.0
220
0.0
230
1.0
 70
     8
 71
     2
 72
     6
 73
     3
 74
     0
 42
0.0000000001
 43
0.0000000001
 40
0.0
 40
0.0
 40
0.0
 40
1.0
 40
1.0
 40
1.0
 10
2.947438754669291
 20
3.010258632554843
 30
0.0
 10
2.953923638390221
 20
3.003074330229261
 30
0.0
 10
2.953923638390221
 20
2.994342237206005
 30
0.0
  0
SPLINE
  5
98
330
A
100
AcDbEntity
  8
1
  6
solid
 62
     7
100
AcDbSpline
210
0.0
220
0.0
230
1.0
 70
     8
 71
     2
 72
     6
 73
     3
 74
     0
 42
0.0000000001
 43
0.0000000001
 40
0.0
 40
0.0
 40
0.0
 40
1.0
 40
1.0
 40
1.0
 10
2.953923638390221
 20
2.994342237206005
 30
0.0
 10
2.953923638390221
 20
2.982060725578099
 30
0.0
 10
2.939953056994871
 20
2.974586190694378
 30
0.0
  0
SPLINE
  5
99
330
A
100
AcDbEntity
  8
1
  6
solid
 62
     7
100
AcDbSpline
210
0.0
220
0.0
230
1.0
 70
     8
 71
     2
 72
     7
 73
     4
 74
     0
 42
0.0000000001
 43
0.0000000001
 40
0.0
 40
0.0
 40
0.0
 40
1.0
 40
2.0
 40
2.0
 40
2.0
 10
2.939953056994871
 20
2.974586190694378
 30
0.0
 10
2.94801921978557
 20
2.973105376740889
 30
0.0
 10
2.9582841035065
 20
2.96127037674089
 30
0.0
 10
2.9582841035065
 20
2.952817353485076
 30
0.0
  0
SPLINE
  5
9A
330
A
100
AcDbEntity
  8
1
  6
solid
 62
     7
100
AcDbSpline
210
0.0
220
0.0
230
1.0
 70
     8
 71
     2
 72
     7
 73
     4
 74
     0
 42
0.0000000001
 43
0.0000000001
 40
0.0
 40
0.0
 40
0.0
 40
1.0
 40
2.0
 40
2.0
 40
2.0
 10
2.9582841035065
 20
2.952817353485076
 30
0.0
 10
2.9582841035065
 20
2.940770260461821
 30
0.0
 10
2.940109336064639
 20
2.923994330229261
 30
0.0
 10
2.926815847692545
 20
2.923994330229261
 30
0.0
  0
SPLINE
  5
9B
330
A
100
AcDbEntity
  8
1
  6
solid
 62
     7
100
AcDbSpline
210
0.0
220
0.0
230
1.0
 70
     8
 71
     2
 72
     7
 73
     4
 74
     0
 42
0.0000000001
 43
0.0000000001
 40
0.0
 40
0.0
 40
0.0
 40
1.0
 40
2.0
 40
2.0
 40
2.0
 10
2.926815847692545
 20
2.923994330229261
 30
0.0
 10
2.913991196529755
 20
2.923994330229261
 30
0.0
 10
2.897405033739057
 20
2.939523865112983
 30
0.0
 10
2.896147475599522
 20
2.952337353485076
 30
0.0
  0
LINE
  5
9C
330
A
100
AcDbEntity
  8
1
  6
solid
 62
     7
100
AcDbLine
 10
2.9748141035065
 20
2.950157120926936
 30
0.0
 11
2.9748141035065
 21
2.966508865112983
 31
0.0
  0
LINE
  5
9D
330
A
100
AcDbEntity
  8
1
  6
solid
 62
     7
100
AcDbLine
 10
2.9748141035065
 20
2.966508865112983
 30
0.0
 11
3.010787940715802
 21
2.966508865112983
 31
0.0
  0
LINE
  5
9E
330
A
100
AcDbEntity
  8
1
  6
solid
 62
     7
100
AcDbLine
 10
3.010787940715802
 20
2.966508865112983
 30
0.0
 11
3.010787940715802
 21
2.950157120926936
 31
0.0
  0
LINE
  5
9F
330
A
100
AcDbEntity
  8
1
  6
solid
 62
     7
100
AcDbLine
 10
2.9748141035065
 20
2.950157120926936
 30
0.0
 11
3.010787940715802
 21
2.950157120926936
 31
0.0
  0
LINE
  5
A0
330
A
100
AcDbEntity
  8
1
  6
solid
 62
     7
100
AcDbLine
 10
3.027317940715802
 20
2.952460144182751
 30
0.0
 11
3.043669684901849
 21
2.954517586043216
 31
0.0
  0
SPLINE
  5
A1
330
A
100
AcDbEntity
  8
1
  6
solid
 62
     7
100
AcDbSpline
210
0.0
220
0.0
230
1.0
 70
     8
 71
     2
 72
     7
 73
     4
 74
     0
 42
0.0000000001
 43
0.0000000001
 40
0.0
 40
0.0
 40
0.0
 40
1.0
 40
2.0
 40
2.0
 40
2.0
 10
3.043669684901849
 20
2.954517586043216
 30
0.0
 10
3.044205498855337
 20
2.947976888368796
 30
0.0
 10
3.05246875466929
 20
2.940346074415309
 30
0.0
 10
3.05739852211115
 20
2.940346074415309
 30
0.0
  0
SPLINE
  5
A2
330
A
100
AcDbEntity
  8
1
  6
solid
 62
     7
100
AcDbSpline
210
0.0
220
0.0
230
1.0
 70
     8
 71
     2
 72
     7
 73
     4
 74
     0
 42
0.0000000001
 43
0.0000000001
 40
0.0
 40
0.0
 40
0.0
 40
1.0
 40
2.0
 40
2.0
 40
2.0
 10
3.05739852211115
 20
2.940346074415309
 30
0.0
 10
3.063570847692545
 20
2.940346074415309
 30
0.0
 10
3.072012708157663
 20
2.947556539531587
 30
0.0
 10
3.072012708157663
 20
2.955165027903681
 30
0.0
  0
SPLINE
  5
A3
330
A
100
AcDbEntity
  8
1
  6
solid
 62
     7
100
AcDbSpline
210
0.0
220
0.0
230
1.0
 70
     8
 71
     2
 72
     7
 73
     4
 74
     0
 42
0.0000000001
 43
0.0000000001
 40
0.0
 40
0.0
 40
0.0
 40
1.0
 40
2.0
 40
2.0
 40
2.0
 10
3.072012708157663
 20
2.955165027903681
 30
0.0
 10
3.072012708157663
 20
2.962472120926936
 30
0.0
 10
3.064549336064639
 20
2.969779213950193
 30
0.0
 10
3.058421661646034
 20
2.969779213950193
 30
0.0
  0
SPLINE
  5
A4
330
A
100
AcDbEntity
  8
1
  6
solid
 62
     7
100
AcDbSpline
210
0.0
220
0.0
230
1.0
 70
     8
 71
     2
 72
     6
 73
     3
 74
     0
 42
0.0000000001
 43
0.0000000001
 40
0.0
 40
0.0
 40
0.0
 40
1.0
 40
1.0
 40
1.0
 10
3.058421661646034
 20
2.969779213950193
 30
0.0
 10
3.05133398722743
 20
2.969779213950193
 30
0.0
 10
3.045250963971615
 20
2.963238516275773
 30
0.0
  0
LINE
  5
A5
330
A
100
AcDbEntity
  8
1
  6
solid
 62
     7
100
AcDbLine
 10
3.045250963971616
 20
2.963238516275773
 30
0.0
 11
3.029498173273942
 21
2.964931423252518
 31
0.0
  0
LINE
  5
A6
330
A
100
AcDbEntity
  8
1
  6
solid
 62
     7
100
AcDbLine
 10
3.029498173273942
 20
2.964931423252518
 30
0.0
 11
3.040399336064639
 21
3.017744330229261
 31
0.0
  0
LINE
  5
A7
330
A
100
AcDbEntity
  8
1
  6
solid
 62
     7
100
AcDbLine
 10
3.040399336064639
 20
3.017744330229261
 30
0.0
 11
3.08618421978557
 21
3.017744330229261
 31
0.0
  0
LINE
  5
A8
330
A
100
AcDbEntity
  8
1
  6
solid
 62
     7
100
AcDbLine
 10
3.08618421978557
 20
3.017744330229261
 30
0.0
 11
3.08618421978557
 21
2.999212353485076
 31
0.0
  0
LINE
  5
A9
330
A
100
AcDbEntity
  8
1
  6
solid
 62
     7
100
AcDbLine
 10
3.08618421978557
 20
2.999212353485076
 30
0.0
 11
3.055006196529756
 21
2.999212353485076
 31
0.0
  0
LINE
  5
AA
330
A
100
AcDbEntity
  8
1
  6
solid
 62
     7
100
AcDbLine
 10
3.055006196529756
 20
2.999212353485076
 30
0.0
 11
3.051423289553012
 21
2.982150027903681
 31
0.0
  0
SPLINE
  5
AB
330
A
100
AcDbEntity
  8
1
  6
solid
 62
     7
100
AcDbSpline
210
0.0
220
0.0
230
1.0
 70
     8
 71
     2
 72
     6
 73
     3
 74
     0
 42
0.0000000001
 43
0.0000000001
 40
0.0
 40
0.0
 40
0.0
 40
1.0
 40
1.0
 40
1.0
 10
3.051423289553012
 20
2.982150027903681
 30
0.0
 10
3.05706363839022
 20
2.986130958136238
 30
0.0
 10
3.062871429087895
 20
2.986130958136238
 30
0.0
  0
SPLINE
  5
AC
330
A
100
AcDbEntity
  8
1
  6
solid
 62
     7
100
AcDbSpline
210
0.0
220
0.0
230
1.0
 70
     8
 71
     2
 72
     7
 73
     4
 74
     0
 42
0.0000000001
 43
0.0000000001
 40
0.0
 40
0.0
 40
0.0
 40
1.0
 40
2.0
 40
2.0
 40
2.0
 10
3.062871429087895
 20
2.986130958136238
 30
0.0
 10
3.074494336064639
 20
2.986130958136238
 30
0.0
 10
3.090544684901849
 20
2.969113283717634
 30
0.0
 10
3.090544684901849
 20
2.955819795345541
 30
0.0
  0
SPLINE
  5
AD
330
A
100
AcDbEntity
  8
1
  6
solid
 62
     7
100
AcDbSpline
210
0.0
220
0.0
230
1.0
 70
     8
 71
     2
 72
     6
 73
     3
 74
     0
 42
0.0000000001
 43
0.0000000001
 40
0.0
 40
0.0
 40
0.0
 40
1.0
 40
1.0
 40
1.0
 10
3.090544684901849
 20
2.955819795345541
 30
0.0
 10
3.090544684901849
 20
2.944728865112983
 30
0.0
 10
3.083505498855337
 20
2.935598748833913
 30
0.0
  0
SPLINE
  5
AE
330
A
100
AcDbEntity
  8
1
  6
solid
 62
     7
100
AcDbSpline
210
0.0
220
0.0
230
1.0
 70
     8
 71
     2
 72
     6
 73
     3
 74
     0
 42
0.0000000001
 43
0.0000000001
 40
0.0
 40
0.0
 40
0.0
 40
1.0
 40
1.0
 40
1.0
 10
3.083505498855337
 20
2.935598748833913
 30
0.0
 10
3.074483173273941
 20
2.923994330229261
 30
0.0
 10
3.058176080250686
 20
2.923994330229261
 30
0.0
  0
SPLINE
  5
AF
330
A
100
AcDbEntity
  8
1
  6
solid
 62
     7
100
AcDbSpline
210
0.0
220
0.0
230
1.0
 70
     8
 71
     2
 72
     7
 73
     4
 74
     0
 42
0.0000000001
 43
0.0000000001
 40
0.0
 40
0.0
 40
0.0
 40
1.0
 40
2.0
 40
2.0
 40
2.0
 10
3.058176080250686
 20
2.923994330229261
 30
0.0
 10
3.045139336064639
 20
2.923994330229261
 30
0.0
 10
3.028742940715801
 20
2.939389911624611
 30
0.0
 10
3.027317940715802
 20
2.952460144182751
 30
0.0
  0
LINE
  5
B0
330
A
100
AcDbEntity
  8
1
  6
solid
 62
     7
100
AcDbLine
 10
3.10645340583208
 20
2.925084446508332
 30
0.0
 11
3.128266894204175
 21
3.018834446508332
 31
0.0
  0
LINE
  5
B1
330
A
100
AcDbEntity
  8
1
  6
solid
 62
     7
100
AcDbLine
 10
3.128266894204175
 20
3.018834446508332
 30
0.0
 11
3.143048522111151
 21
3.018834446508332
 31
0.0
  0
LINE
  5
B2
330
A
100
AcDbEntity
  8
1
  6
solid
 62
     7
100
AcDbLine
 10
3.143048522111151
 20
3.018834446508332
 30
0.0
 11
3.121246196529756
 21
2.925084446508332
 31
0.0
  0
LINE
  5
B3
330
A
100
AcDbEntity
  8
1
  6
solid
 62
     7
100
AcDbLine
 10
3.10645340583208
 20
2.925084446508332
 30
0.0
 11
3.121246196529756
 21
2.925084446508332
 31
0.0
  0
SPLINE
  5
B4
330
A
100
AcDbEntity
  8
1
  6
solid
 62
     7
100
AcDbSpline
210
0.0
220
0.0
230
1.0
 70
     8
 71
     2
 72
     7
 73
     4
 74
     0
 42
0.0000000001
 43
0.0000000001
 40
0.0
 40
0.0
 40
0.0
 40
1.0
 40
2.0
 40
2.0
 40
2.0
 10
3.175930266297197
 20
2.974809446508331
 30
0.0
 10
3.168433405832081
 20
2.977867702322285
 30
0.0
 10
3.161758754669291
 20
2.988389330229261
 30
0.0
 10
3.161758754669291
 20
2.994308748833913
 30
0.0
  0
SPLINE
  5
B5
330
A
100
AcDbEntity
  8
1
  6
solid
 62
     7
100
AcDbSpline
210
0.0
220
0.0
230
1.0
 70
     8
 71
     2
 72
     7
 73
     4
 74
     0
 42
0.0000000001
 43
0.0000000001
 40
0.0
 40
0.0
 40
0.0
 40
1.0
 40
2.0
 40
2.0
 40
2.0
 10
3.161758754669291
 20
2.994308748833913
 30
0.0
 10
3.161758754669291
 20
3.004953167438564
 30
0.0
 10
3.176499568622778
 20
3.018834446508332
 30
0.0
 10
3.19045898722743
 20
3.018834446508332
 30
0.0
  0
SPLINE
  5
B6
330
A
100
AcDbEntity
  8
1
  6
solid
 62
     7
100
AcDbSpline
210
0.0
220
0.0
230
1.0
 70
     8
 71
     2
 72
     7
 73
     4
 74
     0
 42
0.0000000001
 43
0.0000000001
 40
0.0
 40
0.0
 40
0.0
 40
1.0
 40
2.0
 40
2.0
 40
2.0
 10
3.19045898722743
 20
3.018834446508332
 30
0.0
 10
3.204340266297197
 20
3.018834446508332
 30
0.0
 10
3.219534917459989
 20
3.004953167438564
 30
0.0
 10
3.219534917459989
 20
2.994308748833913
 30
0.0
  0
SPLINE
  5
B7
330
A
100
AcDbEntity
  8
1
  6
solid
 62
     7
100
AcDbSpline
210
0.0
220
0.0
230
1.0
 70
     8
 71
     2
 72
     7
 73
     4
 74
     0
 42
0.0000000001
 43
0.0000000001
 40
0.0
 40
0.0
 40
0.0
 40
1.0
 40
2.0
 40
2.0
 40
2.0
 10
3.219534917459989
 20
2.994308748833913
 30
0.0
 10
3.219534917459989
 20
2.987768051159495
 30
0.0
 10
3.211993405832082
 20
2.977700260461821
 30
0.0
 10
3.204909568622778
 20
2.974809446508331
 30
0.0
  0
SPLINE
  5
B8
330
A
100
AcDbEntity
  8
1
  6
solid
 62
     7
100
AcDbSpline
210
0.0
220
0.0
230
1.0
 70
     8
 71
     2
 72
     7
 73
     4
 74
     0
 42
0.0000000001
 43
0.0000000001
 40
0.0
 40
0.0
 40
0.0
 40
1.0
 40
2.0
 40
2.0
 40
2.0
 10
3.204909568622778
 20
2.974809446508331
 30
0.0
 10
3.213206312808825
 20
2.972048748833914
 30
0.0
 10
3.221715150018127
 20
2.960202586043216
 30
0.0
 10
3.221715150018127
 20
2.952515958136239
 30
0.0
  0
SPLINE
  5
B9
330
A
100
AcDbEntity
  8
1
  6
solid
 62
     7
100
AcDbSpline
210
0.0
220
0.0
230
1.0
 70
     8
 71
     2
 72
     7
 73
     4
 74
     0
 42
0.0000000001
 43
0.0000000001
 40
0.0
 40
0.0
 40
0.0
 40
1.0
 40
2.0
 40
2.0
 40
2.0
 10
3.221715150018127
 20
2.952515958136239
 30
0.0
 10
3.221715150018127
 20
2.939680144182751
 30
0.0
 10
3.204764452343709
 20
2.923994330229261
 30
0.0
 10
3.19079387094836
 20
2.923994330229261
 30
0.0
  0
SPLINE
  5
BA
330
A
100
AcDbEntity
  8
1
  6
solid
 62
     7
100
AcDbSpline
210
0.0
220
0.0
230
1.0
 70
     8
 71
     2
 72
     6
 73
     3
 74
     0
 42
0.0000000001
 43
0.0000000001
 40
0.0
 40
0.0
 40
0.0
 40
1.0
 40
1.0
 40
1.0
 10
3.19079387094836
 20
2.923994330229261
 30
0.0
 10
3.178210963971617
 20
2.923994330229261
 30
0.0
 10
3.169590498855337
 20
2.930557353485076
 30
0.0
  0
SPLINE
  5
BB
330
A
100
AcDbEntity
  8
1
  6
solid
 62
     7
100
AcDbSpline
210
0.0
220
0.0
230
1.0
 70
     8
 71
     2
 72
     6
 73
     3
 74
     0
 42
0.0000000001
 43
0.0000000001
 40
0.0
 40
0.0
 40
0.0
 40
1.0
 40
1.0
 40
1.0
 10
3.169590498855337
 20
2.930557353485076
 30
0.0
 10
3.159578522111151
 20
2.938277469764146
 30
0.0
 10
3.159578522111151
 20
2.951649097671122
 30
0.0
  0
SPLINE
  5
BC
330
A
100
AcDbEntity
  8
1
  6
solid
 62
     7
100
AcDbSpline
210
0.0
220
0.0
230
1.0
 70
     8
 71
     2
 72
     7
 73
     4
 74
     0
 42
0.0000000001
 43
0.0000000001
 40
0.0
 40
0.0
 40
0.0
 40
1.0
 40
2.0
 40
2.0
 40
2.0
 10
3.159578522111151
 20
2.951649097671122
 30
0.0
 10
3.159578522111151
 20
2.959168283717634
 30
0.0
 10
3.167365615134407
 20
2.971460958136239
 30
0.0
 10
3.175930266297197
 20
2.974809446508331
 30
0.0
  0
SPLINE
  5
BD
330
A
100
AcDbEntity
  8
1
  6
solid
 62
     7
100
AcDbSpline
210
0.0
220
0.0
230
1.0
 70
     8
 71
     2
 72
     7
 73
     4
 74
     0
 42
0.0000000001
 43
0.0000000001
 40
0.0
 40
0.0
 40
0.0
 40
1.0
 40
2.0
 40
2.0
 40
2.0
 10
3.180290731413476
 20
2.993095841857168
 30
0.0
 10
3.180290731413476
 20
2.987645260461821
 30
0.0
 10
3.185852940715802
 20
2.981770493019959
 30
0.0
 10
3.190425498855337
 20
2.981770493019959
 30
0.0
  0
SPLINE
  5
BE
330
A
100
AcDbEntity
  8
1
  6
solid
 62
     7
100
AcDbSpline
210
0.0
220
0.0
230
1.0
 70
     8
 71
     2
 72
     7
 73
     4
 74
     0
 42
0.0000000001
 43
0.0000000001
 40
0.0
 40
0.0
 40
0.0
 40
1.0
 40
2.0
 40
2.0
 40
2.0
 10
3.190425498855337
 20
2.981770493019959
 30
0.0
 10
3.195020382576267
 20
2.981770493019959
 30
0.0
 10
3.201002940715802
 20
2.987689911624611
 30
0.0
 10
3.201002940715802
 20
2.993140493019959
 30
0.0
  0
SPLINE
  5
BF
330
A
100
AcDbEntity
  8
1
  6
solid
 62
     7
100
AcDbSpline
210
0.0
220
0.0
230
1.0
 70
     8
 71
     2
 72
     7
 73
     4
 74
     0
 42
0.0000000001
 43
0.0000000001
 40
0.0
 40
0.0
 40
0.0
 40
1.0
 40
2.0
 40
2.0
 40
2.0
 10
3.201002940715802
 20
2.993140493019959
 30
0.0
 10
3.201002940715802
 20
2.998367818601355
 30
0.0
 10
3.195065033739059
 20
3.004662934880424
 30
0.0
 10
3.190537126762314
 20
3.004662934880424
 30
0.0
  0
SPLINE
  5
C0
330
A
100
AcDbEntity
  8
1
  6
solid
 62
     7
100
AcDbSpline
210
0.0
220
0.0
230
1.0
 70
     8
 71
     2
 72
     7
 73
     4
 74
     0
 42
0.0000000001
 43
0.0000000001
 40
0.0
 40
0.0
 40
0.0
 40
1.0
 40
2.0
 40
2.0
 40
2.0
 10
3.190537126762314
 20
3.004662934880424
 30
0.0
 10
3.185897591878593
 20
3.004662934880424
 30
0.0
 10
3.180290731413476
 20
2.998323167438564
 30
0.0
 10
3.180290731413476
 20
2.993095841857168
 30
0.0
  0
SPLINE
  5
C1
330
A
100
AcDbEntity
  8
1
  6
solid
 62
     7
100
AcDbSpline
210
0.0
220
0.0
230
1.0
 70
     8
 71
     2
 72
     7
 73
     4
 74
     0
 42
0.0000000001
 43
0.0000000001
 40
0.0
 40
0.0
 40
0.0
 40
1.0
 40
2.0
 40
2.0
 40
2.0
 10
3.178110498855337
 20
2.953505609299029
 30
0.0
 10
3.178110498855337
 20
2.94612037674089
 30
0.0
 10
3.185142359320454
 20
2.938165841857168
 30
0.0
 10
3.190604103506499
 20
2.938165841857168
 30
0.0
  0
SPLINE
  5
C2
330
A
100
AcDbEntity
  8
1
  6
solid
 62
     7
100
AcDbSpline
210
0.0
220
0.0
230
1.0
 70
     8
 71
     2
 72
     7
 73
     4
 74
     0
 42
0.0000000001
 43
0.0000000001
 40
0.0
 40
0.0
 40
0.0
 40
1.0
 40
2.0
 40
2.0
 40
2.0
 10
3.190604103506499
 20
2.938165841857168
 30
0.0
 10
3.195976545366965
 20
2.938165841857168
 30
0.0
 10
3.203183173273941
 20
2.945919446508332
 30
0.0
 10
3.203183173273941
 20
2.953007120926936
 30
0.0
  0
SPLINE
  5
C3
330
A
100
AcDbEntity
  8
1
  6
solid
 62
     7
100
AcDbSpline
210
0.0
220
0.0
230
1.0
 70
     8
 71
     2
 72
     7
 73
     4
 74
     0
 42
0.0000000001
 43
0.0000000001
 40
0.0
 40
0.0
 40
0.0
 40
1.0
 40
2.0
 40
2.0
 40
2.0
 10
3.203183173273941
 20
2.953007120926936
 30
0.0
 10
3.203183173273941
 20
2.959469679066471
 30
0.0
 10
3.195898405832082
 20
2.967598981392053
 30
0.0
 10
3.190436661646034
 20
2.967598981392053
 30
0.0
  0
SPLINE
  5
C4
330
A
100
AcDbEntity
  8
1
  6
solid
 62
     7
100
AcDbSpline
210
0.0
220
0.0
230
1.0
 70
     8
 71
     2
 72
     7
 73
     4
 74
     0
 42
0.0000000001
 43
0.0000000001
 40
0.0
 40
0.0
 40
0.0
 40
1.0
 40
2.0
 40
2.0
 40
2.0
 10
3.190436661646034
 20
2.967598981392053
 30
0.0
 10
3.184052243041383
 20
2.967598981392053
 30
0.0
 10
3.178110498855337
 20
2.958401888368796
 30
0.0
 10
3.178110498855337
 20
2.953505609299029
 30
0.0
  0
LINE
  5
C5
330
A
100
AcDbEntity
  8
1
  6
solid
 62
     7
100
AcDbLine
 10
1.586530044165774
 20
0.669386140772455
 30
0.0
 11
1.854938809559481
 21
0.669386140772455
 31
0.0
  0
LINE
  5
C6
330
A
100
AcDbEntity
  8
1
  6
solid
 62
     7
100
AcDbLine
 10
1.854938809557344
 20
0.669386140772455
 30
0.0
 11
1.854938809557344
 21
0.8789121331570463
 31
0.0
  0
LINE
  5
C7
330
A
100
AcDbEntity
  8
1
  6
solid
 62
     7
100
AcDbLine
 10
3.880895722157344
 20
3.447258980375383
 30
0.0
 11
3.880895722157344
 21
3.078009845915069
 31
0.0
  0
LINE
  5
C8
330
A
100
AcDbEntity
  8
1
  6
solid
 62
     7
100
AcDbLine
 10
3.880895722183882
 20
3.078009636472453
 30
0.0
 11
3.663298068756962
 21
3.078009636472453
 31
0.0
  0
ARC
  5
C9
330
A
100
AcDbEntity
  8
1
  6
solid
 62
     7
100
AcDbCircle
 10
3.213758189928202
 20
2.981607588223951
 30
0.0
 40
0.4597601494383942
100
AcDbArc
 50
266.2395034413052
 51
12.10354148194251
  0
LINE
  5
CA
330
A
100
AcDbEntity
  8
1
  6
solid
 62
     7
100
AcDbLine
 10
3.183604390457344
 20
2.522837337019933
 30
0.0
 11
3.183604390457344
 21
2.257393794992134
 31
0.0
  0
ARC
  5
CB
330
A
100
AcDbEntity
  8
1
  6
solid
 62
     7
100
AcDbCircle
 10
3.279052853245694
 20
0.9826718687810767
 30
0.0
 40
1.27829049618265
100
AcDbArc
 50
94.28219653200695
 51
153.9477054108285
  0
LINE
  5
CC
330
A
100
AcDbEntity
  8
1
  6
solid
 62
     7
100
AcDbLine
 10
2.130644905838667
 20
1.544086010557269
 30
0.0
 11
2.238599243110786
 21
1.453453844801734
 31
0.0
  0
LINE
  5
CD
330
A
100
AcDbEntity
  8
1
  6
solid
 62
     7
100
AcDbLine
 10
2.238599229130446
 20
1.453454048734759
 30
0.0
 11
2.157795337755654
 21
1.368517921559123
 31
0.0
  0
ARC
  5
CE
330
A
100
AcDbEntity
  8
1
  6
solid
 62
     7
100
AcDbCircle
 10
1.84980537751363
 20
1.220559657401217
 30
0.0
 40
0.3416862180720565
100
AcDbArc
 50
270.86083113111
 51
25.65960888894315
  0
LINE
  5
CF
330
A
100
AcDbEntity
  8
1
  6
solid
 62
     7
100
AcDbLine
 10
3.531943661021457
 20
3.617829084396361
 30
0.0
 11
3.880895715998874
 21
3.447258949279785
 31
0.0
  0
LINE
  5
D0
330
A
100
AcDbEntity
  8
1
  6
solid
 62
     7
100
AcDbLine
 10
3.531943661021457
 20
3.24857974052429
 30
0.0
 11
3.880895715998874
 21
3.078009843826292
 31
0.0
  0
LINE
  5
D1
330
A
100
AcDbEntity
  8
1
  6
solid
 62
     7
100
AcDbLine
 10
3.314345938014254
 20
3.24857974052429
 30
0.0
 11
3.663297992991672
 21
3.078009605407713
 31
0.0
  0
LINE
  5
D2
330
A
100
AcDbEntity
  8
1
  6
solid
 62
     7
100
AcDbLine
 10
2.834652286814914
 20
2.693407297134398
 30
0.0
 11
3.18360434179233
 21
2.5228374004364
 31
0.0
  0
LINE
  5
D3
330
A
100
AcDbEntity
  8
1
  6
solid
 62
     7
100
AcDbLine
 10
2.834652286814914
 20
2.427963972091673
 30
0.0
 11
3.18360434179233
 21
2.257393836975096
 31
0.0
  0
LINE
  5
D4
330
A
100
AcDbEntity
  8
1
  6
solid
 62
     7
100
AcDbLine
 10
2.130644899653659
 20
1.544085979461669
 30
0.0
 11
1.781692844676242
 21
1.714655995368956
 31
0.0
  0
LINE
  5
D5
330
A
100
AcDbEntity
  8
1
  6
solid
 62
     7
100
AcDbLine
 10
2.238599282550083
 20
1.453453898429869
 30
0.0
 11
1.889647108363376
 21
1.624023914337158
 31
0.0
  0
LINE
  5
D6
330
A
100
AcDbEntity
  8
1
  6
solid
 62
     7
100
AcDbLine
 10
2.157795411395298
 20
1.368517875671386
 30
0.0
 11
1.808843237208591
 21
1.539088010787963
 31
0.0
  0
LINE
  5
D7
330
A
100
AcDbEntity
  8
1
  6
solid
 62
     7
100
AcDbLine
 10
1.854938846873508
 20
0.8789120316505432
 30
0.0
 11
1.505986791896091
 21
1.049482226371764
 31
0.0
  0
LINE
  5
D8
330
A
100
AcDbEntity
  8
1
  6
solid
 62
     7
100
AcDbLine
 10
1.854938846873508
 20
0.6693861484527588
 30
0.0
 11
1.505986791896091
 21
0.8399561643600462
 31
0.0
  0
LINE
  5
D9
330
A
100
AcDbEntity
  8
1
  6
solid
 62
     7
100
AcDbLine
 10
1.586530071543918
 20
0.6693861484527588
 30
0.0
 11
1.237577956961857
 21
0.8399561643600462
 31
0.0
  0
LINE
  5
DA
330
A
100
AcDbEntity
  8
1
  6
solid
 62
     7
100
AcDbLine
 10
-0.881696729248383
 20
0.8454003682621278
 30
0.0
 11
-0.6132879638546769
 21
0.8454003682621278
 31
0.0
  0
LINE
  5
DB
330
A
100
AcDbEntity
  8
1
  6
solid
 62
     7
100
AcDbLine
 10
-0.6132879638568138
 20
0.8454003682621278
 30
0.0
 11
-0.6132879638568138
 21
1.054926360646718
 31
0.0
  0
LINE
  5
DC
330
A
100
AcDbEntity
  8
1
  6
solid
 62
     7
100
AcDbLine
 10
-0.8816967254568128
 20
0.8454001686194519
 30
0.0
 11
-0.8816967254568128
 21
1.685390836898114
 31
0.0
  0
LINE
  5
DD
330
A
100
AcDbEntity
  8
1
  6
solid
 62
     7
100
AcDbLine
 10
-0.8816967254875532
 20
1.685390784464178
 30
0.0
 11
0.7675726734349145
 21
3.623273117388782
 31
0.0
  0
LINE
  5
DE
330
A
100
AcDbEntity
  8
1
  6
solid
 62
     7
100
AcDbLine
 10
0.7675726734349145
 20
3.623273117362127
 30
0.0
 11
1.412669000638889
 21
3.623273117362127
 31
0.0
  0
LINE
  5
DF
330
A
100
AcDbEntity
  8
1
  6
solid
 62
     7
100
AcDbLine
 10
1.412668948743186
 20
3.623273207865056
 30
0.0
 11
1.412668948743186
 21
3.254024073404742
 31
0.0
  0
LINE
  5
E0
330
A
100
AcDbEntity
  8
1
  6
solid
 62
     7
100
AcDbLine
 10
1.412668948769723
 20
3.254023863962127
 30
0.0
 11
1.195071295342804
 21
3.254023863962127
 31
0.0
  0
ARC
  5
E1
330
A
100
AcDbEntity
  8
1
  6
solid
 62
     7
100
AcDbCircle
 10
0.7455314165140452
 20
3.157621815713624
 30
0.0
 40
0.4597601494383942
100
AcDbArc
 50
266.2395034413052
 51
372.1035414819425
  0
LINE
  5
E2
330
A
100
AcDbEntity
  8
1
  6
solid
 62
     7
100
AcDbLine
 10
0.7153776170431861
 20
2.698851564509605
 30
0.0
 11
0.7153776170431861
 21
2.433408022481807
 31
0.0
  0
ARC
  5
E3
330
A
100
AcDbEntity
  8
1
  6
solid
 62
     7
100
AcDbCircle
 10
0.810826079831537
 20
1.158686096270749
 30
0.0
 40
1.27829049618265
100
AcDbArc
 50
94.28219653200695
 51
153.9477054108285
  0
LINE
  5
E4
330
A
100
AcDbEntity
  8
1
  6
solid
 62
     7
100
AcDbLine
 10
-0.3375818675754898
 20
1.720100238046941
 30
0.0
 11
-0.2296275303033708
 21
1.629468072291407
 31
0.0
  0
LINE
  5
E5
330
A
100
AcDbEntity
  8
1
  6
solid
 62
     7
100
AcDbLine
 10
-0.2296275442837117
 20
1.629468276224431
 30
0.0
 11
-0.3104314356585038
 21
1.544532149048796
 31
0.0
  0
ARC
  5
E6
330
A
100
AcDbEntity
  8
1
  6
solid
 62
     7
100
AcDbCircle
 10
-0.6184213959005279
 20
1.396573884890891
 30
0.0
 40
0.3416862180720565
100
AcDbArc
 50
270.86083113111
 51
385.6596088889432
  0
LINE
  5
E7
330
A
100
AcDbEntity
  8
1
  6
solid
 62
     7
100
AcDbLine
 10
0.8194452679125191
 20
3.379684694823204
 30
0.0
 11
0.8194452679125191
 21
3.504684694823204
 31
0.0
  0
LINE
  5
E8
330
A
100
AcDbEntity
  8
1
  6
solid
 62
     7
100
AcDbLine
 10
0.8194452679125191
 20
3.504684694823204
 30
0.0
 11
0.8441545702380999
 21
3.504684694823204
 31
0.0
  0
LINE
  5
E9
330
A
100
AcDbEntity
  8
1
  6
solid
 62
     7
100
AcDbLine
 10
0.8441545702380999
 20
3.504684694823204
 30
0.0
 11
0.8441545702380999
 21
3.401487020404599
 31
0.0
  0
LINE
  5
EA
330
A
100
AcDbEntity
  8
1
  6
solid
 62
     7
100
AcDbLine
 10
0.8441545702380999
 20
3.401487020404599
 30
0.0
 11
0.9066545702380999
 21
3.401487020404599
 31
0.0
  0
LINE
  5
EB
330
A
100
AcDbEntity
  8
1
  6
solid
 62
     7
100
AcDbLine
 10
0.9066545702380999
 20
3.401487020404599
 30
0.0
 11
0.9066545702380999
 21
3.379684694823204
 31
0.0
  0
LINE
  5
EC
330
A
100
AcDbEntity
  8
1
  6
solid
 62
     7
100
AcDbLine
 10
0.8194452679125191
 20
3.379684694823204
 30
0.0
 11
0.9066545702380999
 21
3.379684694823204
 31
0.0
  0
LINE
  5
ED
330
A
100
AcDbEntity
  8
1
  6
solid
 62
     7
100
AcDbLine
 10
1.023660616749728
 20
3.379684694823204
 30
0.0
 11
0.9989513144241467
 21
3.379684694823204
 31
0.0
  0
LINE
  5
EE
330
A
100
AcDbEntity
  8
1
  6
solid
 62
     7
100
AcDbLine
 10
0.9989513144241467
 20
3.379684694823204
 30
0.0
 11
0.9989513144241467
 21
3.468540973892972
 31
0.0
  0
SPLINE
  5
EF
330
A
100
AcDbEntity
  8
1
  6
solid
 62
     7
100
AcDbSpline
210
0.0
220
0.0
230
1.0
 70
     8
 71
     2
 72
     6
 73
     3
 74
     0
 42
0.0000000001
 43
0.0000000001
 40
0.0
 40
0.0
 40
0.0
 40
1.0
 40
1.0
 40
1.0
 10
0.9989513144241467
 20
3.468540973892972
 30
0.0
 10
0.9859592214008912
 20
3.454378183195297
 30
0.0
 10
0.9684280586101943
 20
3.447998648311576
 30
0.0
  0
LINE
  5
F0
330
A
100
AcDbEntity
  8
1
  6
solid
 62
     7
100
AcDbLine
 10
0.9684280586101943
 20
3.447998648311576
 30
0.0
 11
0.9684280586101943
 21
3.472707950637157
 31
0.0
  0
SPLINE
  5
F1
330
A
100
AcDbEntity
  8
1
  6
solid
 62
     7
100
AcDbSpline
210
0.0
220
0.0
230
1.0
 70
     8
 71
     2
 72
     7
 73
     4
 74
     0
 42
0.0000000001
 43
0.0000000001
 40
0.0
 40
0.0
 40
0.0
 40
1.0
 40
2.0
 40
2.0
 40
2.0
 10
0.9684280586101943
 20
3.472707950637157
 30
0.0
 10
0.977610384191589
 20
3.475748880869716
 30
0.0
 10
0.9996359655869383
 20
3.49310143900925
 30
0.0
 10
1.003832709772984
 20
3.504684694823204
 30
0.0
  0
LINE
  5
F2
330
A
100
AcDbEntity
  8
1
  6
solid
 62
     7
100
AcDbLine
 10
1.003832709772984
 20
3.504684694823204
 30
0.0
 11
1.023660616749728
 21
3.504684694823204
 31
0.0
  0
LINE
  5
F3
330
A
100
AcDbEntity
  8
1
  6
solid
 62
     7
100
AcDbLine
 10
1.023660616749728
 20
3.379684694823204
 30
0.0
 11
1.023660616749728
 21
3.504684694823204
 31
0.0
  0
LINE
  5
F4
330
A
100
AcDbEntity
  8
1
  6
solid
 62
     7
100
AcDbLine
 10
1.053820616749728
 20
3.416185625055762
 30
0.0
 11
1.075622942331124
 21
3.418928880869716
 31
0.0
  0
SPLINE
  5
F5
330
A
100
AcDbEntity
  8
1
  6
solid
 62
     7
100
AcDbSpline
210
0.0
220
0.0
230
1.0
 70
     8
 71
     2
 72
     7
 73
     4
 74
     0
 42
0.0000000001
 43
0.0000000001
 40
0.0
 40
0.0
 40
0.0
 40
1.0
 40
2.0
 40
2.0
 40
2.0
 10
1.075622942331124
 20
3.418928880869716
 30
0.0
 10
1.076337360935775
 20
3.410207950637157
 30
0.0
 10
1.087355035354379
 20
3.400033532032505
 30
0.0
 10
1.093928058610193
 20
3.400033532032505
 30
0.0
  0
SPLINE
  5
F6
330
A
100
AcDbEntity
  8
1
  6
solid
 62
     7
100
AcDbSpline
210
0.0
220
0.0
230
1.0
 70
     8
 71
     2
 72
     7
 73
     4
 74
     0
 42
0.0000000001
 43
0.0000000001
 40
0.0
 40
0.0
 40
0.0
 40
1.0
 40
2.0
 40
2.0
 40
2.0
 10
1.093928058610193
 20
3.400033532032505
 30
0.0
 10
1.102157826052054
 20
3.400033532032505
 30
0.0
 10
1.113413640005541
 20
3.409647485520877
 30
0.0
 10
1.113413640005541
 20
3.419792136683668
 30
0.0
  0
SPLINE
  5
F7
330
A
100
AcDbEntity
  8
1
  6
solid
 62
     7
100
AcDbSpline
210
0.0
220
0.0
230
1.0
 70
     8
 71
     2
 72
     7
 73
     4
 74
     0
 42
0.0000000001
 43
0.0000000001
 40
0.0
 40
0.0
 40
0.0
 40
1.0
 40
2.0
 40
2.0
 40
2.0
 10
1.113413640005541
 20
3.419792136683668
 30
0.0
 10
1.113413640005541
 20
3.429534927381344
 30
0.0
 10
1.103462477214844
 20
3.439277718079018
 30
0.0
 10
1.095292244656704
 20
3.439277718079018
 30
0.0
  0
SPLINE
  5
F8
330
A
100
AcDbEntity
  8
1
  6
solid
 62
     7
100
AcDbSpline
210
0.0
220
0.0
230
1.0
 70
     8
 71
     2
 72
     6
 73
     3
 74
     0
 42
0.0000000001
 43
0.0000000001
 40
0.0
 40
0.0
 40
0.0
 40
1.0
 40
1.0
 40
1.0
 10
1.095292244656704
 20
3.439277718079018
 30
0.0
 10
1.085842012098565
 20
3.439277718079018
 30
0.0
 10
1.077731314424146
 20
3.430556787846459
 30
0.0
  0
LINE
  5
F9
330
A
100
AcDbEntity
  8
1
  6
solid
 62
     7
100
AcDbLine
 10
1.077731314424146
 20
3.430556787846459
 30
0.0
 11
1.056727593493913
 21
3.432813997148785
 31
0.0
  0
LINE
  5
FA
330
A
100
AcDbEntity
  8
1
  6
solid
 62
     7
100
AcDbLine
 10
1.056727593493913
 20
3.432813997148785
 30
0.0
 11
1.071262477214844
 21
3.50323120645111
 31
0.0
  0
LINE
  5
FB
330
A
100
AcDbEntity
  8
1
  6
solid
 62
     7
100
AcDbLine
 10
1.071262477214844
 20
3.50323120645111
 30
0.0
 11
1.132308988842752
 21
3.50323120645111
 31
0.0
  0
LINE
  5
FC
330
A
100
AcDbEntity
  8
1
  6
solid
 62
     7
100
AcDbLine
 10
1.132308988842752
 20
3.50323120645111
 30
0.0
 11
1.132308988842752
 21
3.478521904125529
 31
0.0
  0
LINE
  5
FD
330
A
100
AcDbEntity
  8
1
  6
solid
 62
     7
100
AcDbLine
 10
1.132308988842752
 20
3.478521904125529
 30
0.0
 11
1.090738291168333
 21
3.478521904125529
 31
0.0
  0
LINE
  5
FE
330
A
100
AcDbEntity
  8
1
  6
solid
 62
     7
100
AcDbLine
 10
1.090738291168333
 20
3.478521904125529
 30
0.0
 11
1.085961081866007
 21
3.455772136683669
 31
0.0
  0
SPLINE
  5
FF
330
A
100
AcDbEntity
  8
1
  6
solid
 62
     7
100
AcDbSpline
210
0.0
220
0.0
230
1.0
 70
     8
 71
     2
 72
     6
 73
     3
 74
     0
 42
0.0000000001
 43
0.0000000001
 40
0.0
 40
0.0
 40
0.0
 40
1.0
 40
1.0
 40
1.0
 10
1.085961081866007
 20
3.455772136683669
 30
0.0
 10
1.093481546982286
 20
3.461080043660413
 30
0.0
 10
1.101225267912519
 20
3.461080043660413
 30
0.0
  0
SPLINE
  5
100
330
A
100
AcDbEntity
  8
1
  6
solid
 62
     7
100
AcDbSpline
210
0.0
220
0.0
230
1.0
 70
     8
 71
     2
 72
     7
 73
     4
 74
     0
 42
0.0000000001
 43
0.0000000001
 40
0.0
 40
0.0
 40
0.0
 40
1.0
 40
2.0
 40
2.0
 40
2.0
 10
1.101225267912519
 20
3.461080043660413
 30
0.0
 10
1.116722477214844
 20
3.461080043660413
 30
0.0
 10
1.138122942331123
 20
3.438389811102274
 30
0.0
 10
1.138122942331123
 20
3.420665159939482
 30
0.0
  0
SPLINE
  5
101
330
A
100
AcDbEntity
  8
1
  6
solid
 62
     7
100
AcDbSpline
210
0.0
220
0.0
230
1.0
 70
     8
 71
     2
 72
     6
 73
     3
 74
     0
 42
0.0000000001
 43
0.0000000001
 40
0.0
 40
0.0
 40
0.0
 40
1.0
 40
1.0
 40
1.0
 10
1.138122942331123
 20
3.420665159939482
 30
0.0
 10
1.138122942331123
 20
3.405877252962739
 30
0.0
 10
1.128737360935775
 20
3.393703764590646
 30
0.0
  0
SPLINE
  5
102
330
A
100
AcDbEntity
  8
1
  6
solid
 62
     7
100
AcDbSpline
210
0.0
220
0.0
230
1.0
 70
     8
 71
     2
 72
     6
 73
     3
 74
     0
 42
0.0000000001
 43
0.0000000001
 40
0.0
 40
0.0
 40
0.0
 40
1.0
 40
1.0
 40
1.0
 10
1.128737360935775
 20
3.393703764590646
 30
0.0
 10
1.116707593493914
 20
3.37823120645111
 30
0.0
 10
1.09496480279624
 20
3.37823120645111
 30
0.0
  0
SPLINE
  5
103
330
A
100
AcDbEntity
  8
1
  6
solid
 62
     7
100
AcDbSpline
210
0.0
220
0.0
230
1.0
 70
     8
 71
     2
 72
     7
 73
     4
 74
     0
 42
0.0000000001
 43
0.0000000001
 40
0.0
 40
0.0
 40
0.0
 40
1.0
 40
2.0
 40
2.0
 40
2.0
 10
1.09496480279624
 20
3.37823120645111
 30
0.0
 10
1.077582477214844
 20
3.37823120645111
 30
0.0
 10
1.055720616749728
 20
3.398758648311575
 30
0.0
 10
1.053820616749728
 20
3.416185625055762
 30
0.0
  0
LINE
  5
104
330
A
100
AcDbEntity
  8
1
  6
solid
 62
     7
100
AcDbLine
 10
1.223515500470658
 20
3.379684694823204
 30
0.0
 11
1.198806198145076
 21
3.379684694823204
 31
0.0
  0
LINE
  5
105
330
A
100
AcDbEntity
  8
1
  6
solid
 62
     7
100
AcDbLine
 10
1.198806198145076
 20
3.379684694823204
 30
0.0
 11
1.198806198145076
 21
3.468540973892972
 31
0.0
  0
SPLINE
  5
106
330
A
100
AcDbEntity
  8
1
  6
solid
 62
     7
100
AcDbSpline
210
0.0
220
0.0
230
1.0
 70
     8
 71
     2
 72
     6
 73
     3
 74
     0
 42
0.0000000001
 43
0.0000000001
 40
0.0
 40
0.0
 40
0.0
 40
1.0
 40
1.0
 40
1.0
 10
1.198806198145076
 20
3.468540973892972
 30
0.0
 10
1.185814105121822
 20
3.454378183195297
 30
0.0
 10
1.168282942331124
 20
3.447998648311576
 30
0.0
  0
LINE
  5
107
330
A
100
AcDbEntity
  8
1
  6
solid
 62
     7
100
AcDbLine
 10
1.168282942331124
 20
3.447998648311576
 30
0.0
 11
1.168282942331124
 21
3.472707950637157
 31
0.0
  0
SPLINE
  5
108
330
A
100
AcDbEntity
  8
1
  6
solid
 62
     7
100
AcDbSpline
210
0.0
220
0.0
230
1.0
 70
     8
 71
     2
 72
     7
 73
     4
 74
     0
 42
0.0000000001
 43
0.0000000001
 40
0.0
 40
0.0
 40
0.0
 40
1.0
 40
2.0
 40
2.0
 40
2.0
 10
1.168282942331124
 20
3.472707950637157
 30
0.0
 10
1.177465267912519
 20
3.475748880869716
 30
0.0
 10
1.199490849307868
 20
3.49310143900925
 30
0.0
 10
1.203687593493913
 20
3.504684694823204
 30
0.0
  0
LINE
  5
109
330
A
100
AcDbEntity
  8
1
  6
solid
 62
     7
100
AcDbLine
 10
1.203687593493913
 20
3.504684694823204
 30
0.0
 11
1.223515500470658
 21
3.504684694823204
 31
0.0
  0
LINE
  5
10A
330
A
100
AcDbEntity
  8
1
  6
solid
 62
     7
100
AcDbLine
 10
1.223515500470658
 20
3.379684694823204
 30
0.0
 11
1.223515500470658
 21
3.504684694823204
 31
0.0
  0
LINE
  5
10B
330
A
100
AcDbEntity
  8
1
  6
solid
 62
     7
100
AcDbLine
 10
0.3742839418944692
 20
2.930528622863787
 30
0.0
 11
0.3557519651502843
 21
2.930528622863787
 31
0.0
  0
LINE
  5
10C
330
A
100
AcDbEntity
  8
1
  6
solid
 62
     7
100
AcDbLine
 10
0.3557519651502843
 20
2.930528622863787
 30
0.0
 11
0.3557519651502843
 21
2.997170832166114
 31
0.0
  0
SPLINE
  5
10D
330
A
100
AcDbEntity
  8
1
  6
solid
 62
     7
100
AcDbSpline
210
0.0
220
0.0
230
1.0
 70
     8
 71
     2
 72
     6
 73
     3
 74
     0
 42
0.0000000001
 43
0.0000000001
 40
0.0
 40
0.0
 40
0.0
 40
1.0
 40
1.0
 40
1.0
 10
0.3557519651502843
 20
2.997170832166114
 30
0.0
 10
0.3460078953828423
 20
2.986548739142858
 30
0.0
 10
0.3328595232898182
 20
2.981764087980067
 30
0.0
  0
LINE
  5
10E
330
A
100
AcDbEntity
  8
1
  6
solid
 62
     7
100
AcDbLine
 10
0.3328595232898182
 20
2.981764087980067
 30
0.0
 11
0.3328595232898182
 21
3.000296064724253
 31
0.0
  0
SPLINE
  5
10F
330
A
100
AcDbEntity
  8
1
  6
solid
 62
     7
100
AcDbSpline
210
0.0
220
0.0
230
1.0
 70
     8
 71
     2
 72
     7
 73
     4
 74
     0
 42
0.0000000001
 43
0.0000000001
 40
0.0
 40
0.0
 40
0.0
 40
1.0
 40
2.0
 40
2.0
 40
2.0
 10
0.3328595232898182
 20
3.000296064724253
 30
0.0
 10
0.3397462674758649
 20
3.002576762398672
 30
0.0
 10
0.3562654535223761
 20
3.015591181003322
 30
0.0
 10
0.359413011661911
 20
3.024278622863787
 30
0.0
  0
LINE
  5
110
330
A
100
AcDbEntity
  8
1
  6
solid
 62
     7
100
AcDbLine
 10
0.359413011661911
 20
3.024278622863787
 30
0.0
 11
0.3742839418944692
 21
3.024278622863787
 31
0.0
  0
LINE
  5
111
330
A
100
AcDbEntity
  8
1
  6
solid
 62
     7
100
AcDbLine
 10
0.3742839418944692
 20
2.930528622863787
 30
0.0
 11
0.3742839418944692
 21
3.024278622863787
 31
0.0
  0
LINE
  5
112
330
A
100
AcDbEntity
  8
1
  6
solid
 62
     7
100
AcDbLine
 10
0.4322383604991203
 20
2.930528622863787
 30
0.0
 11
0.4137063837549353
 21
2.930528622863787
 31
0.0
  0
LINE
  5
113
330
A
100
AcDbEntity
  8
1
  6
solid
 62
     7
100
AcDbLine
 10
0.4137063837549353
 20
2.930528622863787
 30
0.0
 11
0.4137063837549353
 21
2.997170832166114
 31
0.0
  0
SPLINE
  5
114
330
A
100
AcDbEntity
  8
1
  6
solid
 62
     7
100
AcDbSpline
210
0.0
220
0.0
230
1.0
 70
     8
 71
     2
 72
     6
 73
     3
 74
     0
 42
0.0000000001
 43
0.0000000001
 40
0.0
 40
0.0
 40
0.0
 40
1.0
 40
1.0
 40
1.0
 10
0.4137063837549353
 20
2.997170832166114
 30
0.0
 10
0.4039623139874933
 20
2.986548739142858
 30
0.0
 10
0.3908139418944696
 20
2.981764087980067
 30
0.0
  0
LINE
  5
115
330
A
100
AcDbEntity
  8
1
  6
solid
 62
     7
100
AcDbLine
 10
0.3908139418944696
 20
2.981764087980067
 30
0.0
 11
0.3908139418944696
 21
3.000296064724253
 31
0.0
  0
SPLINE
  5
116
330
A
100
AcDbEntity
  8
1
  6
solid
 62
     7
100
AcDbSpline
210
0.0
220
0.0
230
1.0
 70
     8
 71
     2
 72
     7
 73
     4
 74
     0
 42
0.0000000001
 43
0.0000000001
 40
0.0
 40
0.0
 40
0.0
 40
1.0
 40
2.0
 40
2.0
 40
2.0
 10
0.3908139418944696
 20
3.000296064724253
 30
0.0
 10
0.3977006860805159
 20
3.002576762398672
 30
0.0
 10
0.4142198721270272
 20
3.015591181003322
 30
0.0
 10
0.4173674302665625
 20
3.024278622863787
 30
0.0
  0
LINE
  5
117
330
A
100
AcDbEntity
  8
1
  6
solid
 62
     7
100
AcDbLine
 10
0.4173674302665625
 20
3.024278622863787
 30
0.0
 11
0.4322383604991203
 21
3.024278622863787
 31
0.0
  0
LINE
  5
118
330
A
100
AcDbEntity
  8
1
  6
solid
 62
     7
100
AcDbLine
 10
0.4322383604991203
 20
2.930528622863787
 30
0.0
 11
0.4322383604991203
 21
3.024278622863787
 31
0.0
  0
LINE
  5
119
330
A
100
AcDbEntity
  8
1
  6
solid
 62
     7
100
AcDbLine
 10
0.4481470814293536
 20
2.930528622863787
 30
0.0
 11
0.469960569801446
 21
3.024278622863787
 31
0.0
  0
LINE
  5
11A
330
A
100
AcDbEntity
  8
1
  6
solid
 62
     7
100
AcDbLine
 10
0.469960569801446
 20
3.024278622863787
 30
0.0
 11
0.4847421977084232
 21
3.024278622863787
 31
0.0
  0
LINE
  5
11B
330
A
100
AcDbEntity
  8
1
  6
solid
 62
     7
100
AcDbLine
 10
0.4847421977084232
 20
3.024278622863787
 30
0.0
 11
0.4629398721270271
 21
2.930528622863787
 31
0.0
  0
LINE
  5
11C
330
A
100
AcDbEntity
  8
1
  6
solid
 62
     7
100
AcDbLine
 10
0.4481470814293536
 20
2.930528622863787
 30
0.0
 11
0.4629398721270271
 21
2.930528622863787
 31
0.0
  0
LINE
  5
11D
330
A
100
AcDbEntity
  8
1
  6
solid
 62
     7
100
AcDbLine
 10
0.5426966163130742
 20
2.930528622863787
 30
0.0
 11
0.5241646395688889
 21
2.930528622863787
 31
0.0
  0
LINE
  5
11E
330
A
100
AcDbEntity
  8
1
  6
solid
 62
     7
100
AcDbLine
 10
0.5241646395688889
 20
2.930528622863787
 30
0.0
 11
0.5241646395688889
 21
2.997170832166114
 31
0.0
  0
SPLINE
  5
11F
330
A
100
AcDbEntity
  8
1
  6
solid
 62
     7
100
AcDbSpline
210
0.0
220
0.0
230
1.0
 70
     8
 71
     2
 72
     6
 73
     3
 74
     0
 42
0.0000000001
 43
0.0000000001
 40
0.0
 40
0.0
 40
0.0
 40
1.0
 40
1.0
 40
1.0
 10
0.5241646395688889
 20
2.997170832166114
 30
0.0
 10
0.5144205698014459
 20
2.986548739142858
 30
0.0
 10
0.5012721977084232
 20
2.981764087980067
 30
0.0
  0
LINE
  5
120
330
A
100
AcDbEntity
  8
1
  6
solid
 62
     7
100
AcDbLine
 10
0.5012721977084232
 20
2.981764087980067
 30
0.0
 11
0.5012721977084232
 21
3.000296064724253
 31
0.0
  0
SPLINE
  5
121
330
A
100
AcDbEntity
  8
1
  6
solid
 62
     7
100
AcDbSpline
210
0.0
220
0.0
230
1.0
 70
     8
 71
     2
 72
     7
 73
     4
 74
     0
 42
0.0000000001
 43
0.0000000001
 40
0.0
 40
0.0
 40
0.0
 40
1.0
 40
2.0
 40
2.0
 40
2.0
 10
0.5012721977084232
 20
3.000296064724253
 30
0.0
 10
0.5081589418944699
 20
3.002576762398672
 30
0.0
 10
0.5246781279409812
 20
3.015591181003322
 30
0.0
 10
0.527825686080516
 20
3.024278622863787
 30
0.0
  0
LINE
  5
122
330
A
100
AcDbEntity
  8
1
  6
solid
 62
     7
100
AcDbLine
 10
0.527825686080516
 20
3.024278622863787
 30
0.0
 11
0.5426966163130742
 21
3.024278622863787
 31
0.0
  0
LINE
  5
123
330
A
100
AcDbEntity
  8
1
  6
solid
 62
     7
100
AcDbLine
 10
0.5426966163130742
 20
2.930528622863787
 30
0.0
 11
0.5426966163130742
 21
3.024278622863787
 31
0.0
  0
LINE
  5
124
330
A
100
AcDbEntity
  8
1
  6
solid
 62
     7
100
AcDbLine
 10
0.6191830116619111
 20
2.99870746007309
 30
0.0
 11
0.6006510349177248
 21
2.997025715887043
 31
0.0
  0
SPLINE
  5
125
330
A
100
AcDbEntity
  8
1
  6
solid
 62
     7
100
AcDbSpline
210
0.0
220
0.0
230
1.0
 70
     8
 71
     2
 72
     7
 73
     4
 74
     0
 42
0.0000000001
 43
0.0000000001
 40
0.0
 40
0.0
 40
0.0
 40
1.0
 40
2.0
 40
2.0
 40
2.0
 10
0.6006510349177248
 20
2.997025715887043
 30
0.0
 10
0.5998623139874937
 20
3.002565599607974
 30
0.0
 10
0.5945456860805161
 20
3.007926878677742
 30
0.0
 10
0.5902968488712133
 20
3.007926878677742
 30
0.0
  0
SPLINE
  5
126
330
A
100
AcDbEntity
  8
1
  6
solid
 62
     7
100
AcDbSpline
210
0.0
220
0.0
230
1.0
 70
     8
 71
     2
 72
     7
 73
     4
 74
     0
 42
0.0000000001
 43
0.0000000001
 40
0.0
 40
0.0
 40
0.0
 40
1.0
 40
2.0
 40
2.0
 40
2.0
 10
0.5902968488712133
 20
3.007926878677742
 30
0.0
 10
0.5847792907316789
 20
3.007926878677742
 30
0.0
 10
0.5771149884060974
 20
2.997048041468438
 30
0.0
 10
0.5760806860805161
 20
2.980108506584717
 30
0.0
  0
SPLINE
  5
127
330
A
100
AcDbEntity
  8
1
  6
solid
 62
     7
100
AcDbSpline
210
0.0
220
0.0
230
1.0
 70
     8
 71
     2
 72
     6
 73
     3
 74
     0
 42
0.0000000001
 43
0.0000000001
 40
0.0
 40
0.0
 40
0.0
 40
1.0
 40
1.0
 40
1.0
 10
0.5760806860805161
 20
2.980108506584717
 30
0.0
 10
0.5832091744526094
 20
2.988304785654485
 30
0.0
 10
0.5932881279409812
 20
2.988304785654485
 30
0.0
  0
SPLINE
  5
128
330
A
100
AcDbEntity
  8
1
  6
solid
 62
     7
100
AcDbSpline
210
0.0
220
0.0
230
1.0
 70
     8
 71
     2
 72
     7
 73
     4
 74
     0
 42
0.0000000001
 43
0.0000000001
 40
0.0
 40
0.0
 40
0.0
 40
1.0
 40
2.0
 40
2.0
 40
2.0
 10
0.5932881279409812
 20
2.988304785654485
 30
0.0
 10
0.6045911511967952
 20
2.988304785654485
 30
0.0
 10
0.621363244220051
 20
2.972086994956811
 30
0.0
 10
0.621363244220051
 20
2.959206529840532
 30
0.0
  0
SPLINE
  5
129
330
A
100
AcDbEntity
  8
1
  6
solid
 62
     7
100
AcDbSpline
210
0.0
220
0.0
230
1.0
 70
     8
 71
     2
 72
     7
 73
     4
 74
     0
 42
0.0000000001
 43
0.0000000001
 40
0.0
 40
0.0
 40
0.0
 40
1.0
 40
2.0
 40
2.0
 40
2.0
 10
0.621363244220051
 20
2.959206529840532
 30
0.0
 10
0.621363244220051
 20
2.945812576352159
 30
0.0
 10
0.6043678953828411
 20
2.929438506584717
 30
0.0
 10
0.5912530116619111
 20
2.929438506584717
 30
0.0
  0
SPLINE
  5
12A
330
A
100
AcDbEntity
  8
1
  6
solid
 62
     7
100
AcDbSpline
210
0.0
220
0.0
230
1.0
 70
     8
 71
     2
 72
     7
 73
     4
 74
     0
 42
0.0000000001
 43
0.0000000001
 40
0.0
 40
0.0
 40
0.0
 40
1.0
 40
2.0
 40
2.0
 40
2.0
 10
0.5912530116619111
 20
2.929438506584717
 30
0.0
 10
0.5771373139874938
 20
2.929438506584717
 30
0.0
 10
0.5592266163130742
 20
2.951274320538207
 30
0.0
 10
0.5592266163130742
 20
2.975859669375416
 30
0.0
  0
SPLINE
  5
12B
330
A
100
AcDbEntity
  8
1
  6
solid
 62
     7
100
AcDbSpline
210
0.0
220
0.0
230
1.0
 70
     8
 71
     2
 72
     7
 73
     4
 74
     0
 42
0.0000000001
 43
0.0000000001
 40
0.0
 40
0.0
 40
0.0
 40
1.0
 40
2.0
 40
2.0
 40
2.0
 10
0.5592266163130742
 20
2.975859669375416
 30
0.0
 10
0.5592266163130742
 20
3.001609436817275
 30
0.0
 10
0.5779148721270282
 20
3.024278622863787
 30
0.0
 10
0.5926221977084234
 20
3.024278622863787
 30
0.0
  0
SPLINE
  5
12C
330
A
100
AcDbEntity
  8
1
  6
solid
 62
     7
100
AcDbSpline
210
0.0
220
0.0
230
1.0
 70
     8
 71
     2
 72
     7
 73
     4
 74
     0
 42
0.0000000001
 43
0.0000000001
 40
0.0
 40
0.0
 40
0.0
 40
1.0
 40
2.0
 40
2.0
 40
2.0
 10
0.5926221977084234
 20
3.024278622863787
 30
0.0
 10
0.603266616313074
 20
3.024278622863787
 30
0.0
 10
0.6171925465456325
 20
3.011286529840532
 30
0.0
 10
0.6191830116619111
 20
2.99870746007309
 30
0.0
  0
SPLINE
  5
12D
330
A
100
AcDbEntity
  8
1
  6
solid
 62
     7
100
AcDbSpline
210
0.0
220
0.0
230
1.0
 70
     8
 71
     2
 72
     7
 73
     4
 74
     0
 42
0.0000000001
 43
0.0000000001
 40
0.0
 40
0.0
 40
0.0
 40
1.0
 40
2.0
 40
2.0
 40
2.0
 10
0.57775859305726
 20
2.959429785654485
 30
0.0
 10
0.57775859305726
 20
2.952799785654486
 30
0.0
 10
0.5857131279409811
 20
2.945790250770764
 30
0.0
 10
0.5910074302665618
 20
2.945790250770764
 30
0.0
  0
SPLINE
  5
12E
330
A
100
AcDbEntity
  8
1
  6
solid
 62
     7
100
AcDbSpline
210
0.0
220
0.0
230
1.0
 70
     8
 71
     2
 72
     7
 73
     4
 74
     0
 42
0.0000000001
 43
0.0000000001
 40
0.0
 40
0.0
 40
0.0
 40
1.0
 40
2.0
 40
2.0
 40
2.0
 10
0.5910074302665618
 20
2.945790250770764
 30
0.0
 10
0.595803244220051
 20
2.945790250770764
 30
0.0
 10
0.6028312674758652
 20
2.951564553096345
 30
0.0
 10
0.6028312674758652
 20
2.958261529840532
 30
0.0
  0
SPLINE
  5
12F
330
A
100
AcDbEntity
  8
1
  6
solid
 62
     7
100
AcDbSpline
210
0.0
220
0.0
230
1.0
 70
     8
 71
     2
 72
     7
 73
     4
 74
     0
 42
0.0000000001
 43
0.0000000001
 40
0.0
 40
0.0
 40
0.0
 40
1.0
 40
2.0
 40
2.0
 40
2.0
 10
0.6028312674758652
 20
2.958261529840532
 30
0.0
 10
0.6028312674758652
 20
2.96545699495681
 30
0.0
 10
0.5954683604991198
 20
2.971953041468439
 30
0.0
 10
0.5900401046851669
 20
2.971953041468439
 30
0.0
  0
SPLINE
  5
130
330
A
100
AcDbEntity
  8
1
  6
solid
 62
     7
100
AcDbSpline
210
0.0
220
0.0
230
1.0
 70
     8
 71
     2
 72
     7
 73
     4
 74
     0
 42
0.0000000001
 43
0.0000000001
 40
0.0
 40
0.0
 40
0.0
 40
1.0
 40
2.0
 40
2.0
 40
2.0
 10
0.5900401046851669
 20
2.971953041468439
 30
0.0
 10
0.5847458023595862
 20
2.971953041468439
 30
0.0
 10
0.57775859305726
 20
2.965646762398672
 30
0.0
 10
0.57775859305726
 20
2.959429785654485
 30
0.0
  0
LINE
  5
131
330
A
100
AcDbEntity
  8
1
  6
solid
 62
     7
100
AcDbLine
 10
0.6558705698014462
 20
2.930528622863787
 30
0.0
 11
0.6882168488712144
 21
2.979795948445183
 31
0.0
  0
LINE
  5
132
330
A
100
AcDbEntity
  8
1
  6
solid
 62
     7
100
AcDbLine
 10
0.6882168488712144
 20
2.979795948445183
 30
0.0
 11
0.6591409186386552
 21
3.024278622863787
 31
0.0
  0
LINE
  5
133
330
A
100
AcDbEntity
  8
1
  6
solid
 62
     7
100
AcDbLine
 10
0.6591409186386552
 20
3.024278622863787
 30
0.0
 11
0.6809320814293534
 21
3.024278622863787
 31
0.0
  0
LINE
  5
134
330
A
100
AcDbEntity
  8
1
  6
solid
 62
     7
100
AcDbLine
 10
0.6809320814293534
 20
3.024278622863787
 30
0.0
 11
0.6991180116619114
 21
2.996404436817275
 31
0.0
  0
LINE
  5
135
330
A
100
AcDbEntity
  8
1
  6
solid
 62
     7
100
AcDbLine
 10
0.6991180116619114
 20
2.996404436817275
 30
0.0
 11
0.7169170814293535
 21
3.024278622863787
 31
0.0
  0
LINE
  5
136
330
A
100
AcDbEntity
  8
1
  6
solid
 62
     7
100
AcDbLine
 10
0.7169170814293535
 20
3.024278622863787
 30
0.0
 11
0.7387194070107493
 21
3.024278622863787
 31
0.0
  0
LINE
  5
137
330
A
100
AcDbEntity
  8
1
  6
solid
 62
     7
100
AcDbLine
 10
0.7387194070107493
 20
3.024278622863787
 30
0.0
 11
0.7100191744526092
 21
2.979795948445183
 31
0.0
  0
LINE
  5
138
330
A
100
AcDbEntity
  8
1
  6
solid
 62
     7
100
AcDbLine
 10
0.7100191744526092
 20
2.979795948445183
 30
0.0
 11
0.7419897558479583
 21
2.930528622863787
 31
0.0
  0
LINE
  5
139
330
A
100
AcDbEntity
  8
1
  6
solid
 62
     7
100
AcDbLine
 10
0.7419897558479583
 20
2.930528622863787
 30
0.0
 11
0.7201874302665621
 21
2.930528622863787
 31
0.0
  0
LINE
  5
13A
330
A
100
AcDbEntity
  8
1
  6
solid
 62
     7
100
AcDbLine
 10
0.7201874302665621
 20
2.930528622863787
 30
0.0
 11
0.6991180116619114
 21
2.962822925189369
 31
0.0
  0
LINE
  5
13B
330
A
100
AcDbEntity
  8
1
  6
solid
 62
     7
100
AcDbLine
 10
0.6991180116619114
 20
2.962822925189369
 30
0.0
 11
0.6776617325921444
 21
2.930528622863787
 31
0.0
  0
LINE
  5
13C
330
A
100
AcDbEntity
  8
1
  6
solid
 62
     7
100
AcDbLine
 10
0.6558705698014462
 20
2.930528622863787
 30
0.0
 11
0.6776617325921444
 21
2.930528622863787
 31
0.0
  0
LINE
  5
13D
330
A
100
AcDbEntity
  8
1
  6
solid
 62
     7
100
AcDbLine
 10
0.7768727791037718
 20
2.957781529840532
 30
0.0
 11
0.7954047558479585
 21
2.959961762398672
 31
0.0
  0
SPLINE
  5
13E
330
A
100
AcDbEntity
  8
1
  6
solid
 62
     7
100
AcDbSpline
210
0.0
220
0.0
230
1.0
 70
     8
 71
     2
 72
     7
 73
     4
 74
     0
 42
0.0000000001
 43
0.0000000001
 40
0.0
 40
0.0
 40
0.0
 40
1.0
 40
2.0
 40
2.0
 40
2.0
 10
0.7954047558479585
 20
2.959961762398672
 30
0.0
 10
0.7959182442200512
 20
2.95282211123588
 30
0.0
 10
0.803080220964237
 20
2.945790250770764
 30
0.0
 10
0.8077978953828424
 20
2.945790250770764
 30
0.0
  0
SPLINE
  5
13F
330
A
100
AcDbEntity
  8
1
  6
solid
 62
     7
100
AcDbSpline
210
0.0
220
0.0
230
1.0
 70
     8
 71
     2
 72
     7
 73
     4
 74
     0
 42
0.0000000001
 43
0.0000000001
 40
0.0
 40
0.0
 40
0.0
 40
1.0
 40
2.0
 40
2.0
 40
2.0
 10
0.8077978953828424
 20
2.945790250770764
 30
0.0
 10
0.8131256860805162
 20
2.945790250770764
 30
0.0
 10
0.8204774302665637
 20
2.953023041468439
 30
0.0
 10
0.8204774302665637
 20
2.959496762398672
 30
0.0
  0
SPLINE
  5
140
330
A
100
AcDbEntity
  8
1
  6
solid
 62
     7
100
AcDbSpline
210
0.0
220
0.0
230
1.0
 70
     8
 71
     2
 72
     7
 73
     4
 74
     0
 42
0.0000000001
 43
0.0000000001
 40
0.0
 40
0.0
 40
0.0
 40
1.0
 40
2.0
 40
2.0
 40
2.0
 10
0.8204774302665637
 20
2.959496762398672
 30
0.0
 10
0.8204774302665637
 20
2.965736064724252
 30
0.0
 10
0.8139590581735403
 20
2.973043157747509
 30
0.0
 10
0.8090219651502831
 20
2.973043157747509
 30
0.0
  0
SPLINE
  5
141
330
A
100
AcDbEntity
  8
1
  6
solid
 62
     7
100
AcDbSpline
210
0.0
220
0.0
230
1.0
 70
     8
 71
     2
 72
     6
 73
     3
 74
     0
 42
0.0000000001
 43
0.0000000001
 40
0.0
 40
0.0
 40
0.0
 40
1.0
 40
1.0
 40
1.0
 10
0.8090219651502831
 20
2.973043157747509
 30
0.0
 10
0.8058744070107493
 20
2.973043157747509
 30
0.0
 10
0.8019454535223768
 20
2.971409901933554
 30
0.0
  0
LINE
  5
142
330
A
100
AcDbEntity
  8
1
  6
solid
 62
     7
100
AcDbLine
 10
0.8019454535223768
 20
2.971409901933554
 30
0.0
 11
0.8034039418944697
 21
2.987214669375416
 31
0.0
  0
SPLINE
  5
143
330
A
100
AcDbEntity
  8
1
  6
solid
 62
     7
100
AcDbSpline
210
0.0
220
0.0
230
1.0
 70
     8
 71
     2
 72
     7
 73
     4
 74
     0
 42
0.0000000001
 43
0.0000000001
 40
0.0
 40
0.0
 40
0.0
 40
1.0
 40
2.0
 40
2.0
 40
2.0
 10
0.8034039418944697
 20
2.987214669375416
 30
0.0
 10
0.8096544070107491
 20
2.986705018212624
 30
0.0
 10
0.8161169651502842
 20
2.993033622863787
 30
0.0
 10
0.8161169651502842
 20
2.998283274026579
 30
0.0
  0
SPLINE
  5
144
330
A
100
AcDbEntity
  8
1
  6
solid
 62
     7
100
AcDbSpline
210
0.0
220
0.0
230
1.0
 70
     8
 71
     2
 72
     7
 73
     4
 74
     0
 42
0.0000000001
 43
0.0000000001
 40
0.0
 40
0.0
 40
0.0
 40
1.0
 40
2.0
 40
2.0
 40
2.0
 10
0.8161169651502842
 20
2.998283274026579
 30
0.0
 10
0.8161169651502842
 20
3.002643739142857
 30
0.0
 10
0.8111463837549353
 20
3.007926878677742
 30
0.0
 10
0.8074630116619111
 20
3.007926878677742
 30
0.0
  0
SPLINE
  5
145
330
A
100
AcDbEntity
  8
1
  6
solid
 62
     7
100
AcDbSpline
210
0.0
220
0.0
230
1.0
 70
     8
 71
     2
 72
     7
 73
     4
 74
     0
 42
0.0000000001
 43
0.0000000001
 40
0.0
 40
0.0
 40
0.0
 40
1.0
 40
2.0
 40
2.0
 40
2.0
 10
0.8074630116619111
 20
3.007926878677742
 30
0.0
 10
0.803426267475865
 20
3.007926878677742
 30
0.0
 10
0.7979756860805161
 20
3.001665250770765
 30
0.0
 10
0.7975849884060989
 20
2.995935599607974
 30
0.0
  0
LINE
  5
146
330
A
100
AcDbEntity
  8
1
  6
solid
 62
     7
100
AcDbLine
 10
0.7975849884060989
 20
2.995935599607974
 30
0.0
 11
0.7790530116619112
 21
2.998450715887043
 31
0.0
  0
SPLINE
  5
147
330
A
100
AcDbEntity
  8
1
  6
solid
 62
     7
100
AcDbSpline
210
0.0
220
0.0
230
1.0
 70
     8
 71
     2
 72
     8
 73
     5
 74
     0
 42
0.0000000001
 43
0.0000000001
 40
0.0
 40
0.0
 40
0.0
 40
1.0
 40
2.0
 40
3.0
 40
3.0
 40
3.0
 10
0.7790530116619112
 20
2.998450715887043
 30
0.0
 10
0.7805338256154002
 20
3.007294436817277
 30
0.0
 10
0.7872642907316792
 20
3.018028157747509
 30
0.0
 10
0.7997875465456321
 20
3.024278622863787
 30
0.0
 10
0.8070091744526092
 20
3.024278622863787
 30
0.0
  0
SPLINE
  5
148
330
A
100
AcDbEntity
  8
1
  6
solid
 62
     7
100
AcDbSpline
210
0.0
220
0.0
230
1.0
 70
     8
 71
     2
 72
     6
 73
     3
 74
     0
 42
0.0000000001
 43
0.0000000001
 40
0.0
 40
0.0
 40
0.0
 40
1.0
 40
1.0
 40
1.0
 10
0.8070091744526092
 20
3.024278622863787
 30
0.0
 10
0.8200235930572601
 20
3.024278622863787
 30
0.0
 10
0.8281640581735402
 20
3.015702808910299
 30
0.0
  0
SPLINE
  5
149
330
A
100
AcDbEntity
  8
1
  6
solid
 62
     7
100
AcDbSpline
210
0.0
220
0.0
230
1.0
 70
     8
 71
     2
 72
     6
 73
     3
 74
     0
 42
0.0000000001
 43
0.0000000001
 40
0.0
 40
0.0
 40
0.0
 40
1.0
 40
1.0
 40
1.0
 10
0.8281640581735402
 20
3.015702808910299
 30
0.0
 10
0.8346489418944699
 20
3.008518506584717
 30
0.0
 10
0.8346489418944699
 20
2.999786413561461
 30
0.0
  0
SPLINE
  5
14A
330
A
100
AcDbEntity
  8
1
  6
solid
 62
     7
100
AcDbSpline
210
0.0
220
0.0
230
1.0
 70
     8
 71
     2
 72
     6
 73
     3
 74
     0
 42
0.0000000001
 43
0.0000000001
 40
0.0
 40
0.0
 40
0.0
 40
1.0
 40
1.0
 40
1.0
 10
0.8346489418944699
 20
2.999786413561461
 30
0.0
 10
0.8346489418944699
 20
2.987504901933554
 30
0.0
 10
0.8206783604991212
 20
2.980030367049834
 30
0.0
  0
SPLINE
  5
14B
330
A
100
AcDbEntity
  8
1
  6
solid
 62
     7
100
AcDbSpline
210
0.0
220
0.0
230
1.0
 70
     8
 71
     2
 72
     7
 73
     4
 74
     0
 42
0.0000000001
 43
0.0000000001
 40
0.0
 40
0.0
 40
0.0
 40
1.0
 40
2.0
 40
2.0
 40
2.0
 10
0.8206783604991212
 20
2.980030367049834
 30
0.0
 10
0.8287445232898193
 20
2.978549553096345
 30
0.0
 10
0.8390094070107494
 20
2.966714553096346
 30
0.0
 10
0.8390094070107494
 20
2.958261529840532
 30
0.0
  0
SPLINE
  5
14C
330
A
100
AcDbEntity
  8
1
  6
solid
 62
     7
100
AcDbSpline
210
0.0
220
0.0
230
1.0
 70
     8
 71
     2
 72
     7
 73
     4
 74
     0
 42
0.0000000001
 43
0.0000000001
 40
0.0
 40
0.0
 40
0.0
 40
1.0
 40
2.0
 40
2.0
 40
2.0
 10
0.8390094070107494
 20
2.958261529840532
 30
0.0
 10
0.8390094070107494
 20
2.946214436817277
 30
0.0
 10
0.8208346395688884
 20
2.929438506584717
 30
0.0
 10
0.8075411511967951
 20
2.929438506584717
 30
0.0
  0
SPLINE
  5
14D
330
A
100
AcDbEntity
  8
1
  6
solid
 62
     7
100
AcDbSpline
210
0.0
220
0.0
230
1.0
 70
     8
 71
     2
 72
     7
 73
     4
 74
     0
 42
0.0000000001
 43
0.0000000001
 40
0.0
 40
0.0
 40
0.0
 40
1.0
 40
2.0
 40
2.0
 40
2.0
 10
0.8075411511967951
 20
2.929438506584717
 30
0.0
 10
0.7947165000340042
 20
2.929438506584717
 30
0.0
 10
0.7781303372433071
 20
2.944968041468438
 30
0.0
 10
0.7768727791037718
 20
2.957781529840532
 30
0.0
  0
LINE
  5
14E
330
A
100
AcDbEntity
  8
1
  6
solid
 62
     7
100
AcDbLine
 10
0.8555394070107492
 20
2.955601297282393
 30
0.0
 11
0.8555394070107492
 21
2.971953041468439
 31
0.0
  0
LINE
  5
14F
330
A
100
AcDbEntity
  8
1
  6
solid
 62
     7
100
AcDbLine
 10
0.8555394070107492
 20
2.971953041468439
 30
0.0
 11
0.891513244220051
 21
2.971953041468439
 31
0.0
  0
LINE
  5
150
330
A
100
AcDbEntity
  8
1
  6
solid
 62
     7
100
AcDbLine
 10
0.891513244220051
 20
2.971953041468439
 30
0.0
 11
0.891513244220051
 21
2.955601297282393
 31
0.0
  0
LINE
  5
151
330
A
100
AcDbEntity
  8
1
  6
solid
 62
     7
100
AcDbLine
 10
0.8555394070107492
 20
2.955601297282393
 30
0.0
 11
0.891513244220051
 21
2.955601297282393
 31
0.0
  0
LINE
  5
152
330
A
100
AcDbEntity
  8
1
  6
solid
 62
     7
100
AcDbLine
 10
0.908043244220051
 20
2.957904320538207
 30
0.0
 11
0.9243949884060986
 21
2.959961762398672
 31
0.0
  0
SPLINE
  5
153
330
A
100
AcDbEntity
  8
1
  6
solid
 62
     7
100
AcDbSpline
210
0.0
220
0.0
230
1.0
 70
     8
 71
     2
 72
     7
 73
     4
 74
     0
 42
0.0000000001
 43
0.0000000001
 40
0.0
 40
0.0
 40
0.0
 40
1.0
 40
2.0
 40
2.0
 40
2.0
 10
0.9243949884060986
 20
2.959961762398672
 30
0.0
 10
0.9249308023595862
 20
2.953421064724253
 30
0.0
 10
0.9331940581735395
 20
2.945790250770764
 30
0.0
 10
0.9381238256154
 20
2.945790250770764
 30
0.0
  0
SPLINE
  5
154
330
A
100
AcDbEntity
  8
1
  6
solid
 62
     7
100
AcDbSpline
210
0.0
220
0.0
230
1.0
 70
     8
 71
     2
 72
     7
 73
     4
 74
     0
 42
0.0000000001
 43
0.0000000001
 40
0.0
 40
0.0
 40
0.0
 40
1.0
 40
2.0
 40
2.0
 40
2.0
 10
0.9381238256154
 20
2.945790250770764
 30
0.0
 10
0.9442961511967951
 20
2.945790250770764
 30
0.0
 10
0.952738011661912
 20
2.953000715887044
 30
0.0
 10
0.952738011661912
 20
2.960609204259137
 30
0.0
  0
SPLINE
  5
155
330
A
100
AcDbEntity
  8
1
  6
solid
 62
     7
100
AcDbSpline
210
0.0
220
0.0
230
1.0
 70
     8
 71
     2
 72
     7
 73
     4
 74
     0
 42
0.0000000001
 43
0.0000000001
 40
0.0
 40
0.0
 40
0.0
 40
1.0
 40
2.0
 40
2.0
 40
2.0
 10
0.952738011661912
 20
2.960609204259137
 30
0.0
 10
0.952738011661912
 20
2.967916297282393
 30
0.0
 10
0.9452746395688883
 20
2.975223390305649
 30
0.0
 10
0.9391469651502832
 20
2.975223390305649
 30
0.0
  0
SPLINE
  5
156
330
A
100
AcDbEntity
  8
1
  6
solid
 62
     7
100
AcDbSpline
210
0.0
220
0.0
230
1.0
 70
     8
 71
     2
 72
     6
 73
     3
 74
     0
 42
0.0000000001
 43
0.0000000001
 40
0.0
 40
0.0
 40
0.0
 40
1.0
 40
1.0
 40
1.0
 10
0.9391469651502832
 20
2.975223390305649
 30
0.0
 10
0.932059290731679
 20
2.975223390305649
 30
0.0
 10
0.9259762674758649
 20
2.968682692631229
 30
0.0
  0
LINE
  5
157
330
A
100
AcDbEntity
  8
1
  6
solid
 62
     7
100
AcDbLine
 10
0.9259762674758649
 20
2.968682692631229
 30
0.0
 11
0.9102234767781913
 21
2.970375599607974
 31
0.0
  0
LINE
  5
158
330
A
100
AcDbEntity
  8
1
  6
solid
 62
     7
100
AcDbLine
 10
0.9102234767781913
 20
2.970375599607974
 30
0.0
 11
0.9211246395688888
 21
3.023188506584717
 31
0.0
  0
LINE
  5
159
330
A
100
AcDbEntity
  8
1
  6
solid
 62
     7
100
AcDbLine
 10
0.9211246395688888
 20
3.023188506584717
 30
0.0
 11
0.9669095232898193
 21
3.023188506584717
 31
0.0
  0
LINE
  5
15A
330
A
100
AcDbEntity
  8
1
  6
solid
 62
     7
100
AcDbLine
 10
0.9669095232898193
 20
3.023188506584717
 30
0.0
 11
0.9669095232898193
 21
3.004656529840532
 31
0.0
  0
LINE
  5
15B
330
A
100
AcDbEntity
  8
1
  6
solid
 62
     7
100
AcDbLine
 10
0.9669095232898193
 20
3.004656529840532
 30
0.0
 11
0.9357315000340049
 21
3.004656529840532
 31
0.0
  0
LINE
  5
15C
330
A
100
AcDbEntity
  8
1
  6
solid
 62
     7
100
AcDbLine
 10
0.9357315000340049
 20
3.004656529840532
 30
0.0
 11
0.9321485930572613
 21
2.987594204259137
 31
0.0
  0
SPLINE
  5
15D
330
A
100
AcDbEntity
  8
1
  6
solid
 62
     7
100
AcDbSpline
210
0.0
220
0.0
230
1.0
 70
     8
 71
     2
 72
     6
 73
     3
 74
     0
 42
0.0000000001
 43
0.0000000001
 40
0.0
 40
0.0
 40
0.0
 40
1.0
 40
1.0
 40
1.0
 10
0.9321485930572613
 20
2.987594204259137
 30
0.0
 10
0.9377889418944697
 20
2.991575134491695
 30
0.0
 10
0.9435967325921446
 20
2.991575134491695
 30
0.0
  0
SPLINE
  5
15E
330
A
100
AcDbEntity
  8
1
  6
solid
 62
     7
100
AcDbSpline
210
0.0
220
0.0
230
1.0
 70
     8
 71
     2
 72
     7
 73
     4
 74
     0
 42
0.0000000001
 43
0.0000000001
 40
0.0
 40
0.0
 40
0.0
 40
1.0
 40
2.0
 40
2.0
 40
2.0
 10
0.9435967325921446
 20
2.991575134491695
 30
0.0
 10
0.9552196395688884
 20
2.991575134491695
 30
0.0
 10
0.9712699884060986
 20
2.974557460073089
 30
0.0
 10
0.9712699884060986
 20
2.961263971700997
 30
0.0
  0
SPLINE
  5
15F
330
A
100
AcDbEntity
  8
1
  6
solid
 62
     7
100
AcDbSpline
210
0.0
220
0.0
230
1.0
 70
     8
 71
     2
 72
     6
 73
     3
 74
     0
 42
0.0000000001
 43
0.0000000001
 40
0.0
 40
0.0
 40
0.0
 40
1.0
 40
1.0
 40
1.0
 10
0.9712699884060986
 20
2.961263971700997
 30
0.0
 10
0.9712699884060986
 20
2.950173041468438
 30
0.0
 10
0.9642308023595859
 20
2.941042925189369
 30
0.0
  0
SPLINE
  5
160
330
A
100
AcDbEntity
  8
1
  6
solid
 62
     7
100
AcDbSpline
210
0.0
220
0.0
230
1.0
 70
     8
 71
     2
 72
     6
 73
     3
 74
     0
 42
0.0000000001
 43
0.0000000001
 40
0.0
 40
0.0
 40
0.0
 40
1.0
 40
1.0
 40
1.0
 10
0.9642308023595859
 20
2.941042925189369
 30
0.0
 10
0.9552084767781909
 20
2.929438506584717
 30
0.0
 10
0.9389013837549352
 20
2.929438506584717
 30
0.0
  0
SPLINE
  5
161
330
A
100
AcDbEntity
  8
1
  6
solid
 62
     7
100
AcDbSpline
210
0.0
220
0.0
230
1.0
 70
     8
 71
     2
 72
     7
 73
     4
 74
     0
 42
0.0000000001
 43
0.0000000001
 40
0.0
 40
0.0
 40
0.0
 40
1.0
 40
2.0
 40
2.0
 40
2.0
 10
0.9389013837549352
 20
2.929438506584717
 30
0.0
 10
0.9258646395688888
 20
2.929438506584717
 30
0.0
 10
0.9094682442200507
 20
2.944834087980067
 30
0.0
 10
0.908043244220051
 20
2.957904320538207
 30
0.0
  0
LINE
  5
162
330
A
100
AcDbEntity
  8
1
  6
solid
 62
     7
100
AcDbLine
 10
0.9871787093363298
 20
2.930528622863787
 30
0.0
 11
1.008992197708424
 21
3.024278622863787
 31
0.0
  0
LINE
  5
163
330
A
100
AcDbEntity
  8
1
  6
solid
 62
     7
100
AcDbLine
 10
1.008992197708424
 20
3.024278622863787
 30
0.0
 11
1.0237738256154
 21
3.024278622863787
 31
0.0
  0
LINE
  5
164
330
A
100
AcDbEntity
  8
1
  6
solid
 62
     7
100
AcDbLine
 10
1.0237738256154
 20
3.024278622863787
 30
0.0
 11
1.001971500034005
 21
2.930528622863787
 31
0.0
  0
LINE
  5
165
330
A
100
AcDbEntity
  8
1
  6
solid
 62
     7
100
AcDbLine
 10
0.9871787093363298
 20
2.930528622863787
 30
0.0
 11
1.001971500034005
 21
2.930528622863787
 31
0.0
  0
SPLINE
  5
166
330
A
100
AcDbEntity
  8
1
  6
solid
 62
     7
100
AcDbSpline
210
0.0
220
0.0
230
1.0
 70
     8
 71
     2
 72
     7
 73
     4
 74
     0
 42
0.0000000001
 43
0.0000000001
 40
0.0
 40
0.0
 40
0.0
 40
1.0
 40
2.0
 40
2.0
 40
2.0
 10
1.056655569801447
 20
2.980253622863787
 30
0.0
 10
1.04915870933633
 20
2.98331187867774
 30
0.0
 10
1.04248405817354
 20
2.993833506584717
 30
0.0
 10
1.04248405817354
 20
2.999752925189369
 30
0.0
  0
SPLINE
  5
167
330
A
100
AcDbEntity
  8
1
  6
solid
 62
     7
100
AcDbSpline
210
0.0
220
0.0
230
1.0
 70
     8
 71
     2
 72
     7
 73
     4
 74
     0
 42
0.0000000001
 43
0.0000000001
 40
0.0
 40
0.0
 40
0.0
 40
1.0
 40
2.0
 40
2.0
 40
2.0
 10
1.04248405817354
 20
2.999752925189369
 30
0.0
 10
1.04248405817354
 20
3.010397343794021
 30
0.0
 10
1.057224872127028
 20
3.024278622863787
 30
0.0
 10
1.071184290731679
 20
3.024278622863787
 30
0.0
  0
SPLINE
  5
168
330
A
100
AcDbEntity
  8
1
  6
solid
 62
     7
100
AcDbSpline
210
0.0
220
0.0
230
1.0
 70
     8
 71
     2
 72
     7
 73
     4
 74
     0
 42
0.0000000001
 43
0.0000000001
 40
0.0
 40
0.0
 40
0.0
 40
1.0
 40
2.0
 40
2.0
 40
2.0
 10
1.071184290731679
 20
3.024278622863787
 30
0.0
 10
1.085065569801447
 20
3.024278622863787
 30
0.0
 10
1.100260220964238
 20
3.010397343794021
 30
0.0
 10
1.100260220964238
 20
2.999752925189369
 30
0.0
  0
SPLINE
  5
169
330
A
100
AcDbEntity
  8
1
  6
solid
 62
     7
100
AcDbSpline
210
0.0
220
0.0
230
1.0
 70
     8
 71
     2
 72
     7
 73
     4
 74
     0
 42
0.0000000001
 43
0.0000000001
 40
0.0
 40
0.0
 40
0.0
 40
1.0
 40
2.0
 40
2.0
 40
2.0
 10
1.100260220964238
 20
2.999752925189369
 30
0.0
 10
1.100260220964238
 20
2.993212227514951
 30
0.0
 10
1.092718709336331
 20
2.983144436817277
 30
0.0
 10
1.085634872127028
 20
2.980253622863787
 30
0.0
  0
SPLINE
  5
16A
330
A
100
AcDbEntity
  8
1
  6
solid
 62
     7
100
AcDbSpline
210
0.0
220
0.0
230
1.0
 70
     8
 71
     2
 72
     7
 73
     4
 74
     0
 42
0.0000000001
 43
0.0000000001
 40
0.0
 40
0.0
 40
0.0
 40
1.0
 40
2.0
 40
2.0
 40
2.0
 10
1.085634872127028
 20
2.980253622863787
 30
0.0
 10
1.093931616313074
 20
2.97749292518937
 30
0.0
 10
1.102440453522376
 20
2.965646762398672
 30
0.0
 10
1.102440453522376
 20
2.957960134491695
 30
0.0
  0
SPLINE
  5
16B
330
A
100
AcDbEntity
  8
1
  6
solid
 62
     7
100
AcDbSpline
210
0.0
220
0.0
230
1.0
 70
     8
 71
     2
 72
     7
 73
     4
 74
     0
 42
0.0000000001
 43
0.0000000001
 40
0.0
 40
0.0
 40
0.0
 40
1.0
 40
2.0
 40
2.0
 40
2.0
 10
1.102440453522376
 20
2.957960134491695
 30
0.0
 10
1.102440453522376
 20
2.945124320538207
 30
0.0
 10
1.085489755847959
 20
2.929438506584717
 30
0.0
 10
1.07151917445261
 20
2.929438506584717
 30
0.0
  0
SPLINE
  5
16C
330
A
100
AcDbEntity
  8
1
  6
solid
 62
     7
100
AcDbSpline
210
0.0
220
0.0
230
1.0
 70
     8
 71
     2
 72
     6
 73
     3
 74
     0
 42
0.0000000001
 43
0.0000000001
 40
0.0
 40
0.0
 40
0.0
 40
1.0
 40
1.0
 40
1.0
 10
1.07151917445261
 20
2.929438506584717
 30
0.0
 10
1.058936267475865
 20
2.929438506584717
 30
0.0
 10
1.050315802359586
 20
2.936001529840532
 30
0.0
  0
SPLINE
  5
16D
330
A
100
AcDbEntity
  8
1
  6
solid
 62
     7
100
AcDbSpline
210
0.0
220
0.0
230
1.0
 70
     8
 71
     2
 72
     6
 73
     3
 74
     0
 42
0.0000000001
 43
0.0000000001
 40
0.0
 40
0.0
 40
0.0
 40
1.0
 40
1.0
 40
1.0
 10
1.050315802359586
 20
2.936001529840532
 30
0.0
 10
1.0403038256154
 20
2.943721646119602
 30
0.0
 10
1.0403038256154
 20
2.957093274026578
 30
0.0
  0
SPLINE
  5
16E
330
A
100
AcDbEntity
  8
1
  6
solid
 62
     7
100
AcDbSpline
210
0.0
220
0.0
230
1.0
 70
     8
 71
     2
 72
     7
 73
     4
 74
     0
 42
0.0000000001
 43
0.0000000001
 40
0.0
 40
0.0
 40
0.0
 40
1.0
 40
2.0
 40
2.0
 40
2.0
 10
1.0403038256154
 20
2.957093274026578
 30
0.0
 10
1.0403038256154
 20
2.96461246007309
 30
0.0
 10
1.048090918638656
 20
2.976905134491695
 30
0.0
 10
1.056655569801447
 20
2.980253622863787
 30
0.0
  0
SPLINE
  5
16F
330
A
100
AcDbEntity
  8
1
  6
solid
 62
     7
100
AcDbSpline
210
0.0
220
0.0
230
1.0
 70
     8
 71
     2
 72
     7
 73
     4
 74
     0
 42
0.0000000001
 43
0.0000000001
 40
0.0
 40
0.0
 40
0.0
 40
1.0
 40
2.0
 40
2.0
 40
2.0
 10
1.061016034917726
 20
2.998540018212624
 30
0.0
 10
1.061016034917726
 20
2.993089436817277
 30
0.0
 10
1.066578244220051
 20
2.987214669375416
 30
0.0
 10
1.071150802359587
 20
2.987214669375416
 30
0.0
  0
SPLINE
  5
170
330
A
100
AcDbEntity
  8
1
  6
solid
 62
     7
100
AcDbSpline
210
0.0
220
0.0
230
1.0
 70
     8
 71
     2
 72
     7
 73
     4
 74
     0
 42
0.0000000001
 43
0.0000000001
 40
0.0
 40
0.0
 40
0.0
 40
1.0
 40
2.0
 40
2.0
 40
2.0
 10
1.071150802359587
 20
2.987214669375416
 30
0.0
 10
1.075745686080516
 20
2.987214669375416
 30
0.0
 10
1.081728244220051
 20
2.993134087980067
 30
0.0
 10
1.081728244220051
 20
2.998584669375415
 30
0.0
  0
SPLINE
  5
171
330
A
100
AcDbEntity
  8
1
  6
solid
 62
     7
100
AcDbSpline
210
0.0
220
0.0
230
1.0
 70
     8
 71
     2
 72
     7
 73
     4
 74
     0
 42
0.0000000001
 43
0.0000000001
 40
0.0
 40
0.0
 40
0.0
 40
1.0
 40
2.0
 40
2.0
 40
2.0
 10
1.081728244220051
 20
2.998584669375415
 30
0.0
 10
1.081728244220051
 20
3.00381199495681
 30
0.0
 10
1.075790337243308
 20
3.01010711123588
 30
0.0
 10
1.071262430266563
 20
3.01010711123588
 30
0.0
  0
SPLINE
  5
172
330
A
100
AcDbEntity
  8
1
  6
solid
 62
     7
100
AcDbSpline
210
0.0
220
0.0
230
1.0
 70
     8
 71
     2
 72
     7
 73
     4
 74
     0
 42
0.0000000001
 43
0.0000000001
 40
0.0
 40
0.0
 40
0.0
 40
1.0
 40
2.0
 40
2.0
 40
2.0
 10
1.071262430266563
 20
3.01010711123588
 30
0.0
 10
1.066622895382841
 20
3.01010711123588
 30
0.0
 10
1.061016034917726
 20
3.00376734379402
 30
0.0
 10
1.061016034917726
 20
2.998540018212624
 30
0.0
  0
SPLINE
  5
173
330
A
100
AcDbEntity
  8
1
  6
solid
 62
     7
100
AcDbSpline
210
0.0
220
0.0
230
1.0
 70
     8
 71
     2
 72
     7
 73
     4
 74
     0
 42
0.0000000001
 43
0.0000000001
 40
0.0
 40
0.0
 40
0.0
 40
1.0
 40
2.0
 40
2.0
 40
2.0
 10
1.058835802359586
 20
2.958949785654485
 30
0.0
 10
1.058835802359586
 20
2.951564553096345
 30
0.0
 10
1.065867662824703
 20
2.943610018212624
 30
0.0
 10
1.071329407010749
 20
2.943610018212624
 30
0.0
  0
SPLINE
  5
174
330
A
100
AcDbEntity
  8
1
  6
solid
 62
     7
100
AcDbSpline
210
0.0
220
0.0
230
1.0
 70
     8
 71
     2
 72
     7
 73
     4
 74
     0
 42
0.0000000001
 43
0.0000000001
 40
0.0
 40
0.0
 40
0.0
 40
1.0
 40
2.0
 40
2.0
 40
2.0
 10
1.071329407010749
 20
2.943610018212624
 30
0.0
 10
1.076701848871214
 20
2.943610018212624
 30
0.0
 10
1.083908476778191
 20
2.951363622863787
 30
0.0
 10
1.083908476778191
 20
2.958451297282392
 30
0.0
  0
SPLINE
  5
175
330
A
100
AcDbEntity
  8
1
  6
solid
 62
     7
100
AcDbSpline
210
0.0
220
0.0
230
1.0
 70
     8
 71
     2
 72
     7
 73
     4
 74
     0
 42
0.0000000001
 43
0.0000000001
 40
0.0
 40
0.0
 40
0.0
 40
1.0
 40
2.0
 40
2.0
 40
2.0
 10
1.083908476778191
 20
2.958451297282392
 30
0.0
 10
1.083908476778191
 20
2.964913855421927
 30
0.0
 10
1.076623709336331
 20
2.973043157747509
 30
0.0
 10
1.071161965150284
 20
2.973043157747509
 30
0.0
  0
SPLINE
  5
176
330
A
100
AcDbEntity
  8
1
  6
solid
 62
     7
100
AcDbSpline
210
0.0
220
0.0
230
1.0
 70
     8
 71
     2
 72
     7
 73
     4
 74
     0
 42
0.0000000001
 43
0.0000000001
 40
0.0
 40
0.0
 40
0.0
 40
1.0
 40
2.0
 40
2.0
 40
2.0
 10
1.071161965150284
 20
2.973043157747509
 30
0.0
 10
1.064777546545633
 20
2.973043157747509
 30
0.0
 10
1.058835802359586
 20
2.963846064724252
 30
0.0
 10
1.058835802359586
 20
2.958949785654485
 30
0.0
  0
LINE
  5
1DC
330
A
100
AcDbEntity
  8
1
  6
solid
 62
     7
370
     0
100
AcDbLine
 10
-0.8816967395338938
 20
3.708844491990563
 30
0.0
 11
-0.8816967395338942
 21
3.950355900781756
 31
0.0
  0
LINE
  5
1DF
330
A
100
AcDbEntity
  8
1
  6
solid
 62
     7
370
     0
100
AcDbLine
 10
1.412668964525706
 20
3.922151049394654
 30
0.0
 11
1.412668964525706
 21
3.922151049394654
 31
0.0
  0
LINE
  5
1E0
330
A
100
AcDbEntity
  8
1
  6
solid
 62
     7
370
     0
100
AcDbLine
 10
-0.8816967395338942
 20
3.887855900781756
 30
0.0
 11
0.0269419948488474
 21
3.887855900781756
 31
0.0
  0
LINE
  5
1E1
330
A
100
AcDbEntity
  8
1
  6
solid
 62
     7
370
     0
100
AcDbLine
 10
1.412668964525706
 20
3.887855900781756
 30
0.0
 11
0.5040302301429649
 21
3.887855900781756
 31
0.0
  0
MTEXT
  5
1E2
330
A
100
AcDbEntity
  8
1
  6
solid
 62
     7
370
     0
100
AcDbMText
 10
0.2654861124959063
 20
3.887855900781756
 30
0.0
 40
0.125
 41
0.0
 71
     5
 72
     1
  1
{\H0.125000;2 1/4}
 73
     1
 44
1.0
  0
SOLID
  5
1E3
330
A
100
AcDbEntity
  8
1
  6
solid
 62
     7
370
     0
100
AcDbTrace
 10
-0.7566967395338942
 20
3.908668400781756
 30
0.0
 11
-0.7566967395338942
 21
3.867043400781756
 31
0.0
 12
-0.8816967395338942
 22
3.887855900781756
 32
0.0
 13
-0.8816967395338942
 23
3.887855900781756
 33
0.0
  0
SOLID
  5
1E4
330
A
100
AcDbEntity
  8
1
  6
solid
 62
     7
370
     0
100
AcDbTrace
 10
1.287668964525706
 20
3.867043400781756
 30
0.0
 11
1.287668964525706
 21
3.908668400781756
 31
0.0
 12
1.412668964525706
 22
3.887855900781756
 32
0.0
 13
1.412668964525706
 23
3.887855900781756
 33
0.0
  0
LINE
  5
1E7
330
A
100
AcDbEntity
  8
1
  6
solid
 62
     7
370
     0
100
AcDbLine
 10
-1.006696739533893
 20
0.8454003407155024
 30
0.0
 11
-1.006696739533893
 21
0.8454003407155024
 31
0.0
  0
LINE
  5
1E8
330
A
100
AcDbEntity
  8
1
  6
solid
 62
     7
370
     0
100
AcDbLine
 10
0.5581280255175934
 20
3.623273022333239
 30
0.0
 11
-1.063465769750881
 21
3.62327302233324
 31
0.0
  0
LINE
  5
1E9
330
A
100
AcDbEntity
  8
1
  6
solid
 62
     7
370
     0
100
AcDbLine
 10
-1.000965769750883
 20
0.8454003407155024
 30
0.0
 11
-1.000965769750882
 21
2.074464085370524
 31
0.0
  0
LINE
  5
1EA
330
A
100
AcDbEntity
  8
1
  6
solid
 62
     7
370
     0
100
AcDbLine
 10
-1.000965769750881
 20
3.62327302233324
 30
0.0
 11
-1.000965769750882
 21
2.394209277678217
 31
0.0
  0
MTEXT
  5
1EB
330
A
100
AcDbEntity
  8
1
  6
solid
 62
     7
370
     0
100
AcDbMText
 10
-1.000965769750882
 20
2.234336681524371
 30
0.0
 40
0.125
 41
0.0
 71
     5
 72
     1
  1
{\H0.125000;2 3/4}
 73
     1
 44
1.0
  0
SOLID
  5
1EC
330
A
100
AcDbEntity
  8
1
  6
solid
 62
     7
370
     0
100
AcDbTrace
 10
-1.021778269750883
 20
0.9704003407155024
 30
0.0
 11
-0.9801532697508832
 21
0.9704003407155024
 31
0.0
 12
-1.000965769750883
 22
0.8454003407155024
 32
0.0
 13
-1.000965769750883
 23
0.8454003407155024
 33
0.0
  0
SOLID
  5
1ED
330
A
100
AcDbEntity
  8
1
  6
solid
 62
     7
370
     0
100
AcDbTrace
 10
-0.9801532697508818
 20
3.49827302233324
 30
0.0
 11
-1.021778269750881
 21
3.49827302233324
 31
0.0
 12
-1.000965769750881
 22
3.62327302233324
 32
0.0
 13
-1.000965769750881
 23
3.62327302233324
 33
0.0
  0
LINE
  5
1F3
330
A
100
AcDbEntity
  8
1
  6
solid
 62
     7
370
     0
100
AcDbLine
 10
1.412668964525706
 20
3.708844491990563
 30
0.0
 11
1.412668964525706
 21
3.950355900781756
 31
0.0
  0
VIEWPORT
  5
1B0
330
B
100
AcDbEntity
 67
     1
  8
0
  6
Continuous
370
     0
100
AcDbViewport
 10
5.151344689997019
 20
3.959995180919227
 30
0.0
 40
15.24168637580615
 41
8.064468155182257
 68
     1
 69
     1
 12
5.151344689997019
 22
3.959995180919227
 13
0.0
 23
0.0
 14
0.5
 24
0.5
 15
0.5
 25
0.5
 16
0.0
 26
0.0
 36
1.0
 17
0.0
 27
0.0
 37
0.0
 42
50.0
 43
0.0
 44
0.0
 45
8.064468155182257
 50
0.0
 51
0.0
 72
   100
 90
   819232
  1

281
     0
 71
     1
 74
     0
110
0.0
120
0.0
130
0.0
111
1.0
121
0.0
131
0.0
112
0.0
122
1.0
132
0.0
 79
     0
146
0.0
170
     0
  0
VIEWPORT
  5
1B3
330
B
100
AcDbEntity
 67
     1
  8
0
  6
Continuous
370
     0
100
AcDbViewport
 10
5.151738327374381
 20
3.959933299732481
 30
0.0
 40
10.37798193593923
 41
7.970266453189712
 68
     2
 69
     2
 12
1.073900274606137
 22
2.217806490369331
 13
0.0
 23
0.0
 14
0.5
 24
0.5
 15
0.5
 25
0.5
 16
0.0
 26
0.0
 36
1.0
 17
0.0
 27
0.0
 37
0.0
 42
50.0
 43
0.0
 44
0.0
 45
4.633383374122017
 50
0.0
 51
0.0
 72
   100
 90
   819232
  1

281
     0
 71
     1
 74
     0
110
0.0
120
0.0
130
0.0
111
1.0
121
0.0
131
0.0
112
0.0
122
1.0
132
0.0
 79
     0
146
0.0
170
     0
  0
ENDSEC
  0
SECTION
  2
OBJECTS
  0
DICTIONARY
  5
19
330
0
100
AcDbDictionary
281
     1
  3
ACAD_COLOR
350
1A3
  3
ACAD_GROUP
350
1A
  3
ACAD_LAYOUT
350
1E
  3
ACAD_MATERIAL
350
18E
  3
ACAD_MLEADERSTYLE
350
1C5
  3
ACAD_MLINESTYLE
350
1B
  3
ACAD_PLOTSETTINGS
350
22
  3
ACAD_PLOTSTYLENAME
350
1F
  3
ACAD_SCALELIST
350
1B5
  3
ACAD_TABLESTYLE
350
1A4
  3
ACAD_VISUALSTYLE
350
192
  3
ACAD_WIPEOUT_VARS
350
23
  3
ACDB_RECOMPOSE_DATA
350
20E
  3
AcDbVariableDictionary
350
1A8
  3
ASE_INDEX_DICTIONARY
350
1F5
  0
DICTIONARY
  5
1D0
330
14
100
AcDbDictionary
280
     1
281
     1
  3
ADSK_XREC_LAYER_RECONCILED
360
1D1
  0
DICTIONARY
  5
1D2
330
27
100
AcDbDictionary
280
     1
281
     1
  3
ADSK_XREC_LAYER_RECONCILED
360
1D3
  0
DICTIONARY
  5
1E5
330
A
100
AcDbDictionary
280
     1
281
     1
  3
ACAD_SORTENTS
360
1E6
  0
DICTIONARY
  5
1A3
102
{ACAD_REACTORS
330
19
102
}
330
19
100
AcDbDictionary
281
     1
  0
DICTIONARY
  5
1A
102
{ACAD_REACTORS
330
19
102
}
330
19
100
AcDbDictionary
281
     1
  0
DICTIONARY
  5
1E
102
{ACAD_REACTORS
330
19
102
}
330
19
100
AcDbDictionary
281
     1
  3
Layout1
350
21
  3
Model
350
20
  0
DICTIONARY
  5
18E
102
{ACAD_REACTORS
330
19
102
}
330
19
100
AcDbDictionary
281
     1
  3
ByBlock
350
190
  3
ByLayer
350
18F
  3
Global
350
191
  0
DICTIONARY
  5
1C5
102
{ACAD_REACTORS
330
19
102
}
330
19
100
AcDbDictionary
281
     1
  3
Standard
350
1C6
  0
DICTIONARY
  5
1B
102
{ACAD_REACTORS
330
19
102
}
330
19
100
AcDbDictionary
281
     1
  3
Standard
350
1C
  0
DICTIONARY
  5
22
102
{ACAD_REACTORS
330
19
102
}
330
19
100
AcDbDictionary
281
     1
  0
ACDBDICTIONARYWDFLT
  5
1F
102
{ACAD_REACTORS
330
19
102
}
330
19
100
AcDbDictionary
281
     1
  3
Normal
350
1D
100
AcDbDictionaryWithDefault
340
1D
  0
DICTIONARY
  5
1B5
102
{ACAD_REACTORS
330
19
102
}
330
19
100
AcDbDictionary
281
     1
  3
A0
350
1B6
  3
A1
350
1B7
  3
A2
350
1B8
  3
A3
350
1B9
  3
A4
350
1BA
  3
A5
350
1BB
  3
A6
350
1BC
  3
A7
350
1BD
  3
A8
350
1BE
  3
A9
350
1BF
  3
B0
350
1C0
  3
B1
350
1C1
  3
B2
350
1C2
  3
B3
350
1C3
  3
B4
350
1C4
  0
DICTIONARY
  5
1A4
102
{ACAD_REACTORS
330
19
102
}
330
19
100
AcDbDictionary
281
     1
  3
Standard
350
1A5
  0
DICTIONARY
  5
192
102
{ACAD_REACTORS
330
19
102
}
330
19
100
AcDbDictionary
281
     1
  3
2dWireframe
350
198
  3
3D Hidden
350
19A
  3
3dWireframe
350
199
  3
Basic
350
197
  3
Brighten
350
19E
  3
ColorChange
350
1A2
  3
Conceptual
350
19B
  3
Dim
350
19D
  3
Facepattern
350
1A1
  3
Flat
350
193
  3
FlatWithEdges
350
194
  3
Gouraud
350
195
  3
GouraudWithEdges
350
196
  3
Linepattern
350
1A0
  3
Realistic
350
19C
  3
Thicken
350
19F
  0
WIPEOUTVARIABLES
  5
23
330
19
100
AcDbWipeoutVariables
 70
     1
  0
XRECORD
  5
20E
102
{ACAD_REACTORS
330
19
102
}
330
19
100
AcDbXrecord
280
     1
 90
        1
330
1A5
  0
DICTIONARY
  5
1A8
102
{ACAD_REACTORS
330
19
102
}
330
19
100
AcDbDictionary
281
     1
  3
CANNOSCALE
350
20B
  3
CMLEADERSTYLE
350
20A
  3
CTABLESTYLE
350
1A9
  0
DICTIONARY
  5
1F5
102
{ACAD_REACTORS
330
19
102
}
330
19
100
AcDbDictionary
281
     1
  3
ASEBlockHierarchyIndexRecord
350
1F7
1001
DCO15
1040
1667580310.765
  0
XRECORD
  5
1D1
102
{ACAD_REACTORS
330
1D0
102
}
330
1D0
100
AcDbXrecord
280
     1
290
     1
  0
XRECORD
  5
1D3
102
{ACAD_REACTORS
330
1D2
102
}
330
1D2
100
AcDbXrecord
280
     1
290
     1
  0
SORTENTSTABLE
  5
1E6
102
{ACAD_REACTORS
330
1E5
102
}
330
1E5
100
AcDbSortentsTable
330
A
331
169
  5
169
331
1E9
  5
1E9
331
13E
  5
13E
331
11C
  5
11C
331
FA
  5
FA
331
E0
  5
E0
331
BE
  5
BE
331
9C
  5
9C
331
7A
  5
7A
331
61
  5
61
331
160
  5
160
331
14F
  5
14F
331
12D
  5
12D
331
10B
  5
10B
331
CF
  5
CF
331
AD
  5
AD
331
8B
  5
8B
331
72
  5
72
331
50
  5
50
331
3F
  5
3F
331
2E
  5
2E
331
1E7
  5
1E7
331
13C
  5
13C
331
11A
  5
11A
331
F8
  5
F8
331
DE
  5
DE
331
BC
  5
BC
331
9A
  5
9A
331
78
  5
78
331
15E
  5
15E
331
14D
  5
14D
331
12B
  5
12B
331
109
  5
109
331
EF
  5
EF
331
CD
  5
CD
331
AB
  5
AB
331
89
  5
89
331
70
  5
70
331
4E
  5
4E
331
5F
  5
5F
331
3D
  5
3D
331
2C
  5
2C
331
13A
  5
13A
331
118
  5
118
331
F6
  5
F6
331
DC
  5
DC
331
BA
  5
BA
331
98
  5
98
331
15C
  5
15C
331
176
  5
176
331
1DC
  5
18C
331
14B
  5
14B
331
129
  5
129
331
107
  5
107
331
ED
  5
ED
331
CB
  5
CB
331
A9
  5
A9
331
87
  5
87
331
6E
  5
6E
331
4C
  5
4C
331
5D
  5
5D
331
3B
  5
3B
331
2A
  5
2A
331
1E3
  5
1E2
331
138
  5
138
331
116
  5
116
331
F4
  5
F4
331
DA
  5
DA
331
B8
  5
B8
331
15A
  5
15A
331
174
  5
174
331
149
  5
149
331
127
  5
127
331
105
  5
105
331
EB
  5
EB
331
C9
  5
C9
331
A7
  5
A7
331
85
  5
85
331
6C
  5
6C
331
4A
  5
4A
331
96
  5
96
331
5B
  5
5B
331
39
  5
39
331
28
  5
28
331
1E1
  5
1E0
331
158
  5
158
331
136
  5
136
331
114
  5
114
331
F2
  5
F2
331
D8
  5
D8
331
172
  5
172
331
147
  5
147
331
125
  5
125
331
103
  5
103
331
E9
  5
E9
331
C7
  5
C7
331
A5
  5
A5
331
83
  5
83
331
6A
  5
6A
331
48
  5
48
331
B6
  5
B6
331
94
  5
94
331
59
  5
59
331
37
  5
37
331
156
  5
156
331
134
  5
134
331
112
  5
112
331
F0
  5
F0
331
170
  5
170
331
145
  5
145
331
123
  5
123
331
101
  5
101
331
E7
  5
E7
331
C5
  5
C5
331
A3
  5
A3
331
81
  5
81
331
68
  5
68
331
46
  5
46
331
167
  5
167
331
D6
  5
D6
331
B4
  5
B4
331
92
  5
92
331
57
  5
57
331
35
  5
35
331
154
  5
154
331
132
  5
132
331
110
  5
110
331
16E
  5
16E
331
143
  5
143
331
121
  5
121
331
FF
  5
FF
331
E5
  5
E5
331
C3
  5
C3
331
A1
  5
A1
331
7F
  5
7F
331
66
  5
66
331
44
  5
44
331
165
  5
165
331
D4
  5
D4
331
B2
  5
B2
331
90
  5
90
331
77
  5
77
331
55
  5
55
331
33
  5
33
331
152
  5
152
331
130
  5
130
331
16C
  5
16C
331
1EC
  5
1EC
331
141
  5
141
331
11F
  5
11F
331
FD
  5
FD
331
E3
  5
E3
331
C1
  5
C1
331
9F
  5
9F
331
7D
  5
7D
331
64
  5
64
331
42
  5
42
331
163
  5
163
331
10E
  5
10E
331
D2
  5
D2
331
B0
  5
B0
331
8E
  5
8E
331
75
  5
75
331
53
  5
53
331
31
  5
31
331
150
  5
150
331
16A
  5
16A
331
1EA
  5
1EA
331
13F
  5
13F
331
11D
  5
11D
331
FB
  5
FB
331
E1
  5
E1
331
BF
  5
BF
331
9D
  5
9D
331
7B
  5
7B
331
62
  5
62
331
40
  5
40
331
161
  5
161
331
12E
  5
12E
331
10C
  5
10C
331
D0
  5
D0
331
AE
  5
AE
331
8C
  5
8C
331
73
  5
73
331
51
  5
51
331
2F
  5
2F
331
168
  5
168
331
1E8
  5
1E8
331
13D
  5
13D
331
11B
  5
11B
331
F9
  5
F9
331
DF
  5
DF
331
BD
  5
BD
331
9B
  5
9B
331
79
  5
79
331
60
  5
60
331
15F
  5
15F
331
1DF
  5
1DC
331
14E
  5
14E
331
12C
  5
12C
331
10A
  5
10A
331
CE
  5
CE
331
AC
  5
AC
331
8A
  5
8A
331
71
  5
71
331
4F
  5
4F
331
3E
  5
3E
331
2D
  5
2D
331
13B
  5
13B
331
119
  5
119
331
F7
  5
F7
331
DD
  5
DD
331
BB
  5
BB
331
99
  5
99
331
15D
  5
15D
331
14C
  5
14C
331
12A
  5
12A
331
108
  5
108
331
EE
  5
EE
331
CC
  5
CC
331
AA
  5
AA
331
88
  5
88
331
6F
  5
6F
331
4D
  5
4D
331
5E
  5
5E
331
3C
  5
3C
331
2B
  5
2B
331
1E4
  5
1E3
331
139
  5
139
331
117
  5
117
331
F5
  5
F5
331
DB
  5
DB
331
B9
  5
B9
331
15B
  5
15B
331
175
  5
175
331
14A
  5
14A
331
128
  5
128
331
106
  5
106
331
EC
  5
EC
331
CA
  5
CA
331
A8
  5
A8
331
86
  5
86
331
6D
  5
6D
331
4B
  5
4B
331
97
  5
97
331
5C
  5
5C
331
3A
  5
3A
331
29
  5
29
331
1E2
  5
1E1
331
159
  5
159
331
137
  5
137
331
115
  5
115
331
F3
  5
F3
331
D9
  5
D9
331
173
  5
173
331
148
  5
148
331
126
  5
126
331
104
  5
104
331
EA
  5
EA
331
C8
  5
C8
331
A6
  5
A6
331
84
  5
84
331
6B
  5
6B
331
49
  5
49
331
B7
  5
B7
331
95
  5
95
331
5A
  5
5A
331
38
  5
38
331
1E0
  5
1DF
331
157
  5
157
331
135
  5
135
331
113
  5
113
331
F1
  5
F1
331
171
  5
171
331
146
  5
146
331
124
  5
124
331
102
  5
102
331
E8
  5
E8
331
C6
  5
C6
331
A4
  5
A4
331
82
  5
82
331
69
  5
69
331
47
  5
47
331
D7
  5
D7
331
B5
  5
B5
331
93
  5
93
331
58
  5
58
331
36
  5
36
331
155
  5
155
331
133
  5
133
331
111
  5
111
331
16F
  5
16F
331
144
  5
144
331
122
  5
122
331
100
  5
100
331
E6
  5
E6
331
C4
  5
C4
331
A2
  5
A2
331
80
  5
80
331
67
  5
67
331
45
  5
45
331
166
  5
166
331
D5
  5
D5
331
B3
  5
B3
331
91
  5
91
331
56
  5
56
331
34
  5
34
331
153
  5
153
331
131
  5
131
331
16D
  5
16D
331
1ED
  5
1ED
331
142
  5
142
331
120
  5
120
331
FE
  5
FE
331
E4
  5
E4
331
C2
  5
C2
331
A0
  5
A0
331
7E
  5
7E
331
65
  5
65
331
43
  5
43
331
164
  5
164
331
10F
  5
10F
331
D3
  5
D3
331
B1
  5
B1
331
8F
  5
8F
331
76
  5
76
331
54
  5
54
331
32
  5
32
331
151
  5
151
331
16B
  5
16B
331
1EB
  5
1EB
331
140
  5
140
331
11E
  5
11E
331
FC
  5
FC
331
E2
  5
E2
331
C0
  5
C0
331
9E
  5
9E
331
7C
  5
7C
331
63
  5
63
331
41
  5
41
331
162
  5
162
331
12F
  5
12F
331
10D
  5
10D
331
D1
  5
D1
331
AF
  5
AF
331
8D
  5
8D
331
74
  5
74
331
52
  5
52
331
30
  5
30
  0
LAYOUT
  5
21
102
{ACAD_REACTORS
330
1E
102
}
330
1E
100
AcDbPlotSettings
  1

  2
Foxit PDF Printer
  4
Letter
  6

 40
3.174999952316284
 41
3.174999952316284
 42
3.17498779296875
 43
3.175003051757812
 44
279.3999938964844
 45
215.8999938964844
 46
31.47715384821894
 47
24.12875752349356
 48
0.0
 49
0.0
140
0.0
141
0.0
142
1.0
143
1.0
 70
     4
 72
     0
 73
     0
 74
     1
  7

 75
     0
147
1.0
 76
     0
 77
     2
 78
   300
148
-26.25461124795212
149
-20.16000981431432
100
AcDbLayout
  1
Layout1
 70
     0
 71
     1
 10
-0.3306119115190196
 20
-0.2812499079328949
 11
10.66938784818509
 21
8.218749851771214
 12
0.0
 22
0.0
 32
0.0
 14
-0.0380549155168168
 24
-0.025352453909214
 34
-0.0015258207003583
 15
10.34074429551085
 25
7.945342815747668
 35
0.0000000349246037
146
0.0
 13
0.0
 23
0.0
 33
0.0
 16
1.0
 26
0.0
 36
0.0
 17
0.0
 27
1.0
 37
0.0
 76
     0
330
B
331
1B0
1001
ACAD_PSEXT
1000
Foxit PDF Printer
1000
Foxit PDF Printer Driver
1000
FOXIT_PDF
1000

1070
     0
  0
LAYOUT
  5
20
102
{ACAD_REACTORS
330
1E
102
}
330
1E
100
AcDbPlotSettings
  1

  2

  4

  6

 40
0.0
 41
0.0
 42
0.0
 43
0.0
 44
0.0
 45
0.0
 46
0.0
 47
0.0
 48
0.0
 49
0.0
140
0.0
141
0.0
142
1.0
143
1.0
 70
  1024
 72
     0
 73
     0
 74
     0
  7

 75
     0
147
1.0
 76
     0
 77
     2
 78
   300
148
0.0
149
0.0
100
AcDbLayout
  1
Model
 70
     0
 71
     0
 10
0.0
 20
0.0
 11
0.0
 21
0.0
 12
0.0
 22
0.0
 32
0.0
 14
0.0
 24
0.0
 34
0.0
 15
0.0
 25
0.0
 35
0.0
146
0.0
 13
0.0
 23
0.0
 33
0.0
 16
0.0
 26
0.0
 36
0.0
 17
0.0
 27
0.0
 37
0.0
 76
     0
330
A
331
15
  0
MATERIAL
  5
190
102
{ACAD_XDICTIONARY
360
211
102
}
102
{ACAD_REACTORS
330
18E
102
}
330
18E
100
AcDbMaterial
  1
ByBlock
 73
     1
 78
     1
172
     1
176
     1
270
     1
274
     1
  0
MATERIAL
  5
18F
102
{ACAD_XDICTIONARY
360
20F
102
}
102
{ACAD_REACTORS
330
18E
102
}
330
18E
100
AcDbMaterial
  1
ByLayer
 73
     1
 78
     1
172
     1
176
     1
270
     1
274
     1
  0
MATERIAL
  5
191
102
{ACAD_XDICTIONARY
360
213
102
}
102
{ACAD_REACTORS
330
18E
102
}
330
18E
100
AcDbMaterial
  1
Global
 73
     1
 78
     1
172
     1
176
     1
270
     1
274
     1
  0
MLEADERSTYLE
  5
1C6
102
{ACAD_REACTORS
330
1C5
102
}
330
1C5
100
AcDbMLeaderStyle
170
     2
171
     1
172
     0
 90
        2
 40
0.0
 41
0.0
173
     1
 91
-1056964608
340
11
 92
       -2
290
     1
 42
0.09
291
     1
 43
0.36
  3
Standard
 44
0.18
300

342
17
174
     1
178
     6
175
     1
176
     0
 93
-1056964608
 45
0.18
292
     0
297
     0
 46
0.18
 94
-1056964608
 47
1.0
 49
1.0
140
1.0
293
     1
141
0.0
294
     1
177
     0
142
1.0
295
     0
296
     0
143
0.125
1001
ACAD_MLEADERVER
1070
     2
  0
MLINESTYLE
  5
1C
102
{ACAD_REACTORS
330
1B
102
}
330
1B
100
AcDbMlineStyle
  2
STANDARD
 70
     0
  3

 62
     0
 51
90.0
 52
90.0
 71
     2
 49
0.5
 62
   256
  6
BYLAYER
 49
-0.5
 62
   256
  6
BYLAYER
  0
ACDBPLACEHOLDER
  5
1D
102
{ACAD_REACTORS
330
1F
102
}
330
1F
  0
SCALE
  5
1B6
102
{ACAD_REACTORS
330
1B5
102
}
330
1B5
100
AcDbScale
 70
     0
300
1/64" = 1'-0"
140
0.015625
141
12.0
290
     0
  0
SCALE
  5
1B7
102
{ACAD_REACTORS
330
1B5
102
}
330
1B5
100
AcDbScale
 70
     0
300
1/32" = 1'-0"
140
0.03125
141
12.0
290
     0
  0
SCALE
  5
1B8
102
{ACAD_REACTORS
330
1B5
102
}
330
1B5
100
AcDbScale
 70
     0
300
1/16" = 1'-0"
140
0.0625
141
12.0
290
     0
  0
SCALE
  5
1B9
102
{ACAD_REACTORS
330
1B5
102
}
330
1B5
100
AcDbScale
 70
     0
300
3/32" = 1'-0"
140
0.09375
141
12.0
290
     0
  0
SCALE
  5
1BA
102
{ACAD_REACTORS
330
1B5
102
}
330
1B5
100
AcDbScale
 70
     0
300
1/8" = 1'-0"
140
0.125
141
12.0
290
     0
  0
SCALE
  5
1BB
102
{ACAD_REACTORS
330
1B5
102
}
330
1B5
100
AcDbScale
 70
     0
300
3/16" = 1'-0"
140
0.1875
141
12.0
290
     0
  0
SCALE
  5
1BC
102
{ACAD_REACTORS
330
1B5
102
}
330
1B5
100
AcDbScale
 70
     0
300
1/4" = 1'-0"
140
0.25
141
12.0
290
     0
  0
SCALE
  5
1BD
102
{ACAD_REACTORS
330
1B5
102
}
330
1B5
100
AcDbScale
 70
     0
300
3/8" = 1'-0"
140
0.375
141
12.0
290
     0
  0
SCALE
  5
1BE
102
{ACAD_REACTORS
330
1B5
102
}
330
1B5
100
AcDbScale
 70
     0
300
1/2" = 1'-0"
140
0.5
141
12.0
290
     0
  0
SCALE
  5
1BF
102
{ACAD_REACTORS
330
1B5
102
}
330
1B5
100
AcDbScale
 70
     0
300
3/4" = 1'-0"
140
0.75
141
12.0
290
     0
  0
SCALE
  5
1C0
102
{ACAD_REACTORS
330
1B5
102
}
330
1B5
100
AcDbScale
 70
     0
300
1" = 1'-0"
140
1.0
141
12.0
290
     0
  0
SCALE
  5
1C1
102
{ACAD_REACTORS
330
1B5
102
}
330
1B5
100
AcDbScale
 70
     0
300
1 1/2" = 1'-0"
140
1.5
141
12.0
290
     0
  0
SCALE
  5
1C2
102
{ACAD_REACTORS
330
1B5
102
}
330
1B5
100
AcDbScale
 70
     0
300
3" = 1'-0"
140
3.0
141
12.0
290
     0
  0
SCALE
  5
1C3
102
{ACAD_REACTORS
330
1B5
102
}
330
1B5
100
AcDbScale
 70
     0
300
6" = 1'-0"
140
6.0
141
12.0
290
     0
  0
SCALE
  5
1C4
102
{ACAD_REACTORS
330
1B5
102
}
330
1B5
100
AcDbScale
 70
     0
300
1'-0" = 1'-0"
140
12.0
141
12.0
290
     1
  0
TABLESTYLE
  5
1A5
102
{ACAD_XDICTIONARY
360
20C
102
}
102
{ACAD_REACTORS
330
1A4
102
}
330
1A4
100
AcDbTableStyle
  3
Standard
 70
     0
 71
     0
 40
0.06
 41
0.06
280
     0
281
     0
  7
Standard
140
0.18
170
     2
 62
     0
 63
     7
283
     0
274
    -2
284
     1
 64
     0
275
    -2
285
     1
 65
     0
276
    -2
286
     1
 66
     0
277
    -2
287
     1
 67
     0
278
    -2
288
     1
 68
     0
279
    -2
289
     1
 69
     0
  7
Standard
140
0.25
170
     5
 62
     0
 63
     7
283
     0
274
    -2
284
     1
 64
     0
275
    -2
285
     1
 65
     0
276
    -2
286
     1
 66
     0
277
    -2
287
     1
 67
     0
278
    -2
288
     1
 68
     0
279
    -2
289
     1
 69
     0
  7
Standard
140
0.18
170
     5
 62
     0
 63
     7
283
     0
274
    -2
284
     1
 64
     0
275
    -2
285
     1
 65
     0
276
    -2
286
     1
 66
     0
277
    -2
287
     1
 67
     0
278
    -2
288
     1
 68
     0
279
    -2
289
     1
 69
     0
  0
VISUALSTYLE
  5
198
102
{ACAD_REACTORS
330
192
102
}
330
192
100
AcDbVisualStyle
  2
2dWireframe
 70
     4
 71
     0
 72
     2
 73
     0
 90
        0
 40
-0.6
 41
-30.0
 62
     5
 63
     7
421
 16777215
 74
     1
 91
        4
 64
     7
 65
   257
 75
     1
175
     1
 42
1.0
 92
        0
 66
   257
 43
1.0
 76
     1
 77
     6
 78
     2
 67
     7
 79
     5
170
     0
171
     0
290
     0
174
     0
 93
        1
 44
0.0
173
     0
291
     0
 45
0.0
1001
ACAD
1000
AcDbSavedByObjectVersion
1070
     0
  0
VISUALSTYLE
  5
19A
102
{ACAD_REACTORS
330
192
102
}
330
192
100
AcDbVisualStyle
  2
3D Hidden
 70
     6
 71
     1
 72
     2
 73
     2
 90
        0
 40
-0.6
 41
-30.0
 62
     5
 63
     7
421
 16777215
 74
     2
 91
        2
 64
     7
 65
   257
 75
     2
175
     1
 42
40.0
 92
        0
 66
   257
 43
1.0
 76
     1
 77
     6
 78
     2
 67
     7
 79
     3
170
     0
171
     0
290
     0
174
     0
 93
        1
 44
0.0
173
     0
291
     0
 45
0.0
1001
ACAD
1000
AcDbSavedByObjectVersion
1070
     0
  0
VISUALSTYLE
  5
199
102
{ACAD_REACTORS
330
192
102
}
330
192
100
AcDbVisualStyle
  2
3dWireframe
 70
     5
 71
     0
 72
     2
 73
     0
 90
        0
 40
-0.6
 41
-30.0
 62
     5
 63
     7
421
 16777215
 74
     1
 91
        4
 64
     7
 65
   257
 75
     1
175
     1
 42
1.0
 92
        0
 66
   257
 43
1.0
 76
     1
 77
     6
 78
     2
 67
     7
 79
     5
170
     0
171
     0
290
     0
174
     0
 93
        1
 44
0.0
173
     0
291
     0
 45
0.0
1001
ACAD
1000
AcDbSavedByObjectVersion
1070
     0
  0
VISUALSTYLE
  5
197
102
{ACAD_REACTORS
330
192
102
}
330
192
100
AcDbVisualStyle
  2
Basic
 70
     7
 71
     1
 72
     0
 73
     1
 90
        0
 40
-0.6
 41
-30.0
 62
     5
 63
     7
421
 16777215
 74
     0
 91
        4
 64
     7
 65
   257
 75
     1
175
     1
 42
1.0
 92
        8
 66
     7
 43
1.0
 76
     1
 77
     6
 78
     2
 67
     7
 79
     5
170
     0
171
     0
290
     0
174
     0
 93
        1
 44
0.0
173
     0
291
     1
 45
0.0
1001
ACAD
1000
AcDbSavedByObjectVersion
1070
     0
  0
VISUALSTYLE
  5
19E
102
{ACAD_REACTORS
330
192
102
}
330
192
100
AcDbVisualStyle
  2
Brighten
 70
    12
 71
     2
 72
     2
 73
     0
 90
        0
 40
-0.6
 41
-30.0
 62
     5
 63
     7
421
 16777215
 74
     1
 91
        4
 64
     7
 65
   257
 75
     1
175
     1
 42
1.0
 92
        8
 66
     7
 43
1.0
 76
     1
 77
     6
 78
     2
 67
     7
 79
     5
170
     0
171
     0
290
     0
174
     0
 93
        1
 44
50.0
173
     0
291
     1
 45
0.0
1001
ACAD
1000
AcDbSavedByObjectVersion
1070
     0
  0
VISUALSTYLE
  5
1A2
102
{ACAD_REACTORS
330
192
102
}
330
192
100
AcDbVisualStyle
  2
ColorChange
 70
    16
 71
     2
 72
     2
 73
     3
 90
        0
 40
-0.6
 41
-30.0
 62
     5
 63
     8
421
  8421504
 74
     1
 91
        4
 64
     7
 65
   257
 75
     1
175
     1
 42
1.0
 92
        8
 66
     8
424
  8421504
 43
1.0
 76
     1
 77
     6
 78
     2
 67
     7
 79
     5
170
     0
171
     0
290
     0
174
     0
 93
        1
 44
0.0
173
     0
291
     1
 45
0.0
1001
ACAD
1000
AcDbSavedByObjectVersion
1070
     0
  0
VISUALSTYLE
  5
19B
102
{ACAD_REACTORS
330
192
102
}
330
192
100
AcDbVisualStyle
  2
Conceptual
 70
     9
 71
     3
 72
     2
 73
     0
 90
        0
 40
-0.6
 41
-30.0
 62
     5
 63
     7
421
 16777215
 74
     2
 91
        2
 64
     7
 65
   257
 75
     1
175
     1
 42
40.0
 92
        8
 66
     7
 43
1.0
 76
     1
 77
     6
 78
     2
 67
     7
 79
     3
170
     0
171
     0
290
     0
174
     0
 93
        1
 44
0.0
173
     0
291
     0
 45
0.0
1001
ACAD
1000
AcDbSavedByObjectVersion
1070
     0
  0
VISUALSTYLE
  5
19D
102
{ACAD_REACTORS
330
192
102
}
330
192
100
AcDbVisualStyle
  2
Dim
 70
    11
 71
     2
 72
     2
 73
     0
 90
        0
 40
-0.6
 41
-30.0
 62
     5
 63
     7
421
 16777215
 74
     1
 91
        4
 64
     7
 65
   257
 75
     1
175
     1
 42
1.0
 92
        8
 66
     7
 43
1.0
 76
     1
 77
     6
 78
     2
 67
     7
 79
     5
170
     0
171
     0
290
     0
174
     0
 93
        1
 44
-50.0
173
     0
291
     1
 45
0.0
1001
ACAD
1000
AcDbSavedByObjectVersion
1070
     0
  0
VISUALSTYLE
  5
1A1
102
{ACAD_REACTORS
330
192
102
}
330
192
100
AcDbVisualStyle
  2
Facepattern
 70
    15
 71
     2
 72
     2
 73
     0
 90
        0
 40
-0.6
 41
-30.0
 62
     5
 63
     7
421
 16777215
 74
     1
 91
        4
 64
     7
 65
   257
 75
     1
175
     1
 42
1.0
 92
        8
 66
     7
 43
1.0
 76
     1
 77
     6
 78
     2
 67
     7
 79
     5
170
     0
171
     0
290
     0
174
     0
 93
        1
 44
0.0
173
     0
291
     1
 45
0.0
1001
ACAD
1000
AcDbSavedByObjectVersion
1070
     0
  0
VISUALSTYLE
  5
193
102
{ACAD_REACTORS
330
192
102
}
330
192
100
AcDbVisualStyle
  2
Flat
 70
     0
 71
     2
 72
     1
 73
     1
 90
        2
 40
-0.6
 41
30.0
 62
     5
 63
     7
421
 16777215
 74
     0
 91
        4
 64
     7
 65
   257
 75
     1
175
     1
 42
1.0
 92
        8
 66
     7
 43
1.0
 76
     1
 77
     6
 78
     2
 67
     7
 79
     5
170
     0
171
     0
290
     0
174
     0
 93
       13
 44
0.0
173
     0
291
     1
 45
0.0
1001
ACAD
1000
AcDbSavedByObjectVersion
1070
     0
  0
VISUALSTYLE
  5
194
102
{ACAD_REACTORS
330
192
102
}
330
192
100
AcDbVisualStyle
  2
FlatWithEdges
 70
     1
 71
     2
 72
     1
 73
     1
 90
        2
 40
-0.6
 41
30.0
 62
     5
 63
     7
421
 16777215
 74
     1
 91
        4
 64
     7
 65
   257
 75
     1
175
     1
 42
1.0
 92
        0
 66
   257
 43
1.0
 76
     1
 77
     6
 78
     2
 67
     7
 79
     5
170
     0
171
     0
290
     0
174
     0
 93
       13
 44
0.0
173
     0
291
     1
 45
0.0
1001
ACAD
1000
AcDbSavedByObjectVersion
1070
     0
  0
VISUALSTYLE
  5
195
102
{ACAD_REACTORS
330
192
102
}
330
192
100
AcDbVisualStyle
  2
Gouraud
 70
     2
 71
     2
 72
     2
 73
     1
 90
        2
 40
-0.6
 41
30.0
 62
     5
 63
     7
421
 16777215
 74
     0
 91
        4
 64
     7
 65
   257
 75
     1
175
     1
 42
1.0
 92
        0
 66
     7
 43
1.0
 76
     1
 77
     6
 78
     2
 67
     7
 79
     5
170
     0
171
     0
290
     0
174
     0
 93
       13
 44
0.0
173
     0
291
     1
 45
0.0
1001
ACAD
1000
AcDbSavedByObjectVersion
1070
     0
  0
VISUALSTYLE
  5
196
102
{ACAD_REACTORS
330
192
102
}
330
192
100
AcDbVisualStyle
  2
GouraudWithEdges
 70
     3
 71
     2
 72
     2
 73
     1
 90
        2
 40
-0.6
 41
30.0
 62
     5
 63
     7
421
 16777215
 74
     1
 91
        4
 64
     7
 65
   257
 75
     1
175
     1
 42
1.0
 92
        0
 66
   257
 43
1.0
 76
     1
 77
     6
 78
     2
 67
     7
 79
     5
170
     0
171
     0
290
     0
174
     0
 93
       13
 44
0.0
173
     0
291
     1
 45
0.0
1001
ACAD
1000
AcDbSavedByObjectVersion
1070
     0
  0
VISUALSTYLE
  5
1A0
102
{ACAD_REACTORS
330
192
102
}
330
192
100
AcDbVisualStyle
  2
Linepattern
 70
    14
 71
     2
 72
     2
 73
     0
 90
        0
 40
-0.6
 41
-30.0
 62
     5
 63
     7
421
 16777215
 74
     1
 91
        4
 64
     7
 65
   257
 75
     7
175
     7
 42
1.0
 92
        8
 66
     7
 43
1.0
 76
     1
 77
     6
 78
     2
 67
     7
 79
     5
170
     0
171
     0
290
     0
174
     0
 93
        1
 44
0.0
173
     0
291
     1
 45
0.0
1001
ACAD
1000
AcDbSavedByObjectVersion
1070
     0
  0
VISUALSTYLE
  5
19C
102
{ACAD_REACTORS
330
192
102
}
330
192
100
AcDbVisualStyle
  2
Realistic
 70
     8
 71
     2
 72
     2
 73
     0
 90
        0
 40
-0.6
 41
-30.0
 62
     5
 63
     7
421
 16777215
 74
     1
 91
        0
 64
     7
 65
   257
 75
     1
175
     1
 42
1.0
 92
        8
 66
     8
424
  7895160
 43
1.0
 76
     1
 77
     6
 78
     2
 67
     7
 79
     5
170
     0
171
     0
290
     0
174
     0
 93
       13
 44
0.0
173
     0
291
     0
 45
0.0
1001
ACAD
1000
AcDbSavedByObjectVersion
1070
     0
  0
VISUALSTYLE
  5
19F
102
{ACAD_REACTORS
330
192
102
}
330
192
100
AcDbVisualStyle
  2
Thicken
 70
    13
 71
     2
 72
     2
 73
     0
 90
        0
 40
-0.6
 41
-30.0
 62
     5
 63
     7
421
 16777215
 74
     1
 91
        4
 64
     7
 65
   257
 75
     1
175
     1
 42
1.0
 92
       12
 66
     7
 43
1.0
 76
     1
 77
     6
 78
     2
 67
     7
 79
     5
170
     0
171
     0
290
     0
174
     0
 93
        1
 44
0.0
173
     0
291
     1
 45
0.0
1001
ACAD
1000
AcDbSavedByObjectVersion
1070
     0
  0
DICTIONARYVAR
  5
20B
102
{ACAD_REACTORS
330
1A8
102
}
330
1A8
100
DictionaryVariables
280
     0
  1
1'-0" = 1'-0"
  0
DICTIONARYVAR
  5
20A
102
{ACAD_REACTORS
330
1A8
102
}
330
1A8
100
DictionaryVariables
280
     0
  1
STANDARD
  0
DICTIONARYVAR
  5
1A9
102
{ACAD_REACTORS
330
1A8
102
}
330
1A8
100
DictionaryVariables
280
     0
  1
STANDARD
  0
XRECORD
  5
1F7
102
{ACAD_REACTORS
330
1F5
102
}
330
1F5
100
AcDbXrecord
280
     1
  0
DICTIONARY
  5
211
330
190
100
AcDbDictionary
280
     1
281
     1
  3
ACAD_XREC_ROUNDTRIP
360
212
  0
DICTIONARY
  5
20F
330
18F
100
AcDbDictionary
280
     1
281
     1
  3
ACAD_XREC_ROUNDTRIP
360
210
  0
DICTIONARY
  5
213
330
191
100
AcDbDictionary
280
     1
281
     1
  3
ACAD_XREC_ROUNDTRIP
360
214
  0
DICTIONARY
  5
20C
330
1A5
100
AcDbDictionary
280
     1
281
     1
  3
ACAD_ROUNDTRIP_2008_TABLESTYLE_CELLSTYLEMAP
360
20D
  3
ACAD_XREC_ROUNDTRIP
360
215
  0
XRECORD
  5
212
102
{ACAD_REACTORS
330
211
102
}
330
211
100
AcDbXrecord
280
     1
102
MATERIAL
148
0.0
149
0.0
149
0.0
 93
        0
 94
       63
282
     0
 72
     1
 77
     1
171
     1
175
     1
179
     1
273
     0
  0
XRECORD
  5
210
102
{ACAD_REACTORS
330
20F
102
}
330
20F
100
AcDbXrecord
280
     1
102
MATERIAL
148
0.0
149
0.0
149
0.0
 93
        0
 94
       63
282
     0
 72
     1
 77
     1
171
     1
175
     1
179
     1
273
     0
  0
XRECORD
  5
214
102
{ACAD_REACTORS
330
213
102
}
330
213
100
AcDbXrecord
280
     1
102
MATERIAL
148
0.0
149
0.0
149
0.0
 93
        0
 94
       63
282
     0
 72
     1
 77
     1
171
     1
175
     1
179
     1
273
     0
  0
CELLSTYLEMAP
  5
20D
102
{ACAD_REACTORS
330
20C
102
}
330
20C
100
AcDbCellStyleMap
 90
        3
300
CELLSTYLE
  1
TABLEFORMAT_BEGIN
 90
        5
170
     1
 91
        0
 92
    32768
 62
   257
 93
        1
300
CONTENTFORMAT
  1
CONTENTFORMAT_BEGIN
 90
        0
 91
        0
 92
      512
 93
        0
300

 40
0.0
140
1.0
 94
        5
 62
     0
340
17
144
0.25
309
CONTENTFORMAT_END
171
     0
 94
        6
 95
        1
302
GRIDFORMAT
  1
GRIDFORMAT_BEGIN
 90
        0
 91
        1
 62
     0
 92
       -2
340
0
 93
        0
 40
0.045
309
GRIDFORMAT_END
 95
        2
302
GRIDFORMAT
  1
GRIDFORMAT_BEGIN
 90
        0
 91
        1
 62
     0
 92
       -2
340
0
 93
        0
 40
0.045
309
GRIDFORMAT_END
 95
        4
302
GRIDFORMAT
  1
GRIDFORMAT_BEGIN
 90
        0
 91
        1
 62
     0
 92
       -2
340
0
 93
        0
 40
0.045
309
GRIDFORMAT_END
 95
        8
302
GRIDFORMAT
  1
GRIDFORMAT_BEGIN
 90
        0
 91
        1
 62
     0
 92
       -2
340
0
 93
        0
 40
0.045
309
GRIDFORMAT_END
 95
       16
302
GRIDFORMAT
  1
GRIDFORMAT_BEGIN
 90
        0
 91
        1
 62
     0
 92
       -2
340
0
 93
        0
 40
0.045
309
GRIDFORMAT_END
 95
       32
302
GRIDFORMAT
  1
GRIDFORMAT_BEGIN
 90
        0
 91
        1
 62
     0
 92
       -2
340
0
 93
        0
 40
0.045
309
GRIDFORMAT_END
309
TABLEFORMAT_END
  1
CELLSTYLE_BEGIN
 90
        1
 91
        1
300
_TITLE
309
CELLSTYLE_END
300
CELLSTYLE
  1
TABLEFORMAT_BEGIN
 90
        5
170
     1
 91
        0
 92
        0
 62
   257
 93
        1
300
CONTENTFORMAT
  1
CONTENTFORMAT_BEGIN
 90
        0
 91
        0
 92
      512
 93
        0
300

 40
0.0
140
1.0
 94
        5
 62
     0
340
17
144
0.18
309
CONTENTFORMAT_END
171
     0
 94
        6
 95
        1
302
GRIDFORMAT
  1
GRIDFORMAT_BEGIN
 90
        0
 91
        1
 62
     0
 92
       -2
340
0
 93
        0
 40
0.045
309
GRIDFORMAT_END
 95
        2
302
GRIDFORMAT
  1
GRIDFORMAT_BEGIN
 90
        0
 91
        1
 62
     0
 92
       -2
340
0
 93
        0
 40
0.045
309
GRIDFORMAT_END
 95
        4
302
GRIDFORMAT
  1
GRIDFORMAT_BEGIN
 90
        0
 91
        1
 62
     0
 92
       -2
340
0
 93
        0
 40
0.045
309
GRIDFORMAT_END
 95
        8
302
GRIDFORMAT
  1
GRIDFORMAT_BEGIN
 90
        0
 91
        1
 62
     0
 92
       -2
340
0
 93
        0
 40
0.045
309
GRIDFORMAT_END
 95
       16
302
GRIDFORMAT
  1
GRIDFORMAT_BEGIN
 90
        0
 91
        1
 62
     0
 92
       -2
340
0
 93
        0
 40
0.045
309
GRIDFORMAT_END
 95
       32
302
GRIDFORMAT
  1
GRIDFORMAT_BEGIN
 90
        0
 91
        1
 62
     0
 92
       -2
340
0
 93
        0
 40
0.045
309
GRIDFORMAT_END
309
TABLEFORMAT_END
  1
CELLSTYLE_BEGIN
 90
        2
 91
        1
300
_HEADER
309
CELLSTYLE_END
300
CELLSTYLE
  1
TABLEFORMAT_BEGIN
 90
        5
170
     1
 91
        0
 92
        0
 62
   257
 93
        1
300
CONTENTFORMAT
  1
CONTENTFORMAT_BEGIN
 90
        0
 91
        0
 92
      512
 93
        0
300

 40
0.0
140
1.0
 94
        2
 62
     0
340
17
144
0.18
309
CONTENTFORMAT_END
171
     0
 94
        6
 95
        1
302
GRIDFORMAT
  1
GRIDFORMAT_BEGIN
 90
        0
 91
        1
 62
     0
 92
       -2
340
0
 93
        0
 40
0.045
309
GRIDFORMAT_END
 95
        2
302
GRIDFORMAT
  1
GRIDFORMAT_BEGIN
 90
        0
 91
        1
 62
     0
 92
       -2
340
0
 93
        0
 40
0.045
309
GRIDFORMAT_END
 95
        4
302
GRIDFORMAT
  1
GRIDFORMAT_BEGIN
 90
        0
 91
        1
 62
     0
 92
       -2
340
0
 93
        0
 40
0.045
309
GRIDFORMAT_END
 95
        8
302
GRIDFORMAT
  1
GRIDFORMAT_BEGIN
 90
        0
 91
        1
 62
     0
 92
       -2
340
0
 93
        0
 40
0.045
309
GRIDFORMAT_END
 95
       16
302
GRIDFORMAT
  1
GRIDFORMAT_BEGIN
 90
        0
 91
        1
 62
     0
 92
       -2
340
0
 93
        0
 40
0.045
309
GRIDFORMAT_END
 95
       32
302
GRIDFORMAT
  1
GRIDFORMAT_BEGIN
 90
        0
 91
        1
 62
     0
 92
       -2
340
0
 93
        0
 40
0.045
309
GRIDFORMAT_END
309
TABLEFORMAT_END
  1
CELLSTYLE_BEGIN
 90
        3
 91
        2
300
_DATA
309
CELLSTYLE_END
  0
XRECORD
  5
215
102
{ACAD_REACTORS
330
20C
102
}
330
20C
100
AcDbXrecord
280
     1
102
ACAD_ROUNDTRIP_PRE2007_TABLESTYLE
 90
      512
 91
        0
  1

 92
      512
 93
        0
  2

 94
      512
 95
        0
  3

  0
ENDSEC
  0
EOF
