  0
SECTION
  2
HEADER
  9
$ACADVER
  1
AC1018
  9
$ACADMAINTVER
 70
   104
  9
$DWGCODEPAGE
  3
ANSI_1252
  9
$LASTSAVEDBY
  1
EARL
  9
$INSBASE
 10
0.0
 20
0.0
 30
0.0
  9
$EXTMIN
 10
-1.126383185386657
 20
-0.0604944358745634
 30
0.0
  9
$EXTMAX
 10
1.352295315992592
 20
1.065073665984412
 30
0.0
  9
$LIMMIN
 10
0.0
 20
0.0
  9
$LIMMAX
 10
0.0
 20
0.0
  9
$ORTHOMODE
 70
     0
  9
$REGENMODE
 70
     1
  9
$FILLMODE
 70
     1
  9
$QTEXTMODE
 70
     0
  9
$MIRRTEXT
 70
     1
  9
$LTSCALE
 40
1.0
  9
$ATTMODE
 70
     1
  9
$TEXTSIZE
 40
0.0
  9
$TRACEWID
 40
0.05
  9
$TEXTSTYLE
  7
Standard
  9
$CLAYER
  8
0
  9
$CELTYPE
  6
Continuous
  9
$CECOLOR
 62
   256
  9
$CELTSCALE
 40
1.0
  9
$DISPSILH
 70
     0
  9
$DIMSCALE
 40
1.0
  9
$DIMASZ
 40
0.18
  9
$DIMEXO
 40
0.0625
  9
$DIMDLI
 40
0.38
  9
$DIMRND
 40
0.0
  9
$DIMDLE
 40
0.0
  9
$DIMEXE
 40
0.18
  9
$DIMTP
 40
0.0
  9
$DIMTM
 40
0.0
  9
$DIMTXT
 40
0.18
  9
$DIMCEN
 40
0.09
  9
$DIMTSZ
 40
0.0
  9
$DIMTOL
 70
     0
  9
$DIMLIM
 70
     0
  9
$DIMTIH
 70
     1
  9
$DIMTOH
 70
     1
  9
$DIMSE1
 70
     0
  9
$DIMSE2
 70
     0
  9
$DIMTAD
 70
     0
  9
$DIMZIN
 70
     0
  9
$DIMBLK
  1

  9
$DIMASO
 70
     1
  9
$DIMSHO
 70
     1
  9
$DIMPOST
  1

  9
$DIMAPOST
  1

  9
$DIMALT
 70
     0
  9
$DIMALTD
 70
     2
  9
$DIMALTF
 40
25.4
  9
$DIMLFAC
 40
1.0
  9
$DIMTOFL
 70
     0
  9
$DIMTVP
 40
0.0
  9
$DIMTIX
 70
     0
  9
$DIMSOXD
 70
     0
  9
$DIMSAH
 70
     0
  9
$DIMBLK1
  1

  9
$DIMBLK2
  1

  9
$DIMSTYLE
  2
Standard
  9
$DIMCLRD
 70
     0
  9
$DIMCLRE
 70
     0
  9
$DIMCLRT
 70
     0
  9
$DIMTFAC
 40
1.0
  9
$DIMGAP
 40
0.09
  9
$DIMJUST
 70
     0
  9
$DIMSD1
 70
     0
  9
$DIMSD2
 70
     0
  9
$DIMTOLJ
 70
     1
  9
$DIMTZIN
 70
     0
  9
$DIMALTZ
 70
     0
  9
$DIMALTTZ
 70
     0
  9
$DIMUPT
 70
     0
  9
$DIMDEC
 70
     4
  9
$DIMTDEC
 70
     4
  9
$DIMALTU
 70
     2
  9
$DIMALTTD
 70
     2
  9
$DIMTXSTY
  7
Standard
  9
$DIMAUNIT
 70
     0
  9
$DIMADEC
 70
     0
  9
$DIMALTRND
 40
0.0
  9
$DIMAZIN
 70
     0
  9
$DIMDSEP
 70
    46
  9
$DIMATFIT
 70
     0
  9
$DIMFRAC
 70
     0
  9
$DIMLDRBLK
  1

  9
$DIMLUNIT
 70
     2
  9
$DIMLWD
 70
    -2
  9
$DIMLWE
 70
    -2
  9
$DIMTMOVE
 70
     0
  9
$LUNITS
 70
     2
  9
$LUPREC
 70
     4
  9
$SKETCHINC
 40
0.1
  9
$FILLETRAD
 40
0.0
  9
$AUNITS
 70
     0
  9
$AUPREC
 70
     0
  9
$MENU
  1
acad
  9
$ELEVATION
 40
0.0
  9
$PELEVATION
 40
0.0
  9
$THICKNESS
 40
0.0
  9
$LIMCHECK
 70
     0
  9
$CHAMFERA
 40
0.0
  9
$CHAMFERB
 40
0.0
  9
$CHAMFERC
 40
0.0
  9
$CHAMFERD
 40
0.0
  9
$SKPOLY
 70
     0
  9
$TDCREATE
 40
2455006.755231482
  9
$TDUCREATE
 40
2455006.921898148
  9
$TDUPDATE
 40
2455103.881248368
  9
$TDUUPDATE
 40
2455104.047915035
  9
$TDINDWG
 40
0.0012325810
  9
$TDUSRTIMER
 40
0.0012325810
  9
$USRTIMER
 70
     1
  9
$ANGBASE
 50
0.0
  9
$ANGDIR
 70
     0
  9
$PDMODE
 70
     0
  9
$PDSIZE
 40
0.0
  9
$PLINEWID
 40
0.0
  9
$SPLFRAME
 70
     0
  9
$SPLINETYPE
 70
     6
  9
$SPLINESEGS
 70
     8
  9
$HANDSEED
  5
1B5
  9
$SURFTAB1
 70
     6
  9
$SURFTAB2
 70
     6
  9
$SURFTYPE
 70
     6
  9
$SURFU
 70
     6
  9
$SURFV
 70
     6
  9
$UCSBASE
  2

  9
$UCSNAME
  2

  9
$UCSORG
 10
0.0
 20
0.0
 30
0.0
  9
$UCSXDIR
 10
1.0
 20
0.0
 30
0.0
  9
$UCSYDIR
 10
0.0
 20
1.0
 30
0.0
  9
$UCSORTHOREF
  2

  9
$UCSORTHOVIEW
 70
     0
  9
$UCSORGTOP
 10
0.0
 20
0.0
 30
0.0
  9
$UCSORGBOTTOM
 10
0.0
 20
0.0
 30
0.0
  9
$UCSORGLEFT
 10
0.0
 20
0.0
 30
0.0
  9
$UCSORGRIGHT
 10
0.0
 20
0.0
 30
0.0
  9
$UCSORGFRONT
 10
0.0
 20
0.0
 30
0.0
  9
$UCSORGBACK
 10
0.0
 20
0.0
 30
0.0
  9
$PUCSBASE
  2

  9
$PUCSNAME
  2

  9
$PUCSORG
 10
0.0
 20
0.0
 30
0.0
  9
$PUCSXDIR
 10
1.0
 20
0.0
 30
0.0
  9
$PUCSYDIR
 10
0.0
 20
1.0
 30
0.0
  9
$PUCSORTHOREF
  2

  9
$PUCSORTHOVIEW
 70
     0
  9
$PUCSORGTOP
 10
0.0
 20
0.0
 30
0.0
  9
$PUCSORGBOTTOM
 10
0.0
 20
0.0
 30
0.0
  9
$PUCSORGLEFT
 10
0.0
 20
0.0
 30
0.0
  9
$PUCSORGRIGHT
 10
0.0
 20
0.0
 30
0.0
  9
$PUCSORGFRONT
 10
0.0
 20
0.0
 30
0.0
  9
$PUCSORGBACK
 10
0.0
 20
0.0
 30
0.0
  9
$USERI1
 70
     0
  9
$USERI2
 70
     0
  9
$USERI3
 70
     0
  9
$USERI4
 70
     0
  9
$USERI5
 70
     0
  9
$USERR1
 40
0.0
  9
$USERR2
 40
0.0
  9
$USERR3
 40
0.0
  9
$USERR4
 40
0.0
  9
$USERR5
 40
0.0
  9
$WORLDVIEW
 70
     1
  9
$SHADEDGE
 70
     3
  9
$SHADEDIF
 70
    70
  9
$TILEMODE
 70
     0
  9
$MAXACTVP
 70
    16
  9
$PINSBASE
 10
0.0
 20
0.0
 30
0.0
  9
$PLIMCHECK
 70
     0
  9
$PEXTMIN
 10
-0.5315241435926659
 20
0.272308365659125
 30
-0.0015258207003583
  9
$PEXTMAX
 10
9.900986003824218
 20
8.331847932224203
 30
0.0000000349246037
  9
$PLIMMIN
 10
-0.7888333375894519
 20
0.0520783301022378
  9
$PLIMMAX
 10
10.21116642211466
 20
8.552078089806347
  9
$UNITMODE
 70
     0
  9
$VISRETAIN
 70
     0
  9
$PLINEGEN
 70
     1
  9
$PSLTSCALE
 70
     0
  9
$TREEDEPTH
 70
  3020
  9
$CMLSTYLE
  2
Standard
  9
$CMLJUST
 70
     0
  9
$CMLSCALE
 40
1.0
  9
$PROXYGRAPHICS
 70
     0
  9
$MEASUREMENT
 70
     0
  9
$CELWEIGHT
370
     0
  9
$ENDCAPS
280
     0
  9
$JOINSTYLE
280
     0
  9
$LWDISPLAY
290
     0
  9
$INSUNITS
 70
     0
  9
$HYPERLINKBASE
  1

  9
$STYLESHEET
  1

  9
$XEDIT
290
     1
  9
$CEPSNTYPE
380
     0
  9
$PSTYLEMODE
290
     1
  9
$FINGERPRINTGUID
  2

  9
$VERSIONGUID
  2
{58698D17-AAFC-44C0-B3CC-6D1FE12548BD}
  9
$EXTNAMES
290
     1
  9
$PSVPSCALE
 40
0.0
  9
$OLESTARTUP
290
     0
  9
$SORTENTS
280
   127
  9
$INDEXCTL
280
     0
  9
$HIDETEXT
280
     0
  9
$XCLIPFRAME
290
     0
  9
$HALOGAP
280
     0
  9
$OBSCOLOR
 70
   257
  9
$OBSLTYPE
280
     0
  9
$INTERSECTIONDISPLAY
280
     0
  9
$INTERSECTIONCOLOR
 70
   257
  9
$DIMASSOC
280
     1
  9
$PROJECTNAME
  1

  0
ENDSEC
  0
SECTION
  2
CLASSES
  0
CLASS
  1
IMAGE
  2
AcDbRasterImage
  3
ISM
 90
     2175
 91
        0
280
     0
281
     1
  0
CLASS
  1
DICTIONARYVAR
  2
AcDbDictionaryVar
  3
ObjectDBX Classes
 90
        0
 91
        5
280
     0
281
     0
  0
CLASS
  1
RASTERVARIABLES
  2
AcDbRasterVariables
  3
ISM
 90
        0
 91
        0
280
     0
281
     0
  0
CLASS
  1
IMAGEDEF
  2
AcDbRasterImageDef
  3
ISM
 90
        0
 91
        0
280
     0
281
     0
  0
CLASS
  1
IMAGEDEF_REACTOR
  2
AcDbRasterImageDefReactor
  3
ISM
 90
        1
 91
        0
280
     0
281
     0
  0
CLASS
  1
IDBUFFER
  2
AcDbIdBuffer
  3
ObjectDBX Classes
 90
        0
 91
        0
280
     0
281
     0
  0
CLASS
  1
SPATIAL_FILTER
  2
AcDbSpatialFilter
  3
ObjectDBX Classes
 90
        0
 91
        0
280
     0
281
     0
  0
CLASS
  1
SORTENTSTABLE
  2
AcDbSortentsTable
  3
ObjectDBX Classes
 90
        0
 91
        1
280
     0
281
     0
  0
CLASS
  1
LAYER_INDEX
  2
AcDbLayerIndex
  3
ObjectDBX Classes
 90
        0
 91
        0
280
     0
281
     0
  0
CLASS
  1
SPATIAL_INDEX
  2
AcDbSpatialIndex
  3
ObjectDBX Classes
 90
        0
 91
        0
280
     0
281
     0
  0
CLASS
  1
OBJECT_PTR
  2
CAseDLPNTableRecord
  3
"ASE-LPNTableRecord"
 90
        1
 91
        0
280
     0
281
     0
  0
CLASS
  1
PLOTSETTINGS
  2
AcDbPlotSettings
  3
ObjectDBX Classes
 90
        0
 91
        0
280
     0
281
     0
  0
CLASS
  1
ACDBDICTIONARYWDFLT
  2
AcDbDictionaryWithDefault
  3
ObjectDBX Classes
 90
        0
 91
        1
280
     0
281
     0
  0
CLASS
  1
WIPEOUT
  2
AcDbWipeout
  3
"WipeOut|Product Desc: Object Enabler for WipeOut entity                        |Company: Autodesk, Inc.                        |WEB Address: www.autodesk.com"
 90
     2175
 91
        0
280
     0
281
     1
  0
CLASS
  1
WIPEOUTVARIABLES
  2
AcDbWipeoutVariables
  3
"WipeOut|Product Desc:     WipeOut Dbx Application|Company:          Autodesk, Inc.|WEB Address:      www.autodesk.com"
 90
        0
 91
        1
280
     0
281
     0
  0
CLASS
  1
RTEXT
  2
RText
  3
RText|AutoCAD Express Tool|expresstools@autodesk.com
 90
        0
 91
        0
280
     0
281
     1
  0
CLASS
  1
ARCALIGNEDTEXT
  2
AcDbArcAlignedText
  3
ATEXT|AutoCAD Express Tool|expresstools@autodesk.com
 90
        0
 91
        0
280
     0
281
     1
  0
CLASS
  1
MATERIAL
  2
AcDbMaterial
  3
ObjectDBX Classes
 90
     1153
 91
        3
280
     0
281
     0
  0
CLASS
  1
VISUALSTYLE
  2
AcDbVisualStyle
  3
ObjectDBX Classes
 90
     4095
 91
       16
280
     0
281
     0
  0
CLASS
  1
TABLESTYLE
  2
AcDbTableStyle
  3
ObjectDBX Classes
 90
     4095
 91
        1
280
     0
281
     0
  0
CLASS
  1
SCALE
  2
AcDbScale
  3
ObjectDBX Classes
 90
     1153
 91
       33
280
     0
281
     0
  0
CLASS
  1
MLEADERSTYLE
  2
AcDbMLeaderStyle
  3
ACDB_MLEADERSTYLE_CLASS
 90
     4095
 91
        1
280
     0
281
     0
  0
CLASS
  1
CELLSTYLEMAP
  2
AcDbCellStyleMap
  3
ObjectDBX Classes
 90
     1152
 91
        2
280
     0
281
     0
  0
ENDSEC
  0
SECTION
  2
TABLES
  0
TABLE
  2
VPORT
  5
7
330
0
100
AcDbSymbolTable
 70
     1
  0
VPORT
  5
15
330
7
100
AcDbSymbolTableRecord
100
AcDbViewportTableRecord
  2
*ACTIVE
 70
     0
 10
0.0
 20
0.0
 11
1.0
 21
1.0
 12
12.11780667605996
 22
4.579183999999999
 13
0.0
 23
0.0
 14
1.0
 24
1.0
 15
0.0
 25
0.0
 16
0.0
 26
0.0
 36
1.0
 17
0.0
 27
0.0
 37
0.0
 40
9.158369
 41
1.895442359249329
 42
50.0
 43
0.0
 44
0.0
 50
0.0
 51
0.0
 71
     0
 72
   100
 73
     1
 74
     1
 75
     0
 76
     0
 77
     0
 78
     0
281
     0
 65
     0
110
0.0
120
0.0
130
0.0
111
1.0
121
0.0
131
0.0
112
0.0
122
1.0
132
0.0
 79
     0
146
0.0
  0
ENDTAB
  0
TABLE
  2
LTYPE
  5
4
330
0
100
AcDbSymbolTable
 70
     5
  0
LTYPE
  5
11
330
4
100
AcDbSymbolTableRecord
100
AcDbLinetypeTableRecord
  2
ByBlock
 70
     0
  3

 72
    65
 73
     0
 40
0.0
  0
LTYPE
  5
12
330
4
100
AcDbSymbolTableRecord
100
AcDbLinetypeTableRecord
  2
ByLayer
 70
     0
  3

 72
    65
 73
     0
 40
0.0
  0
LTYPE
  5
13
330
4
100
AcDbSymbolTableRecord
100
AcDbLinetypeTableRecord
  2
Continuous
 70
     0
  3
Solid line
 72
    65
 73
     0
 40
0.0
  0
LTYPE
  5
24
330
4
100
AcDbSymbolTableRecord
100
AcDbLinetypeTableRecord
  2
solid
 70
     0
  3

 72
    65
 73
     0
 40
0.0
  0
LTYPE
  5
25
330
4
100
AcDbSymbolTableRecord
100
AcDbLinetypeTableRecord
  2
dashed
 70
     0
  3

 72
    65
 73
     0
 40
0.0
  0
LTYPE
  5
26
330
4
100
AcDbSymbolTableRecord
100
AcDbLinetypeTableRecord
  2
center
 70
     0
  3

 72
    65
 73
     0
 40
0.0
  0
ENDTAB
  0
TABLE
  2
LAYER
  5
2
330
0
100
AcDbSymbolTable
 70
     3
  0
LAYER
  5
14
102
{ACAD_XDICTIONARY
360
173
102
}
330
2
100
AcDbSymbolTableRecord
100
AcDbLayerTableRecord
  2
0
 70
     0
 62
     7
  6
Continuous
370
    -3
390
1D
  0
LAYER
  5
27
102
{ACAD_XDICTIONARY
360
175
102
}
330
2
100
AcDbSymbolTableRecord
100
AcDbLayerTableRecord
  2
1
 70
     0
 62
     1
  6
solid
370
    -3
390
1D
  0
LAYER
  5
E0
102
{ACAD_XDICTIONARY
360
177
102
}
330
2
100
AcDbSymbolTableRecord
100
AcDbLayerTableRecord
  2
0
 70
     0
 62
     1
  6
solid
370
    -3
390
1D
  0
ENDTAB
  0
TABLE
  2
STYLE
  5
3
330
0
100
AcDbSymbolTable
 70
     2
  0
STYLE
  5
17
330
3
100
AcDbSymbolTableRecord
100
AcDbTextStyleTableRecord
  2
Standard
 70
     0
 40
0.0
 41
1.0
 50
0.0
 71
     0
 42
0.0
  3
txt
  4

  0
ENDTAB
  0
TABLE
  2
VIEW
  5
5
330
0
100
AcDbSymbolTable
 70
     0
  0
ENDTAB
  0
TABLE
  2
UCS
  5
6
330
0
100
AcDbSymbolTable
 70
     0
  0
ENDTAB
  0
TABLE
  2
APPID
  5
8
330
0
100
AcDbSymbolTable
 70
     3
  0
APPID
  5
16
330
8
100
AcDbSymbolTableRecord
100
AcDbRegAppTableRecord
  2
ACAD
 70
     0
  0
APPID
  5
142
330
8
100
AcDbSymbolTableRecord
100
AcDbRegAppTableRecord
  2
ACAD_PSEXT
 70
     0
  0
APPID
  5
16C
330
8
100
AcDbSymbolTableRecord
100
AcDbRegAppTableRecord
  2
ACAD_MLEADERVER
 70
     0
  0
ENDTAB
  0
TABLE
  2
DIMSTYLE
  5
9
330
0
100
AcDbSymbolTable
 70
     3
100
AcDbDimStyleTable
 71
     1
340
18
  0
DIMSTYLE
105
18
330
9
100
AcDbSymbolTableRecord
100
AcDbDimStyleTableRecord
  2
Standard
 70
     0
289
     0
340
17
  0
ENDTAB
  0
TABLE
  2
BLOCK_RECORD
  5
1
330
0
100
AcDbSymbolTable
 70
     4
  0
BLOCK_RECORD
  5
A
102
{ACAD_XDICTIONARY
360
188
102
}
330
1
100
AcDbSymbolTableRecord
100
AcDbBlockTableRecord
  2
*MODEL_SPACE
340
20
  0
BLOCK_RECORD
  5
B
330
1
100
AcDbSymbolTableRecord
100
AcDbBlockTableRecord
  2
*PAPER_SPACE
340
21
  0
BLOCK_RECORD
  5
40
330
1
100
AcDbSymbolTableRecord
100
AcDbBlockTableRecord
  2
*D0
340
0
  0
BLOCK_RECORD
  5
4B
330
1
100
AcDbSymbolTableRecord
100
AcDbBlockTableRecord
  2
*D1
340
0
  0
ENDTAB
  0
ENDSEC
  0
SECTION
  2
BLOCKS
  0
BLOCK
  5
D
330
A
100
AcDbEntity
  8
0
100
AcDbBlockBegin
  2
*MODEL_SPACE
 70
     0
 10
0.0
 20
0.0
 30
0.0
  3
*MODEL_SPACE
  1

  0
ENDBLK
  5
E
330
A
100
AcDbEntity
  8
0
100
AcDbBlockEnd
  0
BLOCK
  5
F
330
B
100
AcDbEntity
 67
     1
  8
0
100
AcDbBlockBegin
  2
*PAPER_SPACE
 70
     0
 10
0.0
 20
0.0
 30
0.0
  3
*PAPER_SPACE
  1

  0
ENDBLK
  5
10
330
B
100
AcDbEntity
 67
     1
  8
0
100
AcDbBlockEnd
  0
BLOCK
  5
41
330
40
100
AcDbEntity
  8
1
  6
solid
 62
     7
100
AcDbBlockBegin
  2
*D0
 70
     0
 10
0.0
 20
0.0
 30
0.0
  3
*D0
  1

  0
LINE
  5
42
330
40
100
AcDbEntity
  8
1
  6
solid
 62
     7
100
AcDbLine
 10
-0.2513831555843353
 20
0.1900736689567565
 30
0.0
 11
-0.1477054213952617
 21
0.1900736689567564
 31
0.0
  0
LINE
  5
43
330
40
100
AcDbEntity
  8
1
  6
solid
 62
     7
100
AcDbLine
 10
-0.6888831853866578
 20
1.065073609352111
 30
0.0
 11
-0.1477054213952611
 21
1.065073609352111
 31
0.0
  0
LINE
  5
44
330
40
100
AcDbEntity
  8
1
  6
solid
 62
     7
100
AcDbLine
 10
-0.2102054213952617
 20
0.1900736689567565
 30
0.0
 11
-0.2102054213952615
 21
0.4677010430005879
 31
0.0
  0
LINE
  5
45
330
40
100
AcDbEntity
  8
1
  6
solid
 62
     7
100
AcDbLine
 10
-0.2102054213952611
 20
1.065073609352111
 30
0.0
 11
-0.2102054213952613
 21
0.7874462353082804
 31
0.0
  0
MTEXT
  5
46
330
40
100
AcDbEntity
  8
1
  6
solid
 62
     7
100
AcDbMText
 10
-0.2102054213952614
 20
0.6275736391544342
 30
0.0
 40
0.125
 41
0.0
 71
     5
 72
     1
  1
{\H0.125000;7/8}
 73
     1
 44
1.0
  0
SOLID
  5
47
330
40
100
AcDbEntity
  8
1
  6
solid
 62
     7
100
AcDbTrace
 10
-0.2310179213952616
 20
0.2317036689567566
 30
0.0
 11
-0.1893929213952617
 21
0.2317036689567564
 31
0.0
 12
-0.2102054213952617
 22
0.1900736689567565
 32
0.0
 13
-0.2102054213952617
 23
0.1900736689567565
 33
0.0
  0
SOLID
  5
48
330
40
100
AcDbEntity
  8
1
  6
solid
 62
     7
100
AcDbTrace
 10
-0.1893929213952612
 20
1.023443609352111
 30
0.0
 11
-0.2310179213952611
 21
1.023443609352111
 31
0.0
 12
-0.2102054213952611
 22
1.065073609352111
 32
0.0
 13
-0.2102054213952611
 23
1.065073609352111
 33
0.0
  0
ENDBLK
  5
49
330
40
100
AcDbEntity
  8
1
  6
solid
 62
     7
100
AcDbBlockEnd
  0
BLOCK
  5
4C
330
4B
100
AcDbEntity
  8
1
  6
solid
 62
     7
100
AcDbBlockBegin
  2
*D1
 70
     0
 10
0.0
 20
0.0
 30
0.0
  3
*D1
  1

  0
LINE
  5
4D
330
4B
100
AcDbEntity
  8
1
  6
solid
 62
     7
100
AcDbLine
 10
-1.126383185386657
 20
0.1900736689567566
 30
0.0
 11
-1.126383185386657
 21
0.0067133556940649
 31
0.0
  0
LINE
  5
4E
330
4B
100
AcDbEntity
  8
1
  6
solid
 62
     7
100
AcDbLine
 10
-0.2513831555843353
 20
0.1900736689567566
 30
0.0
 11
-0.2513831555843353
 21
0.0067133556940649
 31
0.0
  0
LINE
  5
4F
330
4B
100
AcDbEntity
  8
1
  6
solid
 62
     7
100
AcDbLine
 10
-1.126383185386657
 20
0.0692133556940649
 30
0.0
 11
-0.8809566998972611
 21
0.0692133556940649
 31
0.0
  0
LINE
  5
50
330
4B
100
AcDbEntity
  8
1
  6
solid
 62
     7
100
AcDbLine
 10
-0.2513831555843353
 20
0.0692133556940649
 30
0.0
 11
-0.4968096410737318
 21
0.0692133556940649
 31
0.0
  0
MTEXT
  5
51
330
4B
100
AcDbEntity
  8
1
  6
solid
 62
     7
100
AcDbMText
 10
-0.6888831704854966
 20
0.0692133556940649
 30
0.0
 40
0.125
 41
0.0
 71
     5
 72
     1
  1
{\H0.125000;7/8}
 73
     1
 44
1.0
  0
SOLID
  5
52
330
4B
100
AcDbEntity
  8
1
  6
solid
 62
     7
100
AcDbTrace
 10
-1.084753185386657
 20
0.0900258556940649
 30
0.0
 11
-1.084753185386657
 21
0.0484008556940649
 31
0.0
 12
-1.126383185386657
 22
0.0692133556940649
 32
0.0
 13
-1.126383185386657
 23
0.0692133556940649
 33
0.0
  0
SOLID
  5
53
330
4B
100
AcDbEntity
  8
1
  6
solid
 62
     7
100
AcDbTrace
 10
-0.2930131555843354
 20
0.0484008556940649
 30
0.0
 11
-0.2930131555843354
 21
0.0900258556940649
 31
0.0
 12
-0.2513831555843353
 22
0.0692133556940649
 32
0.0
 13
-0.2513831555843353
 23
0.0692133556940649
 33
0.0
  0
ENDBLK
  5
54
330
4B
100
AcDbEntity
  8
1
  6
solid
 62
     7
100
AcDbBlockEnd
  0
ENDSEC
  0
SECTION
  2
ENTITIES
  0
ARC
  5
28
330
A
100
AcDbEntity
  8
1
  6
solid
 62
     7
100
AcDbCircle
 10
0.6022953159925927
 20
0.9333418994637414
 30
0.0
 40
0.125
100
AcDbArc
 50
90.0
 51
180.0
  0
LINE
  5
29
330
A
100
AcDbEntity
  8
1
  6
solid
 62
     7
100
AcDbLine
 10
0.4772953159925927
 20
0.3083418994637415
 30
0.0
 11
0.4772953159925927
 21
0.9333418994637414
 31
0.0
  0
ARC
  5
2A
330
A
100
AcDbEntity
  8
1
  6
solid
 62
     7
100
AcDbCircle
 10
0.6022953159925927
 20
0.3083418994637415
 30
0.0
 40
0.125
100
AcDbArc
 50
180.0
 51
269.9999999999999
  0
LINE
  5
2B
330
A
100
AcDbEntity
  8
1
  6
solid
 62
     7
100
AcDbLine
 10
1.227295315992592
 20
0.1833418994637415
 30
0.0
 11
0.6022953159925928
 21
0.1833418994637415
 31
0.0
  0
ARC
  5
2C
330
A
100
AcDbEntity
  8
1
  6
solid
 62
     7
100
AcDbCircle
 10
1.227295315992592
 20
0.3083418994637415
 30
0.0
 40
0.125
100
AcDbArc
 50
270.0
 51
360.0
  0
LINE
  5
2D
330
A
100
AcDbEntity
  8
1
  6
solid
 62
     7
100
AcDbLine
 10
0.6022953159925927
 20
1.058341899463741
 30
0.0
 11
0.7897953159925927
 21
1.058341899463741
 31
0.0
  0
LINE
  5
2E
330
A
100
AcDbEntity
  8
1
  6
solid
 62
     7
100
AcDbLine
 10
0.7897953159925927
 20
0.4958418994637415
 30
0.0
 11
0.7897953159925927
 21
1.058341899463741
 31
0.0
  0
LINE
  5
2F
330
A
100
AcDbEntity
  8
1
  6
solid
 62
     7
100
AcDbLine
 10
1.352295315992592
 20
0.4958418994637415
 30
0.0
 11
1.352295315992592
 21
0.3083418994637415
 31
0.0
  0
LINE
  5
30
330
A
100
AcDbEntity
  8
1
  6
solid
 62
     7
100
AcDbLine
 10
0.7897953159925927
 20
0.4958418994637415
 30
0.0
 11
1.352295315992592
 21
0.4958418994637415
 31
0.0
  0
ARC
  5
31
330
A
100
AcDbEntity
  8
1
  6
solid
 62
     7
100
AcDbCircle
 10
-1.001383161024453
 20
0.9400736659844129
 30
0.0
 40
0.125
100
AcDbArc
 50
90.0
 51
180.0
  0
LINE
  5
32
330
A
100
AcDbEntity
  8
1
  6
solid
 62
     7
100
AcDbLine
 10
-1.126383161024453
 20
0.315073665984413
 30
0.0
 11
-1.126383161024453
 21
0.9400736659844129
 31
0.0
  0
ARC
  5
33
330
A
100
AcDbEntity
  8
1
  6
solid
 62
     7
100
AcDbCircle
 10
-1.001383161024453
 20
0.315073665984413
 30
0.0
 40
0.125
100
AcDbArc
 50
180.0
 51
269.9999999999999
  0
LINE
  5
34
330
A
100
AcDbEntity
  8
1
  6
solid
 62
     7
100
AcDbLine
 10
-0.3763831610244539
 20
0.190073665984413
 30
0.0
 11
-1.001383161024453
 21
0.190073665984413
 31
0.0
  0
ARC
  5
35
330
A
100
AcDbEntity
  8
1
  6
solid
 62
     7
100
AcDbCircle
 10
-0.3763831610244539
 20
0.315073665984413
 30
0.0
 40
0.125
100
AcDbArc
 50
270.0
 51
360.0
  0
LINE
  5
36
330
A
100
AcDbEntity
  8
1
  6
solid
 62
     7
100
AcDbLine
 10
-1.001383161024453
 20
1.065073665984412
 30
0.0
 11
-0.813883161024454
 21
1.065073665984412
 31
0.0
  0
LINE
  5
37
330
A
100
AcDbEntity
  8
1
  6
solid
 62
     7
100
AcDbLine
 10
-0.813883161024454
 20
0.502573665984413
 30
0.0
 11
-0.813883161024454
 21
1.065073665984412
 31
0.0
  0
LINE
  5
38
330
A
100
AcDbEntity
  8
1
  6
solid
 62
     7
100
AcDbLine
 10
-0.2513831610244539
 20
0.5025736659844132
 30
0.0
 11
-0.2513831610244539
 21
0.3150736659844131
 31
0.0
  0
LINE
  5
39
330
A
100
AcDbEntity
  8
1
  6
solid
 62
     7
100
AcDbLine
 10
-0.813883161024454
 20
0.502573665984413
 30
0.0
 11
-0.2513831610244539
 21
0.502573665984413
 31
0.0
  0
ARC
  5
3A
330
A
100
AcDbEntity
  8
1
  6
solid
 62
     7
100
AcDbCircle
 10
0.2634634921459427
 20
0.8555284875473866
 30
0.0
 40
0.125
100
AcDbArc
 50
122.2259746735217
 51
180.0
  0
LINE
  5
3B
330
A
100
AcDbEntity
  8
1
  6
solid
 62
     7
100
AcDbLine
 10
0.1384634921459427
 20
0.2305284875473866
 30
0.0
 11
0.1384634921459427
 21
0.8555284875473866
 31
0.0
  0
ARC
  5
3C
330
A
100
AcDbEntity
  8
1
  6
solid
 62
     7
100
AcDbCircle
 10
0.2634634921459427
 20
0.2305284875473866
 30
0.0
 40
0.125
100
AcDbArc
 50
180.0
 51
269.9999999999999
  0
LINE
  5
3D
330
A
100
AcDbEntity
  8
1
  6
solid
 62
     7
100
AcDbLine
 10
0.8884634921459428
 20
0.1055284875473866
 30
0.0
 11
0.2634634921459428
 21
0.1055284875473866
 31
0.0
  0
LINE
  5
3E
330
A
100
AcDbEntity
  8
1
  6
solid
 62
     7
100
AcDbLine
 10
0.8884634971618652
 20
0.1055284887552261
 30
0.0
 11
1.227295279502868
 21
0.1833419054746628
 31
0.0
  0
LINE
  5
3F
330
A
100
AcDbEntity
  8
1
  6
solid
 62
     7
100
AcDbLine
 10
0.5456918110965948
 20
1.044791633575083
 30
0.0
 11
0.1968060124541597
 21
0.9612724254404854
 31
0.0
  0
LINE
  5
56
330
A
100
AcDbEntity
  8
1
  6
solid
 62
     7
100
AcDbLine
 10
0.5000650379046423
 20
0.0471444530143255
 30
0.0
 11
0.4674917045713089
 21
-0.0361888803190079
 31
0.0
  0
LINE
  5
57
330
A
100
AcDbEntity
  8
1
  6
solid
 62
     7
100
AcDbLine
 10
0.4674917045713089
 20
-0.0361888803190079
 30
0.0
 11
0.4662157786453831
 21
-0.0396136951338227
 31
0.0
  0
SPLINE
  5
58
330
A
100
AcDbEntity
  8
1
  6
solid
 62
     7
100
AcDbSpline
210
0.0
220
0.0
230
1.0
 70
     8
 71
     2
 72
     7
 73
     4
 74
     0
 42
0.0000000001
 43
0.0000000001
 40
0.0
 40
0.0
 40
0.0
 40
1.0
 40
2.0
 40
2.0
 40
2.0
 10
0.4662157786453831
 20
-0.0396136951338227
 30
0.0
 10
0.4651294823490868
 20
-0.0424577692078968
 30
0.0
 10
0.4613609638305683
 20
-0.0454481395782671
 30
0.0
 10
0.4580072601268645
 20
-0.0454481395782671
 30
0.0
  0
SPLINE
  5
59
330
A
100
AcDbEntity
  8
1
  6
solid
 62
     7
100
AcDbSpline
210
0.0
220
0.0
230
1.0
 70
     8
 71
     2
 72
     7
 73
     4
 74
     0
 42
0.0000000001
 43
0.0000000001
 40
0.0
 40
0.0
 40
0.0
 40
1.0
 40
2.0
 40
2.0
 40
2.0
 10
0.4580072601268645
 20
-0.0454481395782671
 30
0.0
 10
0.4549735564231609
 20
-0.0454481395782671
 30
0.0
 10
0.4511339267935312
 20
-0.0419522136523412
 30
0.0
 10
0.4511339267935312
 20
-0.0394359173560449
 30
0.0
  0
SPLINE
  5
5A
330
A
100
AcDbEntity
  8
1
  6
solid
 62
     7
100
AcDbSpline
210
0.0
220
0.0
230
1.0
 70
     8
 71
     2
 72
     6
 73
     3
 74
     0
 42
0.0000000001
 43
0.0000000001
 40
0.0
 40
0.0
 40
0.0
 40
1.0
 40
1.0
 40
1.0
 10
0.4511339267935312
 20
-0.0394359173560449
 30
0.0
 10
0.4511339267935312
 20
-0.0372396210597486
 30
0.0
 10
0.4527061490157534
 20
-0.0337436951338227
 30
0.0
  0
LINE
  5
5B
330
A
100
AcDbEntity
  8
1
  6
solid
 62
     7
100
AcDbLine
 10
0.4527061490157534
 20
-0.0337436951338227
 30
0.0
 11
0.4548076304972349
 21
-0.0308362877264153
 31
0.0
  0
LINE
  5
5C
330
A
100
AcDbEntity
  8
1
  6
solid
 62
     7
100
AcDbLine
 10
0.4548076304972349
 20
-0.0308362877264153
 30
0.0
 11
0.4896009638305683
 21
0.034412971532844
 31
0.0
  0
LINE
  5
5D
330
A
100
AcDbEntity
  8
1
  6
solid
 62
     7
100
AcDbLine
 10
0.4896009638305683
 20
0.034412971532844
 30
0.0
 11
0.4617402230898275
 21
0.034412971532844
 31
0.0
  0
SPLINE
  5
5E
330
A
100
AcDbEntity
  8
1
  6
solid
 62
     7
100
AcDbSpline
210
0.0
220
0.0
230
1.0
 70
     8
 71
     2
 72
     7
 73
     4
 74
     0
 42
0.0000000001
 43
0.0000000001
 40
0.0
 40
0.0
 40
0.0
 40
1.0
 40
2.0
 40
2.0
 40
2.0
 10
0.4617402230898275
 20
0.034412971532844
 30
0.0
 10
0.458374667534272
 20
0.034412971532844
 30
0.0
 10
0.4556805934601979
 20
0.0336585270883996
 30
0.0
 10
0.4542980008676053
 20
0.0326314900513625
 30
0.0
  0
SPLINE
  5
5F
330
A
100
AcDbEntity
  8
1
  6
solid
 62
     7
100
AcDbSpline
210
0.0
220
0.0
230
1.0
 70
     8
 71
     2
 72
     7
 73
     4
 74
     0
 42
0.0000000001
 43
0.0000000001
 40
0.0
 40
0.0
 40
0.0
 40
1.0
 40
2.0
 40
2.0
 40
2.0
 10
0.4542980008676053
 20
0.0326314900513625
 30
0.0
 10
0.4531761490157535
 20
0.0321455641254366
 30
0.0
 10
0.4508257786453831
 20
0.0280848233846959
 30
0.0
 10
0.4486057786453831
 20
0.0230640826439551
 30
0.0
  0
LINE
  5
60
330
A
100
AcDbEntity
  8
1
  6
solid
 62
     7
100
AcDbLine
 10
0.4486057786453831
 20
0.0230640826439551
 30
0.0
 11
0.4478039267935312
 21
0.0216814900513625
 31
0.0
  0
LINE
  5
61
330
A
100
AcDbEntity
  8
1
  6
solid
 62
     7
100
AcDbLine
 10
0.4478039267935312
 20
0.0216814900513625
 30
0.0
 11
0.4438813342009386
 21
0.0216814900513625
 31
0.0
  0
LINE
  5
62
330
A
100
AcDbEntity
  8
1
  6
solid
 62
     7
100
AcDbLine
 10
0.4438813342009386
 20
0.0216814900513625
 30
0.0
 11
0.4498105934601979
 21
0.0506166752365477
 31
0.0
  0
LINE
  5
63
330
A
100
AcDbEntity
  8
1
  6
solid
 62
     7
100
AcDbLine
 10
0.4498105934601979
 20
0.0506166752365477
 30
0.0
 11
0.4537331860527905
 21
0.0506166752365477
 31
0.0
  0
SPLINE
  5
64
330
A
100
AcDbEntity
  8
1
  6
solid
 62
     7
100
AcDbSpline
210
0.0
220
0.0
230
1.0
 70
     8
 71
     2
 72
     7
 73
     4
 74
     0
 42
0.0000000001
 43
0.0000000001
 40
0.0
 40
0.0
 40
0.0
 40
1.0
 40
2.0
 40
2.0
 40
2.0
 10
0.4537331860527905
 20
0.0506166752365477
 30
0.0
 10
0.4545468897564941
 20
0.0472866752365477
 30
0.0
 10
0.4549854082750127
 20
0.0466151937550662
 30
0.0
 10
0.4577702230898275
 20
0.0466151937550662
 30
0.0
  0
LINE
  5
65
330
A
100
AcDbEntity
  8
1
  6
solid
 62
     7
100
AcDbLine
 10
0.5000650379046423
 20
0.0471444530143255
 30
0.0
 11
0.4577702230898275
 21
0.0466151937550662
 31
0.0
  0
LINE
  5
66
330
A
100
AcDbEntity
  8
1
  6
solid
 62
     7
100
AcDbLine
 10
0.5118742971639016
 20
-0.0604944358745634
 30
0.0
 11
0.5526087416083461
 21
0.0529314900513625
 31
0.0
  0
LINE
  5
67
330
A
100
AcDbEntity
  8
1
  6
solid
 62
     7
100
AcDbLine
 10
0.5526087416083461
 20
0.0529314900513625
 30
0.0
 11
0.5604854082750128
 21
0.0529314900513625
 31
0.0
  0
LINE
  5
68
330
A
100
AcDbEntity
  8
1
  6
solid
 62
     7
100
AcDbLine
 10
0.5604854082750128
 20
0.0529314900513625
 30
0.0
 11
0.519304667534272
 21
-0.0604944358745634
 31
0.0
  0
LINE
  5
69
330
A
100
AcDbEntity
  8
1
  6
solid
 62
     7
100
AcDbLine
 10
0.5118742971639016
 20
-0.0604944358745634
 30
0.0
 11
0.519304667534272
 21
-0.0604944358745634
 31
0.0
  0
SPLINE
  5
6A
330
A
100
AcDbEntity
  8
1
  6
solid
 62
     7
100
AcDbSpline
210
0.0
220
0.0
230
1.0
 70
     8
 71
     2
 72
     7
 73
     4
 74
     0
 42
0.0000000001
 43
0.0000000001
 40
0.0
 40
0.0
 40
0.0
 40
1.0
 40
2.0
 40
2.0
 40
2.0
 10
0.6112239267935311
 20
0.0079111196809921
 30
0.0
 10
0.6153005934601979
 20
0.0056911196809921
 30
0.0
 10
0.6217591119787162
 20
0.0009785270883995
 30
0.0
 10
0.6238842971639015
 20
-0.0013481395782671
 30
0.0
  0
SPLINE
  5
6B
330
A
100
AcDbEntity
  8
1
  6
solid
 62
     7
100
AcDbSpline
210
0.0
220
0.0
230
1.0
 70
     8
 71
     2
 72
     6
 73
     3
 74
     0
 42
0.0000000001
 43
0.0000000001
 40
0.0
 40
0.0
 40
0.0
 40
1.0
 40
1.0
 40
1.0
 10
0.6238842971639015
 20
-0.0013481395782671
 30
0.0
 10
0.6307931860527903
 20
-0.0092603618004893
 30
0.0
 10
0.6307931860527903
 20
-0.0194044358745634
 30
0.0
  0
SPLINE
  5
6C
330
A
100
AcDbEntity
  8
1
  6
solid
 62
     7
100
AcDbSpline
210
0.0
220
0.0
230
1.0
 70
     8
 71
     2
 72
     6
 73
     3
 74
     0
 42
0.0000000001
 43
0.0000000001
 40
0.0
 40
0.0
 40
0.0
 40
1.0
 40
1.0
 40
1.0
 10
0.6307931860527903
 20
-0.0194044358745634
 30
0.0
 10
0.6307931860527903
 20
-0.0300462877264153
 30
0.0
 10
0.6228691119787163
 20
-0.0379111025412301
 30
0.0
  0
SPLINE
  5
6D
330
A
100
AcDbEntity
  8
1
  6
solid
 62
     7
100
AcDbSpline
210
0.0
220
0.0
230
1.0
 70
     8
 71
     2
 72
     6
 73
     3
 74
     0
 42
0.0000000001
 43
0.0000000001
 40
0.0
 40
0.0
 40
0.0
 40
1.0
 40
1.0
 40
1.0
 10
0.6228691119787163
 20
-0.0379111025412301
 30
0.0
 10
0.6149450379046423
 20
-0.0454481395782671
 30
0.0
 10
0.6013405934601978
 20
-0.0454481395782671
 30
0.0
  0
SPLINE
  5
6E
330
A
100
AcDbEntity
  8
1
  6
solid
 62
     7
100
AcDbSpline
210
0.0
220
0.0
230
1.0
 70
     8
 71
     2
 72
     6
 73
     3
 74
     0
 42
0.0000000001
 43
0.0000000001
 40
0.0
 40
0.0
 40
0.0
 40
1.0
 40
1.0
 40
1.0
 10
0.6013405934601978
 20
-0.0454481395782671
 30
0.0
 10
0.5874398527194571
 20
-0.0454481395782671
 30
0.0
 10
0.578958741608346
 20
-0.0371685099486375
 30
0.0
  0
SPLINE
  5
6F
330
A
100
AcDbEntity
  8
1
  6
solid
 62
     7
100
AcDbSpline
210
0.0
220
0.0
230
1.0
 70
     8
 71
     2
 72
     6
 73
     3
 74
     0
 42
0.0000000001
 43
0.0000000001
 40
0.0
 40
0.0
 40
0.0
 40
1.0
 40
1.0
 40
1.0
 10
0.578958741608346
 20
-0.0371685099486375
 30
0.0
 10
0.5717654082750127
 20
-0.0301173988375264
 30
0.0
 10
0.5717654082750127
 20
-0.0205025840227116
 30
0.0
  0
SPLINE
  5
70
330
A
100
AcDbEntity
  8
1
  6
solid
 62
     7
100
AcDbSpline
210
0.0
220
0.0
230
1.0
 70
     8
 71
     2
 72
     6
 73
     3
 74
     0
 42
0.0000000001
 43
0.0000000001
 40
0.0
 40
0.0
 40
0.0
 40
1.0
 40
1.0
 40
1.0
 10
0.5717654082750127
 20
-0.0205025840227116
 30
0.0
 10
0.5717654082750127
 20
-0.0100385099486375
 30
0.0
 10
0.5801280008676052
 20
-0.0031059173560449
 30
0.0
  0
SPLINE
  5
71
330
A
100
AcDbEntity
  8
1
  6
solid
 62
     7
100
AcDbSpline
210
0.0
220
0.0
230
1.0
 70
     8
 71
     2
 72
     6
 73
     3
 74
     0
 42
0.0000000001
 43
0.0000000001
 40
0.0
 40
0.0
 40
0.0
 40
1.0
 40
1.0
 40
1.0
 10
0.5801280008676052
 20
-0.0031059173560449
 30
0.0
 10
0.5836594823490868
 20
0.0000107493106218
 30
0.0
 10
0.5919154082750127
 20
0.0034237122735847
 30
0.0
  0
SPLINE
  5
72
330
A
100
AcDbEntity
  8
1
  6
solid
 62
     7
100
AcDbSpline
210
0.0
220
0.0
230
1.0
 70
     8
 71
     2
 72
     6
 73
     3
 74
     0
 42
0.0000000001
 43
0.0000000001
 40
0.0
 40
0.0
 40
0.0
 40
1.0
 40
1.0
 40
1.0
 10
0.5919154082750127
 20
0.0034237122735847
 30
0.0
 10
0.5840387416083459
 20
0.0061651937550662
 30
0.0
 10
0.5799265193861238
 20
0.011655934495807
 30
0.0
  0
SPLINE
  5
73
330
A
100
AcDbEntity
  8
1
  6
solid
 62
     7
100
AcDbSpline
210
0.0
220
0.0
230
1.0
 70
     8
 71
     2
 72
     6
 73
     3
 74
     0
 42
0.0000000001
 43
0.0000000001
 40
0.0
 40
0.0
 40
0.0
 40
1.0
 40
1.0
 40
1.0
 10
0.5799265193861238
 20
0.011655934495807
 30
0.0
 10
0.5740802230898275
 20
0.0186003789402514
 30
0.0
 10
0.5740802230898275
 20
0.0275870456069181
 30
0.0
  0
SPLINE
  5
74
330
A
100
AcDbEntity
  8
1
  6
solid
 62
     7
100
AcDbSpline
210
0.0
220
0.0
230
1.0
 70
     8
 71
     2
 72
     6
 73
     3
 74
     0
 42
0.0000000001
 43
0.0000000001
 40
0.0
 40
0.0
 40
0.0
 40
1.0
 40
1.0
 40
1.0
 10
0.5740802230898275
 20
0.0275870456069181
 30
0.0
 10
0.5740802230898275
 20
0.037035934495807
 30
0.0
 10
0.5802939267935311
 20
0.0438144530143255
 30
0.0
  0
SPLINE
  5
75
330
A
100
AcDbEntity
  8
1
  6
solid
 62
     7
100
AcDbSpline
210
0.0
220
0.0
230
1.0
 70
     8
 71
     2
 72
     7
 73
     4
 74
     0
 42
0.0000000001
 43
0.0000000001
 40
0.0
 40
0.0
 40
0.0
 40
1.0
 40
2.0
 40
2.0
 40
2.0
 10
0.5802939267935311
 20
0.0438144530143255
 30
0.0
 10
0.5838609638305682
 20
0.0474763048661773
 30
0.0
 10
0.5942302230898275
 20
0.0517740826439551
 30
0.0
 10
0.6000765193861238
 20
0.0517740826439551
 30
0.0
  0
SPLINE
  5
76
330
A
100
AcDbEntity
  8
1
  6
solid
 62
     7
100
AcDbSpline
210
0.0
220
0.0
230
1.0
 70
     8
 71
     2
 72
     7
 73
     4
 74
     0
 42
0.0000000001
 43
0.0000000001
 40
0.0
 40
0.0
 40
0.0
 40
1.0
 40
2.0
 40
2.0
 40
2.0
 10
0.6000765193861238
 20
0.0517740826439551
 30
0.0
 10
0.6057094823490868
 20
0.0517740826439551
 30
0.0
 10
0.6162091119787164
 20
0.0478555641254366
 30
0.0
 10
0.61956281568242
 20
0.0452444530143255
 30
0.0
  0
SPLINE
  5
77
330
A
100
AcDbEntity
  8
1
  6
solid
 62
     7
100
AcDbSpline
210
0.0
220
0.0
230
1.0
 70
     8
 71
     2
 72
     6
 73
     3
 74
     0
 42
0.0000000001
 43
0.0000000001
 40
0.0
 40
0.0
 40
0.0
 40
1.0
 40
1.0
 40
1.0
 10
0.61956281568242
 20
0.0452444530143255
 30
0.0
 10
0.6273209638305682
 20
0.0390544530143255
 30
0.0
 10
0.6273209638305682
 20
0.0299374159772885
 30
0.0
  0
SPLINE
  5
78
330
A
100
AcDbEntity
  8
1
  6
solid
 62
     7
100
AcDbSpline
210
0.0
220
0.0
230
1.0
 70
     8
 71
     2
 72
     6
 73
     3
 74
     0
 42
0.0000000001
 43
0.0000000001
 40
0.0
 40
0.0
 40
0.0
 40
1.0
 40
1.0
 40
1.0
 10
0.6273209638305682
 20
0.0299374159772885
 30
0.0
 10
0.6273209638305682
 20
0.0212470456069181
 30
0.0
 10
0.6207320749416793
 20
0.0148555641254366
 30
0.0
  0
SPLINE
  5
79
330
A
100
AcDbEntity
  8
1
  6
solid
 62
     7
100
AcDbSpline
210
0.0
220
0.0
230
1.0
 70
     8
 71
     2
 72
     6
 73
     3
 74
     0
 42
0.0000000001
 43
0.0000000001
 40
0.0
 40
0.0
 40
0.0
 40
1.0
 40
1.0
 40
1.0
 10
0.6207320749416793
 20
0.0148555641254366
 30
0.0
 10
0.6182631860527904
 20
0.0118811196809921
 30
0.0
 10
0.6112239267935311
 20
0.0079111196809921
 30
0.0
  0
SPLINE
  5
7A
330
A
100
AcDbEntity
  8
1
  6
solid
 62
     7
100
AcDbSpline
210
0.0
220
0.0
230
1.0
 70
     8
 71
     2
 72
     7
 73
     4
 74
     0
 42
0.0000000001
 43
0.0000000001
 40
0.0
 40
0.0
 40
0.0
 40
1.0
 40
2.0
 40
2.0
 40
2.0
 10
0.6055317045713089
 20
0.0103088974587699
 30
0.0
 10
0.6090631860527905
 20
0.0135914900513625
 30
0.0
 10
0.6134320749416793
 20
0.023075934495807
 30
0.0
 10
0.6134320749416793
 20
0.0290407493106218
 30
0.0
  0
SPLINE
  5
7B
330
A
100
AcDbEntity
  8
1
  6
solid
 62
     7
100
AcDbSpline
210
0.0
220
0.0
230
1.0
 70
     8
 71
     2
 72
     7
 73
     4
 74
     0
 42
0.0000000001
 43
0.0000000001
 40
0.0
 40
0.0
 40
0.0
 40
1.0
 40
2.0
 40
2.0
 40
2.0
 10
0.6134320749416793
 20
0.0290407493106218
 30
0.0
 10
0.6134320749416793
 20
0.037355934495807
 30
0.0
 10
0.6053420749416793
 20
0.0483018604217329
 30
0.0
 10
0.5989072601268645
 20
0.0483018604217329
 30
0.0
  0
SPLINE
  5
7C
330
A
100
AcDbEntity
  8
1
  6
solid
 62
     7
100
AcDbSpline
210
0.0
220
0.0
230
1.0
 70
     8
 71
     2
 72
     7
 73
     4
 74
     0
 42
0.0000000001
 43
0.0000000001
 40
0.0
 40
0.0
 40
0.0
 40
1.0
 40
2.0
 40
2.0
 40
2.0
 10
0.5989072601268645
 20
0.0483018604217329
 30
0.0
 10
0.5940168897564942
 20
0.0483018604217329
 30
0.0
 10
0.586811704571309
 20
0.0395285270883995
 30
0.0
 10
0.586811704571309
 20
0.0322996381995107
 30
0.0
  0
SPLINE
  5
7D
330
A
100
AcDbEntity
  8
1
  6
solid
 62
     7
100
AcDbSpline
210
0.0
220
0.0
230
1.0
 70
     8
 71
     2
 72
     6
 73
     3
 74
     0
 42
0.0000000001
 43
0.0000000001
 40
0.0
 40
0.0
 40
0.0
 40
1.0
 40
1.0
 40
1.0
 10
0.586811704571309
 20
0.0322996381995107
 30
0.0
 10
0.586811704571309
 20
0.0224044530143255
 30
0.0
 10
0.5938983712379756
 20
0.0170637122735847
 30
0.0
  0
SPLINE
  5
7E
330
A
100
AcDbEntity
  8
1
  6
solid
 62
     7
100
AcDbSpline
210
0.0
220
0.0
230
1.0
 70
     8
 71
     2
 72
     6
 73
     3
 74
     0
 42
0.0000000001
 43
0.0000000001
 40
0.0
 40
0.0
 40
0.0
 40
1.0
 40
1.0
 40
1.0
 10
0.5938983712379756
 20
0.0170637122735847
 30
0.0
 10
0.5984805934601978
 20
0.0130977863476588
 30
0.0
 10
0.6055317045713089
 20
0.0103088974587699
 30
0.0
  0
SPLINE
  5
7F
330
A
100
AcDbEntity
  8
1
  6
solid
 62
     7
100
AcDbSpline
210
0.0
220
0.0
230
1.0
 70
     8
 71
     2
 72
     7
 73
     4
 74
     0
 42
0.0000000001
 43
0.0000000001
 40
0.0
 40
0.0
 40
0.0
 40
1.0
 40
2.0
 40
2.0
 40
2.0
 10
0.5960828156824201
 20
0.0010259344958069
 30
0.0
 10
0.5914531860527905
 20
-0.0032244358745634
 30
0.0
 10
0.5856542971639015
 20
-0.0147273988375264
 30
0.0
 10
0.5856542971639015
 20
-0.0219918432819708
 30
0.0
  0
SPLINE
  5
80
330
A
100
AcDbEntity
  8
1
  6
solid
 62
     7
100
AcDbSpline
210
0.0
220
0.0
230
1.0
 70
     8
 71
     2
 72
     6
 73
     3
 74
     0
 42
0.0000000001
 43
0.0000000001
 40
0.0
 40
0.0
 40
0.0
 40
1.0
 40
1.0
 40
1.0
 10
0.5856542971639015
 20
-0.0219918432819708
 30
0.0
 10
0.5856542971639015
 20
-0.0311207321708597
 30
0.0
 10
0.5896480008676052
 20
-0.036177028467156
 30
0.0
  0
SPLINE
  5
81
330
A
100
AcDbEntity
  8
1
  6
solid
 62
     7
100
AcDbSpline
210
0.0
220
0.0
230
1.0
 70
     8
 71
     2
 72
     6
 73
     3
 74
     0
 42
0.0000000001
 43
0.0000000001
 40
0.0
 40
0.0
 40
0.0
 40
1.0
 40
1.0
 40
1.0
 10
0.5896480008676052
 20
-0.036177028467156
 30
0.0
 10
0.5943250379046422
 20
-0.0419759173560449
 30
0.0
 10
0.6013168897564941
 20
-0.0419759173560449
 30
0.0
  0
SPLINE
  5
82
330
A
100
AcDbEntity
  8
1
  6
solid
 62
     7
100
AcDbSpline
210
0.0
220
0.0
230
1.0
 70
     8
 71
     2
 72
     6
 73
     3
 74
     0
 42
0.0000000001
 43
0.0000000001
 40
0.0
 40
0.0
 40
0.0
 40
1.0
 40
1.0
 40
1.0
 10
0.6013168897564941
 20
-0.0419759173560449
 30
0.0
 10
0.6080717045713089
 20
-0.0419759173560449
 30
0.0
 10
0.6118520749416793
 20
-0.0378518432819708
 30
0.0
  0
SPLINE
  5
83
330
A
100
AcDbEntity
  8
1
  6
solid
 62
     7
100
AcDbSpline
210
0.0
220
0.0
230
1.0
 70
     8
 71
     2
 72
     7
 73
     4
 74
     0
 42
0.0000000001
 43
0.0000000001
 40
0.0
 40
0.0
 40
0.0
 40
1.0
 40
2.0
 40
2.0
 40
2.0
 10
0.6118520749416793
 20
-0.0378518432819708
 30
0.0
 10
0.6140839267935311
 20
-0.0354540655041931
 30
0.0
 10
0.6169042971639015
 20
-0.0279803618004894
 30
0.0
 10
0.6169042971639015
 20
-0.0242236951338227
 30
0.0
  0
SPLINE
  5
84
330
A
100
AcDbEntity
  8
1
  6
solid
 62
     7
100
AcDbSpline
210
0.0
220
0.0
230
1.0
 70
     8
 71
     2
 72
     6
 73
     3
 74
     0
 42
0.0000000001
 43
0.0000000001
 40
0.0
 40
0.0
 40
0.0
 40
1.0
 40
1.0
 40
1.0
 10
0.6169042971639015
 20
-0.0242236951338227
 30
0.0
 10
0.6169042971639015
 20
-0.0151185099486375
 30
0.0
 10
0.6103865193861238
 20
-0.0088929543930819
 30
0.0
  0
SPLINE
  5
85
330
A
100
AcDbEntity
  8
1
  6
solid
 62
     7
100
AcDbSpline
210
0.0
220
0.0
230
1.0
 70
     8
 71
     2
 72
     6
 73
     3
 74
     0
 42
0.0000000001
 43
0.0000000001
 40
0.0
 40
0.0
 40
0.0
 40
1.0
 40
1.0
 40
1.0
 10
0.6103865193861238
 20
-0.0088929543930819
 30
0.0
 10
0.6055909638305681
 20
-0.0035918432819708
 30
0.0
 10
0.5960828156824201
 20
0.0010259344958069
 30
0.0
  0
LINE
  5
86
330
A
100
AcDbEntity
  8
1
  6
solid
 62
     7
100
AcDbLine
 10
0.6568254082750126
 20
0.0494592678291403
 30
0.0
 11
0.7023909638305682
 21
0.0494592678291403
 31
0.0
  0
LINE
  5
87
330
A
100
AcDbEntity
  8
1
  6
solid
 62
     7
100
AcDbLine
 10
0.7023909638305682
 20
0.0494592678291403
 30
0.0
 11
0.7023909638305682
 21
0.0459870456069181
 31
0.0
  0
SPLINE
  5
88
330
A
100
AcDbEntity
  8
1
  6
solid
 62
     7
100
AcDbSpline
210
0.0
220
0.0
230
1.0
 70
     8
 71
     2
 72
     6
 73
     3
 74
     0
 42
0.0000000001
 43
0.0000000001
 40
0.0
 40
0.0
 40
0.0
 40
1.0
 40
1.0
 40
1.0
 10
0.7023909638305682
 20
0.0459870456069181
 30
0.0
 10
0.6962246675342719
 20
0.0459870456069181
 30
0.0
 10
0.6939217045713089
 20
0.0450666752365477
 30
0.0
  0
SPLINE
  5
89
330
A
100
AcDbEntity
  8
1
  6
solid
 62
     7
100
AcDbSpline
210
0.0
220
0.0
230
1.0
 70
     8
 71
     2
 72
     6
 73
     3
 74
     0
 42
0.0000000001
 43
0.0000000001
 40
0.0
 40
0.0
 40
0.0
 40
1.0
 40
1.0
 40
1.0
 10
0.6939217045713089
 20
0.0450666752365477
 30
0.0
 10
0.6915476304972348
 20
0.0441226011624736
 30
0.0
 10
0.6915476304972348
 20
0.0408163048661773
 30
0.0
  0
SPLINE
  5
8A
330
A
100
AcDbEntity
  8
1
  6
solid
 62
     7
100
AcDbSpline
210
0.0
220
0.0
230
1.0
 70
     8
 71
     2
 72
     6
 73
     3
 74
     0
 42
0.0000000001
 43
0.0000000001
 40
0.0
 40
0.0
 40
0.0
 40
1.0
 40
1.0
 40
1.0
 10
0.6915476304972348
 20
0.0408163048661773
 30
0.0
 10
0.6915476304972348
 20
0.0372137122735847
 30
0.0
 10
0.6966039267935312
 20
0.0300203789402514
 30
0.0
  0
LINE
  5
8B
330
A
100
AcDbEntity
  8
1
  6
solid
 62
     7
100
AcDbLine
 10
0.6966039267935312
 20
0.0300203789402514
 30
0.0
 11
0.7073405934601979
 21
0.0131214900513625
 31
0.0
  0
LINE
  5
8C
330
A
100
AcDbEntity
  8
1
  6
solid
 62
     7
100
AcDbLine
 10
0.7073405934601979
 20
0.0131214900513625
 30
0.0
 11
0.7160191119787163
 21
0.0255092678291403
 31
0.0
  0
SPLINE
  5
8D
330
A
100
AcDbEntity
  8
1
  6
solid
 62
     7
100
AcDbSpline
210
0.0
220
0.0
230
1.0
 70
     8
 71
     2
 72
     7
 73
     4
 74
     0
 42
0.0000000001
 43
0.0000000001
 40
0.0
 40
0.0
 40
0.0
 40
1.0
 40
2.0
 40
2.0
 40
2.0
 10
0.7160191119787163
 20
0.0255092678291403
 30
0.0
 10
0.7217350379046423
 20
0.0326907493106218
 30
0.0
 10
0.7251124453120497
 20
0.0384422307921033
 30
0.0
 10
0.7251124453120497
 20
0.040685934495807
 30
0.0
  0
SPLINE
  5
8E
330
A
100
AcDbEntity
  8
1
  6
solid
 62
     7
100
AcDbSpline
210
0.0
220
0.0
230
1.0
 70
     8
 71
     2
 72
     6
 73
     3
 74
     0
 42
0.0000000001
 43
0.0000000001
 40
0.0
 40
0.0
 40
0.0
 40
1.0
 40
1.0
 40
1.0
 10
0.7251124453120497
 20
0.040685934495807
 30
0.0
 10
0.7251124453120497
 20
0.0438381567180292
 30
0.0
 10
0.7220550379046422
 20
0.0449837122735847
 30
0.0
  0
SPLINE
  5
8F
330
A
100
AcDbEntity
  8
1
  6
solid
 62
     7
100
AcDbSpline
210
0.0
220
0.0
230
1.0
 70
     8
 71
     2
 72
     6
 73
     3
 74
     0
 42
0.0000000001
 43
0.0000000001
 40
0.0
 40
0.0
 40
0.0
 40
1.0
 40
1.0
 40
1.0
 10
0.7220550379046422
 20
0.0449837122735847
 30
0.0
 10
0.7206961490157533
 20
0.0454103789402514
 30
0.0
 10
0.7158531860527904
 20
0.0460344530143255
 30
0.0
  0
LINE
  5
90
330
A
100
AcDbEntity
  8
1
  6
solid
 62
     7
100
AcDbLine
 10
0.7158531860527904
 20
0.0460344530143255
 30
0.0
 11
0.7158531860527904
 21
0.0494592678291403
 31
0.0
  0
LINE
  5
91
330
A
100
AcDbEntity
  8
1
  6
solid
 62
     7
100
AcDbLine
 10
0.7158531860527904
 20
0.0494592678291403
 30
0.0
 11
0.7494180008676052
 21
0.0494592678291403
 31
0.0
  0
LINE
  5
92
330
A
100
AcDbEntity
  8
1
  6
solid
 62
     7
100
AcDbLine
 10
0.7494180008676052
 20
0.0494592678291403
 30
0.0
 11
0.7494180008676052
 21
0.0459870456069181
 31
0.0
  0
SPLINE
  5
93
330
A
100
AcDbEntity
  8
1
  6
solid
 62
     7
100
AcDbSpline
210
0.0
220
0.0
230
1.0
 70
     8
 71
     2
 72
     6
 73
     3
 74
     0
 42
0.0000000001
 43
0.0000000001
 40
0.0
 40
0.0
 40
0.0
 40
1.0
 40
1.0
 40
1.0
 10
0.7494180008676052
 20
0.0459870456069181
 30
0.0
 10
0.7426394823490867
 20
0.0459870456069181
 30
0.0
 10
0.7397242971639015
 20
0.0443596381995107
 30
0.0
  0
SPLINE
  5
94
330
A
100
AcDbEntity
  8
1
  6
solid
 62
     7
100
AcDbSpline
210
0.0
220
0.0
230
1.0
 70
     8
 71
     2
 72
     6
 73
     3
 74
     0
 42
0.0000000001
 43
0.0000000001
 40
0.0
 40
0.0
 40
0.0
 40
1.0
 40
1.0
 40
1.0
 10
0.7397242971639015
 20
0.0443596381995107
 30
0.0
 10
0.7362520749416792
 20
0.0428822307921033
 30
0.0
 10
0.7290231860527904
 20
0.0334688974587699
 30
0.0
  0
LINE
  5
95
330
A
100
AcDbEntity
  8
1
  6
solid
 62
     7
100
AcDbLine
 10
0.7290231860527904
 20
0.0334688974587699
 30
0.0
 11
0.7242750379046422
 21
0.0268681567180292
 31
0.0
  0
LINE
  5
96
330
A
100
AcDbEntity
  8
1
  6
solid
 62
     7
100
AcDbLine
 10
0.7242750379046422
 20
0.0268681567180292
 30
0.0
 11
0.7108009638305682
 21
0.0095307493106218
 31
0.0
  0
LINE
  5
97
330
A
100
AcDbEntity
  8
1
  6
solid
 62
     7
100
AcDbLine
 10
0.7108009638305682
 20
0.0095307493106218
 30
0.0
 11
0.7339017045713089
 21
-0.0243540655041931
 31
0.0
  0
SPLINE
  5
98
330
A
100
AcDbEntity
  8
1
  6
solid
 62
     7
100
AcDbSpline
210
0.0
220
0.0
230
1.0
 70
     8
 71
     2
 72
     6
 73
     3
 74
     0
 42
0.0000000001
 43
0.0000000001
 40
0.0
 40
0.0
 40
0.0
 40
1.0
 40
1.0
 40
1.0
 10
0.7339017045713089
 20
-0.0243540655041931
 30
0.0
 10
0.7397005934601978
 20
-0.0335303618004894
 30
0.0
 10
0.7440694823490867
 20
-0.0371211025412301
 30
0.0
  0
SPLINE
  5
99
330
A
100
AcDbEntity
  8
1
  6
solid
 62
     7
100
AcDbSpline
210
0.0
220
0.0
230
1.0
 70
     8
 71
     2
 72
     7
 73
     4
 74
     0
 42
0.0000000001
 43
0.0000000001
 40
0.0
 40
0.0
 40
0.0
 40
1.0
 40
2.0
 40
2.0
 40
2.0
 10
0.7440694823490867
 20
-0.0371211025412301
 30
0.0
 10
0.7465620749416793
 20
-0.0393766580967857
 30
0.0
 10
0.7506820749416793
 20
-0.0407236951338227
 30
0.0
 10
0.7563624453120497
 20
-0.0413003618004894
 30
0.0
  0
LINE
  5
9A
330
A
100
AcDbEntity
  8
1
  6
solid
 62
     7
100
AcDbLine
 10
0.7563624453120497
 20
-0.0413003618004894
 30
0.0
 11
0.7563624453120497
 21
-0.0442907321708597
 31
0.0
  0
LINE
  5
9B
330
A
100
AcDbEntity
  8
1
  6
solid
 62
     7
100
AcDbLine
 10
0.7563624453120497
 20
-0.0442907321708597
 30
0.0
 11
0.7077513342009385
 21
-0.0442907321708597
 31
0.0
  0
LINE
  5
9C
330
A
100
AcDbEntity
  8
1
  6
solid
 62
     7
100
AcDbLine
 10
0.7077513342009385
 20
-0.0442907321708597
 30
0.0
 11
0.7077513342009385
 21
-0.0413122136523412
 31
0.0
  0
SPLINE
  5
9D
330
A
100
AcDbEntity
  8
1
  6
solid
 62
     7
100
AcDbSpline
210
0.0
220
0.0
230
1.0
 70
     8
 71
     2
 72
     6
 73
     3
 74
     0
 42
0.0000000001
 43
0.0000000001
 40
0.0
 40
0.0
 40
0.0
 40
1.0
 40
1.0
 40
1.0
 10
0.7077513342009385
 20
-0.0413122136523412
 30
0.0
 10
0.7137042971639015
 20
-0.0404392506893782
 30
0.0
 10
0.7159480008676053
 20
-0.0392344358745634
 30
0.0
  0
SPLINE
  5
9E
330
A
100
AcDbEntity
  8
1
  6
solid
 62
     7
100
AcDbSpline
210
0.0
220
0.0
230
1.0
 70
     8
 71
     2
 72
     6
 73
     3
 74
     0
 42
0.0000000001
 43
0.0000000001
 40
0.0
 40
0.0
 40
0.0
 40
1.0
 40
1.0
 40
1.0
 10
0.7159480008676053
 20
-0.0392344358745634
 30
0.0
 10
0.7193254082750126
 20
-0.0372514729116005
 30
0.0
 10
0.7193254082750126
 20
-0.0344151766153042
 30
0.0
  0
SPLINE
  5
9F
330
A
100
AcDbEntity
  8
1
  6
solid
 62
     7
100
AcDbSpline
210
0.0
220
0.0
230
1.0
 70
     8
 71
     2
 72
     7
 73
     4
 74
     0
 42
0.0000000001
 43
0.0000000001
 40
0.0
 40
0.0
 40
0.0
 40
1.0
 40
2.0
 40
2.0
 40
2.0
 10
0.7193254082750126
 20
-0.0344151766153042
 30
0.0
 10
0.7193254082750126
 20
-0.0333881395782671
 30
0.0
 10
0.7175202230898275
 20
-0.030152954393082
 30
0.0
 10
0.7152883712379757
 20
-0.0268229543930819
 30
0.0
  0
LINE
  5
A0
330
A
100
AcDbEntity
  8
1
  6
solid
 62
     7
100
AcDbLine
 10
0.7152883712379757
 20
-0.0268229543930819
 30
0.0
 11
0.6999576304972348
 21
-0.0025411025412301
 31
0.0
  0
LINE
  5
A1
330
A
100
AcDbEntity
  8
1
  6
solid
 62
     7
100
AcDbLine
 10
0.6999576304972348
 20
-0.0025411025412301
 30
0.0
 11
0.685985778645383
 21
-0.0217666580967857
 31
0.0
  0
SPLINE
  5
A2
330
A
100
AcDbEntity
  8
1
  6
solid
 62
     7
100
AcDbSpline
210
0.0
220
0.0
230
1.0
 70
     8
 71
     2
 72
     7
 73
     4
 74
     0
 42
0.0000000001
 43
0.0000000001
 40
0.0
 40
0.0
 40
0.0
 40
1.0
 40
2.0
 40
2.0
 40
2.0
 10
0.685985778645383
 20
-0.0217666580967857
 30
0.0
 10
0.6826676304972348
 20
-0.0256181395782671
 30
0.0
 10
0.6799735564231608
 20
-0.0312985099486375
 30
0.0
 10
0.6799735564231608
 20
-0.0337911025412301
 30
0.0
  0
SPLINE
  5
A3
330
A
100
AcDbEntity
  8
1
  6
solid
 62
     7
100
AcDbSpline
210
0.0
220
0.0
230
1.0
 70
     8
 71
     2
 72
     7
 73
     4
 74
     0
 42
0.0000000001
 43
0.0000000001
 40
0.0
 40
0.0
 40
0.0
 40
1.0
 40
2.0
 40
2.0
 40
2.0
 10
0.6799735564231608
 20
-0.0337911025412301
 30
0.0
 10
0.6799735564231608
 20
-0.037757028467156
 30
0.0
 10
0.6839554082750126
 20
-0.0406762877264153
 30
0.0
 10
0.6906035564231608
 20
-0.0413122136523412
 30
0.0
  0
LINE
  5
A4
330
A
100
AcDbEntity
  8
1
  6
solid
 62
     7
100
AcDbLine
 10
0.6906035564231608
 20
-0.0413122136523412
 30
0.0
 11
0.6906035564231608
 21
-0.0442907321708597
 31
0.0
  0
LINE
  5
A5
330
A
100
AcDbEntity
  8
1
  6
solid
 62
     7
100
AcDbLine
 10
0.6906035564231608
 20
-0.0442907321708597
 30
0.0
 11
0.6545105934601978
 21
-0.0442907321708597
 31
0.0
  0
LINE
  5
A6
330
A
100
AcDbEntity
  8
1
  6
solid
 62
     7
100
AcDbLine
 10
0.6545105934601978
 20
-0.0442907321708597
 30
0.0
 11
0.6545105934601978
 21
-0.0413596210597486
 31
0.0
  0
SPLINE
  5
A7
330
A
100
AcDbEntity
  8
1
  6
solid
 62
     7
100
AcDbSpline
210
0.0
220
0.0
230
1.0
 70
     8
 71
     2
 72
     7
 73
     4
 74
     0
 42
0.0000000001
 43
0.0000000001
 40
0.0
 40
0.0
 40
0.0
 40
1.0
 40
2.0
 40
2.0
 40
2.0
 10
0.6545105934601978
 20
-0.0413596210597486
 30
0.0
 10
0.6585280008676052
 20
-0.0404155469856745
 30
0.0
 10
0.6631102230898275
 20
-0.0379585099486375
 30
0.0
 10
0.6664402230898274
 20
-0.0345811025412301
 30
0.0
  0
SPLINE
  5
A8
330
A
100
AcDbEntity
  8
1
  6
solid
 62
     7
100
AcDbSpline
210
0.0
220
0.0
230
1.0
 70
     8
 71
     2
 72
     6
 73
     3
 74
     0
 42
0.0000000001
 43
0.0000000001
 40
0.0
 40
0.0
 40
0.0
 40
1.0
 40
1.0
 40
1.0
 10
0.6664402230898274
 20
-0.0345811025412301
 30
0.0
 10
0.6710342971639016
 20
-0.0302359173560449
 30
0.0
 10
0.6795154082750126
 20
-0.0197125840227116
 30
0.0
  0
LINE
  5
A9
330
A
100
AcDbEntity
  8
1
  6
solid
 62
     7
100
AcDbLine
 10
0.6795154082750126
 20
-0.0197125840227116
 30
0.0
 11
0.696698741608346
 21
0.0009903789402514
 31
0.0
  0
LINE
  5
AA
330
A
100
AcDbEntity
  8
1
  6
solid
 62
     7
100
AcDbLine
 10
0.696698741608346
 20
0.0009903789402514
 30
0.0
 11
0.676619852719457
 21
0.0313081567180292
 31
0.0
  0
LINE
  5
AB
330
A
100
AcDbEntity
  8
1
  6
solid
 62
     7
100
AcDbLine
 10
0.676619852719457
 20
0.0313081567180292
 30
0.0
 11
0.6731713342009386
 21
0.0367870456069181
 31
0.0
  0
SPLINE
  5
AC
330
A
100
AcDbEntity
  8
1
  6
solid
 62
     7
100
AcDbSpline
210
0.0
220
0.0
230
1.0
 70
     8
 71
     2
 72
     6
 73
     3
 74
     0
 42
0.0000000001
 43
0.0000000001
 40
0.0
 40
0.0
 40
0.0
 40
1.0
 40
1.0
 40
1.0
 10
0.6731713342009386
 20
0.0367870456069181
 30
0.0
 10
0.6695924453120497
 20
0.0420685270883996
 30
0.0
 10
0.6668194823490868
 20
0.0439092678291403
 30
0.0
  0
SPLINE
  5
AD
330
A
100
AcDbEntity
  8
1
  6
solid
 62
     7
100
AcDbSpline
210
0.0
220
0.0
230
1.0
 70
     8
 71
     2
 72
     6
 73
     3
 74
     0
 42
0.0000000001
 43
0.0000000001
 40
0.0
 40
0.0
 40
0.0
 40
1.0
 40
1.0
 40
1.0
 10
0.6668194823490868
 20
0.0439092678291403
 30
0.0
 10
0.6650576304972349
 20
0.0451970456069181
 30
0.0
 10
0.6596261490157534
 20
0.0454933419032144
 30
0.0
  0
SPLINE
  5
AE
330
A
100
AcDbEntity
  8
1
  6
solid
 62
     7
100
AcDbSpline
210
0.0
220
0.0
230
1.0
 70
     8
 71
     2
 72
     6
 73
     3
 74
     0
 42
0.0000000001
 43
0.0000000001
 40
0.0
 40
0.0
 40
0.0
 40
1.0
 40
1.0
 40
1.0
 10
0.6596261490157534
 20
0.0454933419032144
 30
0.0
 10
0.6591876304972349
 20
0.0454933419032144
 30
0.0
 10
0.6568254082750126
 20
0.0460581567180292
 30
0.0
  0
LINE
  5
AF
330
A
100
AcDbEntity
  8
1
  6
solid
 62
     7
100
AcDbLine
 10
0.6568254082750126
 20
0.0494592678291403
 30
0.0
 11
0.6568254082750126
 21
0.0460581567180292
 31
0.0
  0
LINE
  5
B0
330
A
100
AcDbEntity
  8
1
  6
solid
 62
     7
100
AcDbLine
 10
0.8362635564231608
 20
0.0471444530143255
 30
0.0
 11
0.8036902230898274
 21
-0.0361888803190079
 31
0.0
  0
LINE
  5
B1
330
A
100
AcDbEntity
  8
1
  6
solid
 62
     7
100
AcDbLine
 10
0.8036902230898274
 20
-0.0361888803190079
 30
0.0
 11
0.8024142971639014
 21
-0.0396136951338227
 31
0.0
  0
SPLINE
  5
B2
330
A
100
AcDbEntity
  8
1
  6
solid
 62
     7
100
AcDbSpline
210
0.0
220
0.0
230
1.0
 70
     8
 71
     2
 72
     7
 73
     4
 74
     0
 42
0.0000000001
 43
0.0000000001
 40
0.0
 40
0.0
 40
0.0
 40
1.0
 40
2.0
 40
2.0
 40
2.0
 10
0.8024142971639014
 20
-0.0396136951338227
 30
0.0
 10
0.8013280008676051
 20
-0.0424577692078968
 30
0.0
 10
0.7975594823490867
 20
-0.0454481395782671
 30
0.0
 10
0.7942057786453831
 20
-0.0454481395782671
 30
0.0
  0
SPLINE
  5
B3
330
A
100
AcDbEntity
  8
1
  6
solid
 62
     7
100
AcDbSpline
210
0.0
220
0.0
230
1.0
 70
     8
 71
     2
 72
     7
 73
     4
 74
     0
 42
0.0000000001
 43
0.0000000001
 40
0.0
 40
0.0
 40
0.0
 40
1.0
 40
2.0
 40
2.0
 40
2.0
 10
0.7942057786453831
 20
-0.0454481395782671
 30
0.0
 10
0.7911720749416793
 20
-0.0454481395782671
 30
0.0
 10
0.7873324453120496
 20
-0.0419522136523412
 30
0.0
 10
0.7873324453120496
 20
-0.0394359173560449
 30
0.0
  0
SPLINE
  5
B4
330
A
100
AcDbEntity
  8
1
  6
solid
 62
     7
100
AcDbSpline
210
0.0
220
0.0
230
1.0
 70
     8
 71
     2
 72
     6
 73
     3
 74
     0
 42
0.0000000001
 43
0.0000000001
 40
0.0
 40
0.0
 40
0.0
 40
1.0
 40
1.0
 40
1.0
 10
0.7873324453120496
 20
-0.0394359173560449
 30
0.0
 10
0.7873324453120496
 20
-0.0372396210597486
 30
0.0
 10
0.7889046675342719
 20
-0.0337436951338227
 30
0.0
  0
LINE
  5
B5
330
A
100
AcDbEntity
  8
1
  6
solid
 62
     7
100
AcDbLine
 10
0.7889046675342719
 20
-0.0337436951338227
 30
0.0
 11
0.7910061490157533
 21
-0.0308362877264153
 31
0.0
  0
LINE
  5
B6
330
A
100
AcDbEntity
  8
1
  6
solid
 62
     7
100
AcDbLine
 10
0.7910061490157533
 20
-0.0308362877264153
 30
0.0
 11
0.8257994823490866
 21
0.034412971532844
 31
0.0
  0
LINE
  5
B7
330
A
100
AcDbEntity
  8
1
  6
solid
 62
     7
100
AcDbLine
 10
0.8257994823490866
 20
0.034412971532844
 30
0.0
 11
0.7979387416083459
 21
0.034412971532844
 31
0.0
  0
SPLINE
  5
B8
330
A
100
AcDbEntity
  8
1
  6
solid
 62
     7
100
AcDbSpline
210
0.0
220
0.0
230
1.0
 70
     8
 71
     2
 72
     7
 73
     4
 74
     0
 42
0.0000000001
 43
0.0000000001
 40
0.0
 40
0.0
 40
0.0
 40
1.0
 40
2.0
 40
2.0
 40
2.0
 10
0.7979387416083459
 20
0.034412971532844
 30
0.0
 10
0.7945731860527904
 20
0.034412971532844
 30
0.0
 10
0.7918791119787163
 20
0.0336585270883996
 30
0.0
 10
0.7904965193861237
 20
0.0326314900513625
 30
0.0
  0
SPLINE
  5
B9
330
A
100
AcDbEntity
  8
1
  6
solid
 62
     7
100
AcDbSpline
210
0.0
220
0.0
230
1.0
 70
     8
 71
     2
 72
     7
 73
     4
 74
     0
 42
0.0000000001
 43
0.0000000001
 40
0.0
 40
0.0
 40
0.0
 40
1.0
 40
2.0
 40
2.0
 40
2.0
 10
0.7904965193861237
 20
0.0326314900513625
 30
0.0
 10
0.7893746675342719
 20
0.0321455641254366
 30
0.0
 10
0.7870242971639014
 20
0.0280848233846959
 30
0.0
 10
0.7848042971639014
 20
0.0230640826439551
 30
0.0
  0
LINE
  5
BA
330
A
100
AcDbEntity
  8
1
  6
solid
 62
     7
100
AcDbLine
 10
0.7848042971639014
 20
0.0230640826439551
 30
0.0
 11
0.7840024453120497
 21
0.0216814900513625
 31
0.0
  0
LINE
  5
BB
330
A
100
AcDbEntity
  8
1
  6
solid
 62
     7
100
AcDbLine
 10
0.7840024453120497
 20
0.0216814900513625
 30
0.0
 11
0.7800798527194571
 21
0.0216814900513625
 31
0.0
  0
LINE
  5
BC
330
A
100
AcDbEntity
  8
1
  6
solid
 62
     7
100
AcDbLine
 10
0.7800798527194571
 20
0.0216814900513625
 30
0.0
 11
0.7860091119787163
 21
0.0506166752365477
 31
0.0
  0
LINE
  5
BD
330
A
100
AcDbEntity
  8
1
  6
solid
 62
     7
100
AcDbLine
 10
0.7860091119787163
 20
0.0506166752365477
 30
0.0
 11
0.789931704571309
 21
0.0506166752365477
 31
0.0
  0
SPLINE
  5
BE
330
A
100
AcDbEntity
  8
1
  6
solid
 62
     7
100
AcDbSpline
210
0.0
220
0.0
230
1.0
 70
     8
 71
     2
 72
     7
 73
     4
 74
     0
 42
0.0000000001
 43
0.0000000001
 40
0.0
 40
0.0
 40
0.0
 40
1.0
 40
2.0
 40
2.0
 40
2.0
 10
0.789931704571309
 20
0.0506166752365477
 30
0.0
 10
0.7907454082750127
 20
0.0472866752365477
 30
0.0
 10
0.7911839267935311
 20
0.0466151937550662
 30
0.0
 10
0.793968741608346
 20
0.0466151937550662
 30
0.0
  0
LINE
  5
BF
330
A
100
AcDbEntity
  8
1
  6
solid
 62
     7
100
AcDbLine
 10
0.8362635564231608
 20
0.0471444530143255
 30
0.0
 11
0.793968741608346
 21
0.0466151937550662
 31
0.0
  0
LINE
  5
C0
330
A
100
AcDbEntity
  8
1
  6
solid
 62
     7
100
AcDbLine
 10
0.8480728156824199
 20
-0.0604944358745634
 30
0.0
 11
0.8888072601268643
 21
0.0529314900513625
 31
0.0
  0
LINE
  5
C1
330
A
100
AcDbEntity
  8
1
  6
solid
 62
     7
100
AcDbLine
 10
0.8888072601268643
 20
0.0529314900513625
 30
0.0
 11
0.8966839267935311
 21
0.0529314900513625
 31
0.0
  0
LINE
  5
C2
330
A
100
AcDbEntity
  8
1
  6
solid
 62
     7
100
AcDbLine
 10
0.8966839267935311
 20
0.0529314900513625
 30
0.0
 11
0.8555031860527904
 21
-0.0604944358745634
 31
0.0
  0
LINE
  5
C3
330
A
100
AcDbEntity
  8
1
  6
solid
 62
     7
100
AcDbLine
 10
0.8480728156824199
 20
-0.0604944358745634
 30
0.0
 11
0.8555031860527904
 21
-0.0604944358745634
 31
0.0
  0
SPLINE
  5
C4
330
A
100
AcDbEntity
  8
1
  6
solid
 62
     7
100
AcDbSpline
210
0.0
220
0.0
230
1.0
 70
     8
 71
     2
 72
     7
 73
     4
 74
     0
 42
0.0000000001
 43
0.0000000001
 40
0.0
 40
0.0
 40
0.0
 40
1.0
 40
2.0
 40
2.0
 40
2.0
 10
0.9474224453120495
 20
0.0079111196809921
 30
0.0
 10
0.9514991119787163
 20
0.0056911196809921
 30
0.0
 10
0.9579576304972349
 20
0.0009785270883995
 30
0.0
 10
0.9600828156824199
 20
-0.0013481395782671
 30
0.0
  0
SPLINE
  5
C5
330
A
100
AcDbEntity
  8
1
  6
solid
 62
     7
100
AcDbSpline
210
0.0
220
0.0
230
1.0
 70
     8
 71
     2
 72
     6
 73
     3
 74
     0
 42
0.0000000001
 43
0.0000000001
 40
0.0
 40
0.0
 40
0.0
 40
1.0
 40
1.0
 40
1.0
 10
0.9600828156824199
 20
-0.0013481395782671
 30
0.0
 10
0.9669917045713088
 20
-0.0092603618004893
 30
0.0
 10
0.9669917045713088
 20
-0.0194044358745634
 30
0.0
  0
SPLINE
  5
C6
330
A
100
AcDbEntity
  8
1
  6
solid
 62
     7
100
AcDbSpline
210
0.0
220
0.0
230
1.0
 70
     8
 71
     2
 72
     6
 73
     3
 74
     0
 42
0.0000000001
 43
0.0000000001
 40
0.0
 40
0.0
 40
0.0
 40
1.0
 40
1.0
 40
1.0
 10
0.9669917045713088
 20
-0.0194044358745634
 30
0.0
 10
0.9669917045713088
 20
-0.0300462877264153
 30
0.0
 10
0.9590676304972348
 20
-0.0379111025412301
 30
0.0
  0
SPLINE
  5
C7
330
A
100
AcDbEntity
  8
1
  6
solid
 62
     7
100
AcDbSpline
210
0.0
220
0.0
230
1.0
 70
     8
 71
     2
 72
     6
 73
     3
 74
     0
 42
0.0000000001
 43
0.0000000001
 40
0.0
 40
0.0
 40
0.0
 40
1.0
 40
1.0
 40
1.0
 10
0.9590676304972348
 20
-0.0379111025412301
 30
0.0
 10
0.9511435564231607
 20
-0.0454481395782671
 30
0.0
 10
0.9375391119787161
 20
-0.0454481395782671
 30
0.0
  0
SPLINE
  5
C8
330
A
100
AcDbEntity
  8
1
  6
solid
 62
     7
100
AcDbSpline
210
0.0
220
0.0
230
1.0
 70
     8
 71
     2
 72
     6
 73
     3
 74
     0
 42
0.0000000001
 43
0.0000000001
 40
0.0
 40
0.0
 40
0.0
 40
1.0
 40
1.0
 40
1.0
 10
0.9375391119787161
 20
-0.0454481395782671
 30
0.0
 10
0.9236383712379755
 20
-0.0454481395782671
 30
0.0
 10
0.9151572601268643
 20
-0.0371685099486375
 30
0.0
  0
SPLINE
  5
C9
330
A
100
AcDbEntity
  8
1
  6
solid
 62
     7
100
AcDbSpline
210
0.0
220
0.0
230
1.0
 70
     8
 71
     2
 72
     6
 73
     3
 74
     0
 42
0.0000000001
 43
0.0000000001
 40
0.0
 40
0.0
 40
0.0
 40
1.0
 40
1.0
 40
1.0
 10
0.9151572601268643
 20
-0.0371685099486375
 30
0.0
 10
0.9079639267935311
 20
-0.0301173988375264
 30
0.0
 10
0.9079639267935311
 20
-0.0205025840227116
 30
0.0
  0
SPLINE
  5
CA
330
A
100
AcDbEntity
  8
1
  6
solid
 62
     7
100
AcDbSpline
210
0.0
220
0.0
230
1.0
 70
     8
 71
     2
 72
     6
 73
     3
 74
     0
 42
0.0000000001
 43
0.0000000001
 40
0.0
 40
0.0
 40
0.0
 40
1.0
 40
1.0
 40
1.0
 10
0.9079639267935311
 20
-0.0205025840227116
 30
0.0
 10
0.9079639267935311
 20
-0.0100385099486375
 30
0.0
 10
0.9163265193861235
 20
-0.0031059173560449
 30
0.0
  0
SPLINE
  5
CB
330
A
100
AcDbEntity
  8
1
  6
solid
 62
     7
100
AcDbSpline
210
0.0
220
0.0
230
1.0
 70
     8
 71
     2
 72
     6
 73
     3
 74
     0
 42
0.0000000001
 43
0.0000000001
 40
0.0
 40
0.0
 40
0.0
 40
1.0
 40
1.0
 40
1.0
 10
0.9163265193861235
 20
-0.0031059173560449
 30
0.0
 10
0.9198580008676051
 20
0.0000107493106218
 30
0.0
 10
0.9281139267935309
 20
0.0034237122735847
 30
0.0
  0
SPLINE
  5
CC
330
A
100
AcDbEntity
  8
1
  6
solid
 62
     7
100
AcDbSpline
210
0.0
220
0.0
230
1.0
 70
     8
 71
     2
 72
     6
 73
     3
 74
     0
 42
0.0000000001
 43
0.0000000001
 40
0.0
 40
0.0
 40
0.0
 40
1.0
 40
1.0
 40
1.0
 10
0.9281139267935309
 20
0.0034237122735847
 30
0.0
 10
0.9202372601268644
 20
0.0061651937550662
 30
0.0
 10
0.9161250379046421
 20
0.011655934495807
 30
0.0
  0
SPLINE
  5
CD
330
A
100
AcDbEntity
  8
1
  6
solid
 62
     7
100
AcDbSpline
210
0.0
220
0.0
230
1.0
 70
     8
 71
     2
 72
     6
 73
     3
 74
     0
 42
0.0000000001
 43
0.0000000001
 40
0.0
 40
0.0
 40
0.0
 40
1.0
 40
1.0
 40
1.0
 10
0.9161250379046421
 20
0.011655934495807
 30
0.0
 10
0.9102787416083458
 20
0.0186003789402514
 30
0.0
 10
0.9102787416083458
 20
0.0275870456069181
 30
0.0
  0
SPLINE
  5
CE
330
A
100
AcDbEntity
  8
1
  6
solid
 62
     7
100
AcDbSpline
210
0.0
220
0.0
230
1.0
 70
     8
 71
     2
 72
     6
 73
     3
 74
     0
 42
0.0000000001
 43
0.0000000001
 40
0.0
 40
0.0
 40
0.0
 40
1.0
 40
1.0
 40
1.0
 10
0.9102787416083458
 20
0.0275870456069181
 30
0.0
 10
0.9102787416083458
 20
0.037035934495807
 30
0.0
 10
0.9164924453120494
 20
0.0438144530143255
 30
0.0
  0
SPLINE
  5
CF
330
A
100
AcDbEntity
  8
1
  6
solid
 62
     7
100
AcDbSpline
210
0.0
220
0.0
230
1.0
 70
     8
 71
     2
 72
     7
 73
     4
 74
     0
 42
0.0000000001
 43
0.0000000001
 40
0.0
 40
0.0
 40
0.0
 40
1.0
 40
2.0
 40
2.0
 40
2.0
 10
0.9164924453120494
 20
0.0438144530143255
 30
0.0
 10
0.9200594823490867
 20
0.0474763048661773
 30
0.0
 10
0.9304287416083457
 20
0.0517740826439551
 30
0.0
 10
0.9362750379046421
 20
0.0517740826439551
 30
0.0
  0
SPLINE
  5
D0
330
A
100
AcDbEntity
  8
1
  6
solid
 62
     7
100
AcDbSpline
210
0.0
220
0.0
230
1.0
 70
     8
 71
     2
 72
     7
 73
     4
 74
     0
 42
0.0000000001
 43
0.0000000001
 40
0.0
 40
0.0
 40
0.0
 40
1.0
 40
2.0
 40
2.0
 40
2.0
 10
0.9362750379046421
 20
0.0517740826439551
 30
0.0
 10
0.9419080008676051
 20
0.0517740826439551
 30
0.0
 10
0.9524076304972346
 20
0.0478555641254366
 30
0.0
 10
0.9557613342009384
 20
0.0452444530143255
 30
0.0
  0
SPLINE
  5
D1
330
A
100
AcDbEntity
  8
1
  6
solid
 62
     7
100
AcDbSpline
210
0.0
220
0.0
230
1.0
 70
     8
 71
     2
 72
     6
 73
     3
 74
     0
 42
0.0000000001
 43
0.0000000001
 40
0.0
 40
0.0
 40
0.0
 40
1.0
 40
1.0
 40
1.0
 10
0.9557613342009384
 20
0.0452444530143255
 30
0.0
 10
0.9635194823490865
 20
0.0390544530143255
 30
0.0
 10
0.9635194823490865
 20
0.0299374159772885
 30
0.0
  0
SPLINE
  5
D2
330
A
100
AcDbEntity
  8
1
  6
solid
 62
     7
100
AcDbSpline
210
0.0
220
0.0
230
1.0
 70
     8
 71
     2
 72
     6
 73
     3
 74
     0
 42
0.0000000001
 43
0.0000000001
 40
0.0
 40
0.0
 40
0.0
 40
1.0
 40
1.0
 40
1.0
 10
0.9635194823490865
 20
0.0299374159772885
 30
0.0
 10
0.9635194823490865
 20
0.0212470456069181
 30
0.0
 10
0.9569305934601977
 20
0.0148555641254366
 30
0.0
  0
SPLINE
  5
D3
330
A
100
AcDbEntity
  8
1
  6
solid
 62
     7
100
AcDbSpline
210
0.0
220
0.0
230
1.0
 70
     8
 71
     2
 72
     6
 73
     3
 74
     0
 42
0.0000000001
 43
0.0000000001
 40
0.0
 40
0.0
 40
0.0
 40
1.0
 40
1.0
 40
1.0
 10
0.9569305934601977
 20
0.0148555641254366
 30
0.0
 10
0.9544617045713088
 20
0.0118811196809921
 30
0.0
 10
0.9474224453120495
 20
0.0079111196809921
 30
0.0
  0
SPLINE
  5
D4
330
A
100
AcDbEntity
  8
1
  6
solid
 62
     7
100
AcDbSpline
210
0.0
220
0.0
230
1.0
 70
     8
 71
     2
 72
     7
 73
     4
 74
     0
 42
0.0000000001
 43
0.0000000001
 40
0.0
 40
0.0
 40
0.0
 40
1.0
 40
2.0
 40
2.0
 40
2.0
 10
0.9417302230898274
 20
0.0103088974587699
 30
0.0
 10
0.9452617045713088
 20
0.0135914900513625
 30
0.0
 10
0.9496305934601977
 20
0.023075934495807
 30
0.0
 10
0.9496305934601977
 20
0.0290407493106218
 30
0.0
  0
SPLINE
  5
D5
330
A
100
AcDbEntity
  8
1
  6
solid
 62
     7
100
AcDbSpline
210
0.0
220
0.0
230
1.0
 70
     8
 71
     2
 72
     7
 73
     4
 74
     0
 42
0.0000000001
 43
0.0000000001
 40
0.0
 40
0.0
 40
0.0
 40
1.0
 40
2.0
 40
2.0
 40
2.0
 10
0.9496305934601977
 20
0.0290407493106218
 30
0.0
 10
0.9496305934601977
 20
0.037355934495807
 30
0.0
 10
0.9415405934601977
 20
0.0483018604217329
 30
0.0
 10
0.9351057786453829
 20
0.0483018604217329
 30
0.0
  0
SPLINE
  5
D6
330
A
100
AcDbEntity
  8
1
  6
solid
 62
     7
100
AcDbSpline
210
0.0
220
0.0
230
1.0
 70
     8
 71
     2
 72
     7
 73
     4
 74
     0
 42
0.0000000001
 43
0.0000000001
 40
0.0
 40
0.0
 40
0.0
 40
1.0
 40
2.0
 40
2.0
 40
2.0
 10
0.9351057786453829
 20
0.0483018604217329
 30
0.0
 10
0.9302154082750124
 20
0.0483018604217329
 30
0.0
 10
0.9230102230898273
 20
0.0395285270883995
 30
0.0
 10
0.9230102230898273
 20
0.0322996381995107
 30
0.0
  0
SPLINE
  5
D7
330
A
100
AcDbEntity
  8
1
  6
solid
 62
     7
100
AcDbSpline
210
0.0
220
0.0
230
1.0
 70
     8
 71
     2
 72
     6
 73
     3
 74
     0
 42
0.0000000001
 43
0.0000000001
 40
0.0
 40
0.0
 40
0.0
 40
1.0
 40
1.0
 40
1.0
 10
0.9230102230898273
 20
0.0322996381995107
 30
0.0
 10
0.9230102230898273
 20
0.0224044530143255
 30
0.0
 10
0.9300968897564938
 20
0.0170637122735847
 30
0.0
  0
SPLINE
  5
D8
330
A
100
AcDbEntity
  8
1
  6
solid
 62
     7
100
AcDbSpline
210
0.0
220
0.0
230
1.0
 70
     8
 71
     2
 72
     6
 73
     3
 74
     0
 42
0.0000000001
 43
0.0000000001
 40
0.0
 40
0.0
 40
0.0
 40
1.0
 40
1.0
 40
1.0
 10
0.9300968897564938
 20
0.0170637122735847
 30
0.0
 10
0.9346791119787162
 20
0.0130977863476588
 30
0.0
 10
0.9417302230898274
 20
0.0103088974587699
 30
0.0
  0
SPLINE
  5
D9
330
A
100
AcDbEntity
  8
1
  6
solid
 62
     7
100
AcDbSpline
210
0.0
220
0.0
230
1.0
 70
     8
 71
     2
 72
     7
 73
     4
 74
     0
 42
0.0000000001
 43
0.0000000001
 40
0.0
 40
0.0
 40
0.0
 40
1.0
 40
2.0
 40
2.0
 40
2.0
 10
0.9322813342009384
 20
0.0010259344958069
 30
0.0
 10
0.9276517045713088
 20
-0.0032244358745634
 30
0.0
 10
0.9218528156824199
 20
-0.0147273988375264
 30
0.0
 10
0.9218528156824199
 20
-0.0219918432819708
 30
0.0
  0
SPLINE
  5
DA
330
A
100
AcDbEntity
  8
1
  6
solid
 62
     7
100
AcDbSpline
210
0.0
220
0.0
230
1.0
 70
     8
 71
     2
 72
     6
 73
     3
 74
     0
 42
0.0000000001
 43
0.0000000001
 40
0.0
 40
0.0
 40
0.0
 40
1.0
 40
1.0
 40
1.0
 10
0.9218528156824199
 20
-0.0219918432819708
 30
0.0
 10
0.9218528156824199
 20
-0.0311207321708597
 30
0.0
 10
0.9258465193861235
 20
-0.036177028467156
 30
0.0
  0
SPLINE
  5
DB
330
A
100
AcDbEntity
  8
1
  6
solid
 62
     7
100
AcDbSpline
210
0.0
220
0.0
230
1.0
 70
     8
 71
     2
 72
     6
 73
     3
 74
     0
 42
0.0000000001
 43
0.0000000001
 40
0.0
 40
0.0
 40
0.0
 40
1.0
 40
1.0
 40
1.0
 10
0.9258465193861235
 20
-0.036177028467156
 30
0.0
 10
0.9305235564231606
 20
-0.0419759173560449
 30
0.0
 10
0.9375154082750125
 20
-0.0419759173560449
 30
0.0
  0
SPLINE
  5
DC
330
A
100
AcDbEntity
  8
1
  6
solid
 62
     7
100
AcDbSpline
210
0.0
220
0.0
230
1.0
 70
     8
 71
     2
 72
     6
 73
     3
 74
     0
 42
0.0000000001
 43
0.0000000001
 40
0.0
 40
0.0
 40
0.0
 40
1.0
 40
1.0
 40
1.0
 10
0.9375154082750125
 20
-0.0419759173560449
 30
0.0
 10
0.9442702230898273
 20
-0.0419759173560449
 30
0.0
 10
0.9480505934601977
 20
-0.0378518432819708
 30
0.0
  0
SPLINE
  5
DD
330
A
100
AcDbEntity
  8
1
  6
solid
 62
     7
100
AcDbSpline
210
0.0
220
0.0
230
1.0
 70
     8
 71
     2
 72
     7
 73
     4
 74
     0
 42
0.0000000001
 43
0.0000000001
 40
0.0
 40
0.0
 40
0.0
 40
1.0
 40
2.0
 40
2.0
 40
2.0
 10
0.9480505934601977
 20
-0.0378518432819708
 30
0.0
 10
0.9502824453120496
 20
-0.0354540655041931
 30
0.0
 10
0.9531028156824199
 20
-0.0279803618004894
 30
0.0
 10
0.9531028156824199
 20
-0.0242236951338227
 30
0.0
  0
SPLINE
  5
DE
330
A
100
AcDbEntity
  8
1
  6
solid
 62
     7
100
AcDbSpline
210
0.0
220
0.0
230
1.0
 70
     8
 71
     2
 72
     6
 73
     3
 74
     0
 42
0.0000000001
 43
0.0000000001
 40
0.0
 40
0.0
 40
0.0
 40
1.0
 40
1.0
 40
1.0
 10
0.9531028156824199
 20
-0.0242236951338227
 30
0.0
 10
0.9531028156824199
 20
-0.0151185099486375
 30
0.0
 10
0.9465850379046422
 20
-0.0088929543930819
 30
0.0
  0
SPLINE
  5
DF
330
A
100
AcDbEntity
  8
1
  6
solid
 62
     7
100
AcDbSpline
210
0.0
220
0.0
230
1.0
 70
     8
 71
     2
 72
     6
 73
     3
 74
     0
 42
0.0000000001
 43
0.0000000001
 40
0.0
 40
0.0
 40
0.0
 40
1.0
 40
1.0
 40
1.0
 10
0.9465850379046422
 20
-0.0088929543930819
 30
0.0
 10
0.9417894823490867
 20
-0.0035918432819708
 30
0.0
 10
0.9322813342009384
 20
0.0010259344958069
 30
0.0
  0
LINE
  5
E1
330
A
100
AcDbEntity
  8
0
  6
solid
 62
     7
100
AcDbLine
 10
0.604770017035775
 20
0.3066439522998297
 30
0.0
 11
0.604770017035775
 21
0.4316439522998297
 31
0.0
  0
LINE
  5
E2
330
A
100
AcDbEntity
  8
0
  6
solid
 62
     7
100
AcDbLine
 10
0.604770017035775
 20
0.4316439522998297
 30
0.0
 11
0.6283207416734564
 21
0.4316439522998297
 31
0.0
  0
LINE
  5
E3
330
A
100
AcDbEntity
  8
0
  6
solid
 62
     7
100
AcDbLine
 10
0.6283207416734564
 20
0.4316439522998297
 30
0.0
 11
0.6283207416734564
 21
0.3283830827346122
 31
0.0
  0
LINE
  5
E4
330
A
100
AcDbEntity
  8
0
  6
solid
 62
     7
100
AcDbLine
 10
0.6283207416734564
 20
0.3283830827346122
 30
0.0
 11
0.6935381329778041
 21
0.3283830827346122
 31
0.0
  0
LINE
  5
E5
330
A
100
AcDbEntity
  8
0
  6
solid
 62
     7
100
AcDbLine
 10
0.6935381329778041
 20
0.3283830827346122
 30
0.0
 11
0.6935381329778041
 21
0.3066439522998297
 31
0.0
  0
LINE
  5
E6
330
A
100
AcDbEntity
  8
0
  6
solid
 62
     7
100
AcDbLine
 10
0.604770017035775
 20
0.3066439522998297
 30
0.0
 11
0.6935381329778041
 21
0.3066439522998297
 31
0.0
  0
LINE
  5
E7
330
A
100
AcDbEntity
  8
0
  6
solid
 62
     7
100
AcDbLine
 10
0.7623759590647607
 20
0.3066439522998297
 30
0.0
 11
0.7388252344270797
 21
0.3066439522998297
 31
0.0
  0
LINE
  5
E8
330
A
100
AcDbEntity
  8
0
  6
solid
 62
     7
100
AcDbLine
 10
0.7388252344270797
 20
0.3066439522998297
 30
0.0
 11
0.7388252344270797
 21
0.3964323580969311
 31
0.0
  0
SPLINE
  5
E9
330
A
100
AcDbEntity
  8
0
  6
solid
 62
     7
100
AcDbSpline
210
0.0
220
0.0
230
1.0
 70
     8
 71
     2
 72
     6
 73
     3
 74
     0
 42
0.0000000001
 43
0.0000000001
 40
0.0
 40
0.0
 40
0.0
 40
1.0
 40
1.0
 40
1.0
 10
0.7388252344270797
 20
0.3964323580969311
 30
0.0
 10
0.7252600170357752
 20
0.3833430827346123
 30
0.0
 10
0.7080281329778043
 20
0.3772961262128731
 30
0.0
  0
LINE
  5
EA
330
A
100
AcDbEntity
  8
0
  6
solid
 62
     7
100
AcDbLine
 10
0.7080281329778043
 20
0.3772961262128731
 30
0.0
 11
0.7080281329778043
 21
0.4008468508505543
 31
0.0
  0
SPLINE
  5
EB
330
A
100
AcDbEntity
  8
0
  6
solid
 62
     7
100
AcDbSpline
210
0.0
220
0.0
230
1.0
 70
     8
 71
     2
 72
     7
 73
     4
 74
     0
 42
0.0000000001
 43
0.0000000001
 40
0.0
 40
0.0
 40
0.0
 40
1.0
 40
2.0
 40
2.0
 40
2.0
 10
0.7080281329778043
 20
0.4008468508505543
 30
0.0
 10
0.7172345097893986
 20
0.4034375754882355
 30
0.0
 10
0.7389921909488188
 20
0.4199830827346123
 30
0.0
 10
0.742893640224181
 20
0.4316439522998297
 30
0.0
  0
LINE
  5
EC
330
A
100
AcDbEntity
  8
0
  6
solid
 62
     7
100
AcDbLine
 10
0.742893640224181
 20
0.4316439522998297
 30
0.0
 11
0.7623759590647607
 21
0.4316439522998297
 31
0.0
  0
LINE
  5
ED
330
A
100
AcDbEntity
  8
0
  6
solid
 62
     7
100
AcDbLine
 10
0.7623759590647607
 20
0.3066439522998297
 30
0.0
 11
0.7623759590647607
 21
0.4316439522998297
 31
0.0
  0
LINE
  5
EE
330
A
100
AcDbEntity
  8
0
  6
solid
 62
     7
100
AcDbLine
 10
0.8638224808038913
 20
0.3301946769375108
 30
0.0
 11
0.8638224808038913
 21
0.3066439522998297
 31
0.0
  0
LINE
  5
EF
330
A
100
AcDbEntity
  8
0
  6
solid
 62
     7
100
AcDbLine
 10
0.8638224808038913
 20
0.3066439522998297
 30
0.0
 11
0.7823007416734564
 21
0.3066439522998297
 31
0.0
  0
SPLINE
  5
F0
330
A
100
AcDbEntity
  8
0
  6
solid
 62
     7
100
AcDbSpline
210
0.0
220
0.0
230
1.0
 70
     8
 71
     2
 72
     7
 73
     4
 74
     0
 42
0.0000000001
 43
0.0000000001
 40
0.0
 40
0.0
 40
0.0
 40
1.0
 40
2.0
 40
2.0
 40
2.0
 10
0.7823007416734564
 20
0.3066439522998297
 30
0.0
 10
0.7831726257314275
 20
0.3184781551983804
 30
0.0
 10
0.7968120460212825
 20
0.3410642421549021
 30
0.0
 10
0.8157998721082389
 20
0.359272937807076
 30
0.0
  0
SPLINE
  5
F1
330
A
100
AcDbEntity
  8
0
  6
solid
 62
     7
100
AcDbSpline
210
0.0
220
0.0
230
1.0
 70
     8
 71
     2
 72
     6
 73
     3
 74
     0
 42
0.0000000001
 43
0.0000000001
 40
0.0
 40
0.0
 40
0.0
 40
1.0
 40
1.0
 40
1.0
 10
0.8157998721082389
 20
0.359272937807076
 30
0.0
 10
0.8316961039922968
 20
0.3739326479520036
 30
0.0
 10
0.835263640224181
 20
0.3792375754882355
 30
0.0
  0
SPLINE
  5
F2
330
A
100
AcDbEntity
  8
0
  6
solid
 62
     7
100
AcDbSpline
210
0.0
220
0.0
230
1.0
 70
     8
 71
     2
 72
     6
 73
     3
 74
     0
 42
0.0000000001
 43
0.0000000001
 40
0.0
 40
0.0
 40
0.0
 40
1.0
 40
1.0
 40
1.0
 10
0.835263640224181
 20
0.3792375754882355
 30
0.0
 10
0.8402717561662099
 20
0.3865025030244673
 30
0.0
 10
0.8402717561662099
 20
0.3936375754882355
 30
0.0
  0
SPLINE
  5
F3
330
A
100
AcDbEntity
  8
0
  6
solid
 62
     7
100
AcDbSpline
210
0.0
220
0.0
230
1.0
 70
     8
 71
     2
 72
     7
 73
     4
 74
     0
 42
0.0000000001
 43
0.0000000001
 40
0.0
 40
0.0
 40
0.0
 40
1.0
 40
2.0
 40
2.0
 40
2.0
 10
0.8402717561662099
 20
0.3936375754882355
 30
0.0
 10
0.8402717561662099
 20
0.401273517517221
 30
0.0
 10
0.8316219010937462
 20
0.4099048218650471
 30
0.0
 10
0.8242456692096881
 20
0.4099048218650471
 30
0.0
  0
SPLINE
  5
F4
330
A
100
AcDbEntity
  8
0
  6
solid
 62
     7
100
AcDbSpline
210
0.0
220
0.0
230
1.0
 70
     8
 71
     2
 72
     7
 73
     4
 74
     0
 42
0.0000000001
 43
0.0000000001
 40
0.0
 40
0.0
 40
0.0
 40
1.0
 40
2.0
 40
2.0
 40
2.0
 10
0.8242456692096881
 20
0.4099048218650471
 30
0.0
 10
0.8169250894995434
 20
0.4099048218650471
 30
0.0
 10
0.8081082779053405
 20
0.4012920682418587
 30
0.0
 10
0.807663060514036
 20
0.3917888798360615
 30
0.0
  0
LINE
  5
F5
330
A
100
AcDbEntity
  8
0
  6
solid
 62
     7
100
AcDbLine
 10
0.807663060514036
 20
0.3917888798360615
 30
0.0
 11
0.784112335876355
 21
0.3938601841838876
 31
0.0
  0
SPLINE
  5
F6
330
A
100
AcDbEntity
  8
0
  6
solid
 62
     7
100
AcDbSpline
210
0.0
220
0.0
230
1.0
 70
     8
 71
     2
 72
     7
 73
     4
 74
     0
 42
0.0000000001
 43
0.0000000001
 40
0.0
 40
0.0
 40
0.0
 40
1.0
 40
2.0
 40
2.0
 40
2.0
 10
0.784112335876355
 20
0.3938601841838876
 30
0.0
 10
0.7861094373256304
 20
0.4139175754882355
 30
0.0
 10
0.8080897271807028
 20
0.4316439522998297
 30
0.0
 10
0.8245795822531665
 20
0.4316439522998297
 30
0.0
  0
SPLINE
  5
F7
330
A
100
AcDbEntity
  8
0
  6
solid
 62
     7
100
AcDbSpline
210
0.0
220
0.0
230
1.0
 70
     8
 71
     2
 72
     7
 73
     4
 74
     0
 42
0.0000000001
 43
0.0000000001
 40
0.0
 40
0.0
 40
0.0
 40
1.0
 40
2.0
 40
2.0
 40
2.0
 10
0.8245795822531665
 20
0.4316439522998297
 30
0.0
 10
0.8427140750067897
 20
0.4316439522998297
 30
0.0
 10
0.8638224808038913
 20
0.4119204740389601
 30
0.0
 10
0.8638224808038913
 20
0.3973906189664963
 30
0.0
  0
SPLINE
  5
F8
330
A
100
AcDbEntity
  8
0
  6
solid
 62
     7
100
AcDbSpline
210
0.0
220
0.0
230
1.0
 70
     8
 71
     2
 72
     7
 73
     4
 74
     0
 42
0.0000000001
 43
0.0000000001
 40
0.0
 40
0.0
 40
0.0
 40
1.0
 40
2.0
 40
2.0
 40
2.0
 10
0.8638224808038913
 20
0.3973906189664963
 30
0.0
 10
0.8638224808038913
 20
0.388833517517221
 30
0.0
 10
0.857559292398094
 20
0.3740068508505543
 30
0.0
 10
0.8515865387749055
 20
0.365505401575192
 30
0.0
  0
SPLINE
  5
F9
330
A
100
AcDbEntity
  8
0
  6
solid
 62
     7
100
AcDbSpline
210
0.0
220
0.0
230
1.0
 70
     8
 71
     2
 72
     8
 73
     5
 74
     0
 42
0.0000000001
 43
0.0000000001
 40
0.0
 40
0.0
 40
0.0
 40
1.0
 40
2.0
 40
3.0
 40
3.0
 40
3.0
 10
0.8515865387749055
 20
0.365505401575192
 30
0.0
 10
0.8476294373256303
 20
0.3600520682418586
 30
0.0
 10
0.824783640224181
 20
0.3397906189664963
 30
0.0
 10
0.8191262489198331
 20
0.3328967059230181
 30
0.0
 10
0.8173332054415723
 20
0.3301946769375108
 30
0.0
  0
LINE
  5
FA
330
A
100
AcDbEntity
  8
0
  6
solid
 62
     7
100
AcDbLine
 10
0.8638224808038913
 20
0.3301946769375108
 30
0.0
 11
0.8173332054415723
 21
0.3301946769375108
 31
0.0
  0
LINE
  5
FB
330
A
100
AcDbEntity
  8
0
  6
solid
 62
     7
100
AcDbLine
 10
0.8819356692096883
 20
0.3380717783867862
 30
0.0
 11
0.9054863938473694
 21
0.3410642421549021
 31
0.0
  0
SPLINE
  5
FC
330
A
100
AcDbEntity
  8
0
  6
solid
 62
     7
100
AcDbSpline
210
0.0
220
0.0
230
1.0
 70
     8
 71
     2
 72
     7
 73
     4
 74
     0
 42
0.0000000001
 43
0.0000000001
 40
0.0
 40
0.0
 40
0.0
 40
1.0
 40
2.0
 40
2.0
 40
2.0
 10
0.9054863938473694
 20
0.3410642421549021
 30
0.0
 10
0.9060614663111376
 20
0.3331007638940325
 30
0.0
 10
0.9134376981951955
 20
0.3265714885317137
 30
0.0
 10
0.9193176981951955
 20
0.3265714885317137
 30
0.0
  0
SPLINE
  5
FD
330
A
100
AcDbEntity
  8
0
  6
solid
 62
     7
100
AcDbSpline
210
0.0
220
0.0
230
1.0
 70
     8
 71
     2
 72
     7
 73
     4
 74
     0
 42
0.0000000001
 43
0.0000000001
 40
0.0
 40
0.0
 40
0.0
 40
1.0
 40
2.0
 40
2.0
 40
2.0
 10
0.9193176981951955
 20
0.3265714885317137
 30
0.0
 10
0.9275037851517172
 20
0.3265714885317137
 30
0.0
 10
0.9383362489198333
 20
0.3401430827346123
 30
0.0
 10
0.9399437851517172
 20
0.3619007638940326
 30
0.0
  0
SPLINE
  5
FE
330
A
100
AcDbEntity
  8
0
  6
solid
 62
     7
100
AcDbSpline
210
0.0
220
0.0
230
1.0
 70
     8
 71
     2
 72
     6
 73
     3
 74
     0
 42
0.0000000001
 43
0.0000000001
 40
0.0
 40
0.0
 40
0.0
 40
1.0
 40
1.0
 40
1.0
 10
0.9399437851517172
 20
0.3619007638940326
 30
0.0
 10
0.9301687126879492
 20
0.3519338073722934
 30
0.0
 10
0.9167455242821521
 20
0.3519338073722934
 30
0.0
  0
SPLINE
  5
FF
330
A
100
AcDbEntity
  8
0
  6
solid
 62
     7
100
AcDbSpline
210
0.0
220
0.0
230
1.0
 70
     8
 71
     2
 72
     7
 73
     4
 74
     0
 42
0.0000000001
 43
0.0000000001
 40
0.0
 40
0.0
 40
0.0
 40
1.0
 40
2.0
 40
2.0
 40
2.0
 10
0.9167455242821521
 20
0.3519338073722934
 30
0.0
 10
0.9019003068908478
 20
0.3519338073722934
 30
0.0
 10
0.8801240750067897
 20
0.3737100392563514
 30
0.0
 10
0.8801240750067897
 20
0.3907564160679456
 30
0.0
  0
SPLINE
  5
100
330
A
100
AcDbEntity
  8
0
  6
solid
 62
     7
100
AcDbSpline
210
0.0
220
0.0
230
1.0
 70
     8
 71
     2
 72
     7
 73
     4
 74
     0
 42
0.0000000001
 43
0.0000000001
 40
0.0
 40
0.0
 40
0.0
 40
1.0
 40
2.0
 40
2.0
 40
2.0
 10
0.8801240750067897
 20
0.3907564160679456
 30
0.0
 10
0.8801240750067897
 20
0.4089280102708442
 30
0.0
 10
0.9020858141372245
 20
0.4316439522998297
 30
0.0
 10
0.9188910315285289
 20
0.4316439522998297
 30
0.0
  0
SPLINE
  5
101
330
A
100
AcDbEntity
  8
0
  6
solid
 62
     7
100
AcDbSpline
210
0.0
220
0.0
230
1.0
 70
     8
 71
     2
 72
     7
 73
     4
 74
     0
 42
0.0000000001
 43
0.0000000001
 40
0.0
 40
0.0
 40
0.0
 40
1.0
 40
2.0
 40
2.0
 40
2.0
 10
0.9188910315285289
 20
0.4316439522998297
 30
0.0
 10
0.9373037851517173
 20
0.4316439522998297
 30
0.0
 10
0.9616458141372245
 20
0.4018856914302644
 30
0.0
 10
0.9616458141372245
 20
0.3687390247635978
 30
0.0
  0
SPLINE
  5
102
330
A
100
AcDbEntity
  8
0
  6
solid
 62
     7
100
AcDbSpline
210
0.0
220
0.0
230
1.0
 70
     8
 71
     2
 72
     7
 73
     4
 74
     0
 42
0.0000000001
 43
0.0000000001
 40
0.0
 40
0.0
 40
0.0
 40
1.0
 40
2.0
 40
2.0
 40
2.0
 10
0.9616458141372245
 20
0.3687390247635978
 30
0.0
 10
0.9616458141372245
 20
0.3345784450534528
 30
0.0
 10
0.9365432054415723
 20
0.3048323580969311
 30
0.0
 10
0.9165414663111375
 20
0.3048323580969311
 30
0.0
  0
SPLINE
  5
103
330
A
100
AcDbEntity
  8
0
  6
solid
 62
     7
100
AcDbSpline
210
0.0
220
0.0
230
1.0
 70
     8
 71
     2
 72
     7
 73
     4
 74
     0
 42
0.0000000001
 43
0.0000000001
 40
0.0
 40
0.0
 40
0.0
 40
1.0
 40
2.0
 40
2.0
 40
2.0
 10
0.9165414663111375
 20
0.3048323580969311
 30
0.0
 10
0.9021043648618622
 20
0.3048323580969311
 30
0.0
 10
0.8842110315285289
 20
0.321489169691134
 30
0.0
 10
0.8819356692096883
 20
0.3380717783867862
 30
0.0
  0
SPLINE
  5
104
330
A
100
AcDbEntity
  8
0
  6
solid
 62
     7
100
AcDbSpline
210
0.0
220
0.0
230
1.0
 70
     8
 71
     2
 72
     7
 73
     4
 74
     0
 42
0.0000000001
 43
0.0000000001
 40
0.0
 40
0.0
 40
0.0
 40
1.0
 40
2.0
 40
2.0
 40
2.0
 10
0.9380950894995432
 20
0.3904225030244674
 30
0.0
 10
0.9380950894995432
 20
0.3995361262128731
 30
0.0
 10
0.9264527706589637
 20
0.4099048218650471
 30
0.0
 10
0.9191878431227317
 20
0.4099048218650471
 30
0.0
  0
SPLINE
  5
105
330
A
100
AcDbEntity
  8
0
  6
solid
 62
     7
100
AcDbSpline
210
0.0
220
0.0
230
1.0
 70
     8
 71
     2
 72
     7
 73
     4
 74
     0
 42
0.0000000001
 43
0.0000000001
 40
0.0
 40
0.0
 40
0.0
 40
1.0
 40
2.0
 40
2.0
 40
2.0
 10
0.9191878431227317
 20
0.4099048218650471
 30
0.0
 10
0.9127884228328767
 20
0.4099048218650471
 30
0.0
 10
0.9036747996444709
 20
0.4013477204157718
 30
0.0
 10
0.9036747996444709
 20
0.3920485899809891
 30
0.0
  0
SPLINE
  5
106
330
A
100
AcDbEntity
  8
0
  6
solid
 62
     7
100
AcDbSpline
210
0.0
220
0.0
230
1.0
 70
     8
 71
     2
 72
     7
 73
     4
 74
     0
 42
0.0000000001
 43
0.0000000001
 40
0.0
 40
0.0
 40
0.0
 40
1.0
 40
2.0
 40
2.0
 40
2.0
 10
0.9036747996444709
 20
0.3920485899809891
 30
0.0
 10
0.9036747996444709
 20
0.3820323580969311
 30
0.0
 10
0.9133078431227318
 20
0.373672937807076
 30
0.0
 10
0.9206840750067897
 20
0.373672937807076
 30
0.0
  0
SPLINE
  5
107
330
A
100
AcDbEntity
  8
0
  6
solid
 62
     7
100
AcDbSpline
210
0.0
220
0.0
230
1.0
 70
     8
 71
     2
 72
     7
 73
     4
 74
     0
 42
0.0000000001
 43
0.0000000001
 40
0.0
 40
0.0
 40
0.0
 40
1.0
 40
2.0
 40
2.0
 40
2.0
 10
0.9206840750067897
 20
0.373672937807076
 30
0.0
 10
0.9278933503691085
 20
0.373672937807076
 30
0.0
 10
0.9380950894995432
 20
0.3818283001259166
 30
0.0
 10
0.9380950894995432
 20
0.3904225030244674
 30
0.0
  0
LINE
  5
108
330
A
100
AcDbEntity
  8
0
  6
solid
 62
     7
100
AcDbLine
 10
1.097512625731427
 20
0.3066439522998297
 30
0.0
 11
1.072391466311137
 21
0.3066439522998297
 31
0.0
  0
LINE
  5
109
330
A
100
AcDbEntity
  8
0
  6
solid
 62
     7
100
AcDbLine
 10
1.072391466311137
 20
0.3066439522998297
 30
0.0
 11
1.061447698195195
 21
0.3356294595462065
 31
0.0
  0
LINE
  5
10A
330
A
100
AcDbEntity
  8
0
  6
solid
 62
     7
100
AcDbLine
 10
1.061447698195195
 20
0.3356294595462065
 30
0.0
 11
1.011632046021282
 21
0.3356294595462065
 31
0.0
  0
LINE
  5
10B
330
A
100
AcDbEntity
  8
0
  6
solid
 62
     7
100
AcDbLine
 10
1.011632046021282
 20
0.3356294595462065
 30
0.0
 11
1.000706828629978
 21
0.3066439522998297
 31
0.0
  0
LINE
  5
10C
330
A
100
AcDbEntity
  8
0
  6
solid
 62
     7
100
AcDbLine
 10
1.000706828629978
 20
0.3066439522998297
 30
0.0
 11
0.9761358141372246
 21
0.3066439522998297
 31
0.0
  0
LINE
  5
10D
330
A
100
AcDbEntity
  8
0
  6
solid
 62
     7
100
AcDbLine
 10
0.9761358141372246
 20
0.3066439522998297
 30
0.0
 11
1.025215814137224
 21
0.4316439522998297
 31
0.0
  0
LINE
  5
10E
330
A
100
AcDbEntity
  8
0
  6
solid
 62
     7
100
AcDbLine
 10
1.025215814137224
 20
0.4316439522998297
 30
0.0
 11
1.047715524282152
 21
0.4316439522998297
 31
0.0
  0
LINE
  5
10F
330
A
100
AcDbEntity
  8
0
  6
solid
 62
     7
100
AcDbLine
 10
1.097512625731427
 20
0.3066439522998297
 30
0.0
 11
1.047715524282152
 21
0.4316439522998297
 31
0.0
  0
LINE
  5
110
330
A
100
AcDbEntity
  8
0
  6
solid
 62
     7
100
AcDbLine
 10
1.052927698195195
 20
0.3573685899809891
 30
0.0
 11
1.036512046021282
 21
0.4008468508505543
 31
0.0
  0
LINE
  5
111
330
A
100
AcDbEntity
  8
0
  6
solid
 62
     7
100
AcDbLine
 10
1.036512046021282
 20
0.4008468508505543
 30
0.0
 11
1.020114944572007
 21
0.3573685899809891
 31
0.0
  0
LINE
  5
112
330
A
100
AcDbEntity
  8
0
  6
solid
 62
     7
100
AcDbLine
 10
1.052927698195195
 20
0.3573685899809891
 30
0.0
 11
1.020114944572007
 21
0.3573685899809891
 31
0.0
  0
LINE
  5
113
330
A
100
AcDbEntity
  8
0
  6
solid
 62
     7
100
AcDbLine
 10
1.113814219934325
 20
0.3483106189664963
 30
0.0
 11
1.137364944572007
 21
0.3501222131693948
 31
0.0
  0
SPLINE
  5
114
330
A
100
AcDbEntity
  8
0
  6
solid
 62
     7
100
AcDbSpline
210
0.0
220
0.0
230
1.0
 70
     8
 71
     2
 72
     7
 73
     4
 74
     0
 42
0.0000000001
 43
0.0000000001
 40
0.0
 40
0.0
 40
0.0
 40
1.0
 40
2.0
 40
2.0
 40
2.0
 10
1.137364944572007
 20
0.3501222131693948
 30
0.0
 10
1.139510451818384
 20
0.337793517517221
 30
0.0
 10
1.153817698195195
 20
0.3265714885317137
 30
0.0
 10
1.165484944572007
 20
0.3265714885317137
 30
0.0
  0
SPLINE
  5
115
330
A
100
AcDbEntity
  8
0
  6
solid
 62
     7
100
AcDbSpline
210
0.0
220
0.0
230
1.0
 70
     8
 71
     2
 72
     7
 73
     4
 74
     0
 42
0.0000000001
 43
0.0000000001
 40
0.0
 40
0.0
 40
0.0
 40
1.0
 40
2.0
 40
2.0
 40
2.0
 10
1.165484944572007
 20
0.3265714885317137
 30
0.0
 10
1.17822175616621
 20
0.3265714885317137
 30
0.0
 10
1.191712770658963
 20
0.3363158363578007
 30
0.0
 10
1.191712770658963
 20
0.3432468508505543
 30
0.0
  0
SPLINE
  5
116
330
A
100
AcDbEntity
  8
0
  6
solid
 62
     7
100
AcDbSpline
210
0.0
220
0.0
230
1.0
 70
     8
 71
     2
 72
     7
 73
     4
 74
     0
 42
0.0000000001
 43
0.0000000001
 40
0.0
 40
0.0
 40
0.0
 40
1.0
 40
2.0
 40
2.0
 40
2.0
 10
1.191712770658963
 20
0.3432468508505543
 30
0.0
 10
1.191712770658963
 20
0.3473338073722934
 30
0.0
 10
1.186407843122731
 20
0.3538196044737427
 30
0.0
 10
1.179625234427079
 20
0.3559280102708441
 30
0.0
  0
SPLINE
  5
117
330
A
100
AcDbEntity
  8
0
  6
solid
 62
     7
100
AcDbSpline
210
0.0
220
0.0
230
1.0
 70
     8
 71
     2
 72
     6
 73
     3
 74
     0
 42
0.0000000001
 43
0.0000000001
 40
0.0
 40
0.0
 40
0.0
 40
1.0
 40
1.0
 40
1.0
 10
1.179625234427079
 20
0.3559280102708441
 30
0.0
 10
1.175445524282152
 20
0.3575169957780905
 30
0.0
 10
1.159400886600992
 20
0.3612514885317137
 30
0.0
  0
SPLINE
  5
118
330
A
100
AcDbEntity
  8
0
  6
solid
 62
     7
100
AcDbSpline
210
0.0
220
0.0
230
1.0
 70
     8
 71
     2
 72
     6
 73
     3
 74
     0
 42
0.0000000001
 43
0.0000000001
 40
0.0
 40
0.0
 40
0.0
 40
1.0
 40
1.0
 40
1.0
 10
1.159400886600992
 20
0.3612514885317137
 30
0.0
 10
1.138496538774905
 20
0.3656723580969311
 30
0.0
 10
1.130600886600992
 20
0.3729743870824383
 30
0.0
  0
SPLINE
  5
119
330
A
100
AcDbEntity
  8
0
  6
solid
 62
     7
100
AcDbSpline
210
0.0
220
0.0
230
1.0
 70
     8
 71
     2
 72
     6
 73
     3
 74
     0
 42
0.0000000001
 43
0.0000000001
 40
0.0
 40
0.0
 40
0.0
 40
1.0
 40
1.0
 40
1.0
 10
1.130600886600992
 20
0.3729743870824383
 30
0.0
 10
1.119249002543021
 20
0.3834543870824383
 30
0.0
 10
1.119249002543021
 20
0.3981511986766413
 30
0.0
  0
SPLINE
  5
11A
330
A
100
AcDbEntity
  8
0
  6
solid
 62
     7
100
AcDbSpline
210
0.0
220
0.0
230
1.0
 70
     8
 71
     2
 72
     8
 73
     5
 74
     0
 42
0.0000000001
 43
0.0000000001
 40
0.0
 40
0.0
 40
0.0
 40
1.0
 40
2.0
 40
3.0
 40
3.0
 40
3.0
 10
1.119249002543021
 20
0.3981511986766413
 30
0.0
 10
1.119249002543021
 20
0.4081488798360616
 30
0.0
 10
1.129234509789398
 20
0.4246387349085254
 30
0.0
 10
1.149050741673456
 20
0.4334555465027283
 30
0.0
 10
1.163191031528528
 20
0.4334555465027283
 30
0.0
  0
SPLINE
  5
11B
330
A
100
AcDbEntity
  8
0
  6
solid
 62
     7
100
AcDbSpline
210
0.0
220
0.0
230
1.0
 70
     8
 71
     2
 72
     7
 73
     4
 74
     0
 42
0.0000000001
 43
0.0000000001
 40
0.0
 40
0.0
 40
0.0
 40
1.0
 40
2.0
 40
2.0
 40
2.0
 10
1.163191031528528
 20
0.4334555465027283
 30
0.0
 10
1.185616538774905
 20
0.4334555465027283
 30
0.0
 10
1.208833350369108
 20
0.4123656914302645
 30
0.0
 10
1.209828712687949
 20
0.3954120682418587
 30
0.0
  0
LINE
  5
11C
330
A
100
AcDbEntity
  8
0
  6
solid
 62
     7
100
AcDbLine
 10
1.209828712687949
 20
0.3954120682418587
 30
0.0
 11
1.186277988050268
 21
0.3936004740389601
 31
0.0
  0
SPLINE
  5
11D
330
A
100
AcDbEntity
  8
0
  6
solid
 62
     7
100
AcDbSpline
210
0.0
220
0.0
230
1.0
 70
     8
 71
     2
 72
     7
 73
     4
 74
     0
 42
0.0000000001
 43
0.0000000001
 40
0.0
 40
0.0
 40
0.0
 40
1.0
 40
2.0
 40
2.0
 40
2.0
 10
1.186277988050268
 20
0.3936004740389601
 30
0.0
 10
1.18461479964447
 20
0.4030480102708442
 30
0.0
 10
1.173986393847369
 20
0.4117164160679457
 30
0.0
 10
1.163357988050268
 20
0.4117164160679457
 30
0.0
  0
SPLINE
  5
11E
330
A
100
AcDbEntity
  8
0
  6
solid
 62
     7
100
AcDbSpline
210
0.0
220
0.0
230
1.0
 70
     8
 71
     2
 72
     6
 73
     3
 74
     0
 42
0.0000000001
 43
0.0000000001
 40
0.0
 40
0.0
 40
0.0
 40
1.0
 40
1.0
 40
1.0
 10
1.163357988050268
 20
0.4117164160679457
 30
0.0
 10
1.152525524282152
 20
0.4117164160679457
 30
0.0
 10
1.146626973557514
 20
0.4069123580969312
 30
0.0
  0
SPLINE
  5
11F
330
A
100
AcDbEntity
  8
0
  6
solid
 62
     7
100
AcDbSpline
210
0.0
220
0.0
230
1.0
 70
     8
 71
     2
 72
     6
 73
     3
 74
     0
 42
0.0000000001
 43
0.0000000001
 40
0.0
 40
0.0
 40
0.0
 40
1.0
 40
1.0
 40
1.0
 10
1.146626973557514
 20
0.4069123580969312
 30
0.0
 10
1.142799727180702
 20
0.4037714885317138
 30
0.0
 10
1.142799727180702
 20
0.399369169691134
 30
0.0
  0
SPLINE
  5
120
330
A
100
AcDbEntity
  8
0
  6
solid
 62
     7
100
AcDbSpline
210
0.0
220
0.0
230
1.0
 70
     8
 71
     2
 72
     6
 73
     3
 74
     0
 42
0.0000000001
 43
0.0000000001
 40
0.0
 40
0.0
 40
0.0
 40
1.0
 40
1.0
 40
1.0
 10
1.142799727180702
 20
0.399369169691134
 30
0.0
 10
1.142799727180702
 20
0.3946022131693949
 30
0.0
 10
1.14649711848505
 20
0.3919187349085253
 30
0.0
  0
SPLINE
  5
121
330
A
100
AcDbEntity
  8
0
  6
solid
 62
     7
100
AcDbSpline
210
0.0
220
0.0
230
1.0
 70
     8
 71
     2
 72
     9
 73
     6
 74
     0
 42
0.0000000001
 43
0.0000000001
 40
0.0
 40
0.0
 40
0.0
 40
1.0
 40
2.0
 40
3.0
 40
4.0
 40
4.0
 40
4.0
 10
1.14649711848505
 20
0.3919187349085253
 30
0.0
 10
1.150843785151717
 20
0.387448589980989
 30
0.0
 10
1.18729827790534
 20
0.3794416334592499
 30
0.0
 10
1.205024654716934
 20
0.3703094595462065
 30
0.0
 10
1.215263495296644
 20
0.3542833725896847
 30
0.0
 10
1.215263495296644
 20
0.3428943870824384
 30
0.0
  0
SPLINE
  5
122
330
A
100
AcDbEntity
  8
0
  6
solid
 62
     7
100
AcDbSpline
210
0.0
220
0.0
230
1.0
 70
     8
 71
     2
 72
     8
 73
     5
 74
     0
 42
0.0000000001
 43
0.0000000001
 40
0.0
 40
0.0
 40
0.0
 40
1.0
 40
2.0
 40
3.0
 40
3.0
 40
3.0
 10
1.215263495296644
 20
0.3428943870824384
 30
0.0
 10
1.215263495296644
 20
0.3322103291114238
 30
0.0
 10
1.203083205441572
 20
0.3132288798360616
 30
0.0
 10
1.181306973557514
 20
0.3048323580969311
 30
0.0
 10
1.165039727180702
 20
0.3048323580969311
 30
0.0
  0
SPLINE
  5
123
330
A
100
AcDbEntity
  8
0
  6
solid
 62
     7
100
AcDbSpline
210
0.0
220
0.0
230
1.0
 70
     8
 71
     2
 72
     7
 73
     4
 74
     0
 42
0.0000000001
 43
0.0000000001
 40
0.0
 40
0.0
 40
0.0
 40
1.0
 40
2.0
 40
2.0
 40
2.0
 10
1.165039727180702
 20
0.3048323580969311
 30
0.0
 10
1.141414799644471
 20
0.3048323580969311
 30
0.0
 10
1.116052480803891
 20
0.3268868508505543
 30
0.0
 10
1.113814219934325
 20
0.3483106189664963
 30
0.0
  0
LINE
  5
181
330
A
100
AcDbEntity
  8
1
  6
solid
 62
     7
370
     0
100
AcDbLine
 10
-1.126383185386657
 20
0.1900736689567566
 30
0.0
 11
-1.126383185386657
 21
0.0067133556940649
 31
0.0
  0
LINE
  5
182
330
A
100
AcDbEntity
  8
1
  6
solid
 62
     7
370
     0
100
AcDbLine
 10
-0.2513831555843353
 20
0.1900736689567566
 30
0.0
 11
-0.2513831555843353
 21
0.0067133556940649
 31
0.0
  0
LINE
  5
183
330
A
100
AcDbEntity
  8
1
  6
solid
 62
     7
370
     0
100
AcDbLine
 10
-1.126383185386657
 20
0.0692133556940649
 30
0.0
 11
-0.8809566998972611
 21
0.0692133556940649
 31
0.0
  0
LINE
  5
184
330
A
100
AcDbEntity
  8
1
  6
solid
 62
     7
370
     0
100
AcDbLine
 10
-0.2513831555843353
 20
0.0692133556940649
 30
0.0
 11
-0.4968096410737318
 21
0.0692133556940649
 31
0.0
  0
MTEXT
  5
185
330
A
100
AcDbEntity
  8
1
  6
solid
 62
     7
370
     0
100
AcDbMText
 10
-0.6888831704854966
 20
0.0692133556940649
 30
0.0
 40
0.125
 41
0.0
 71
     5
 72
     1
  1
{\H0.125000;7/8}
 73
     1
 44
1.0
  0
SOLID
  5
186
330
A
100
AcDbEntity
  8
1
  6
solid
 62
     7
370
     0
100
AcDbTrace
 10
-1.084753185386657
 20
0.0900258556940649
 30
0.0
 11
-1.084753185386657
 21
0.0484008556940649
 31
0.0
 12
-1.126383185386657
 22
0.0692133556940649
 32
0.0
 13
-1.126383185386657
 23
0.0692133556940649
 33
0.0
  0
SOLID
  5
187
330
A
100
AcDbEntity
  8
1
  6
solid
 62
     7
370
     0
100
AcDbTrace
 10
-0.2930131555843354
 20
0.0484008556940649
 30
0.0
 11
-0.2930131555843354
 21
0.0900258556940649
 31
0.0
 12
-0.2513831555843353
 22
0.0692133556940649
 32
0.0
 13
-0.2513831555843353
 23
0.0692133556940649
 33
0.0
  0
LINE
  5
190
330
A
100
AcDbEntity
  8
1
  6
solid
 62
     7
370
     0
100
AcDbLine
 10
-0.1921659789427661
 20
0.1900736689567565
 30
0.0
 11
-0.0884882447536925
 21
0.1900736689567564
 31
0.0
  0
LINE
  5
191
330
A
100
AcDbEntity
  8
1
  6
solid
 62
     7
370
     0
100
AcDbLine
 10
-0.6296660087450885
 20
1.065073609352111
 30
0.0
 11
-0.0884882447536919
 21
1.065073609352111
 31
0.0
  0
LINE
  5
192
330
A
100
AcDbEntity
  8
1
  6
solid
 62
     7
370
     0
100
AcDbLine
 10
-0.1509882447536925
 20
0.1900736689567565
 30
0.0
 11
-0.1509882447536923
 21
0.4677010430005879
 31
0.0
  0
LINE
  5
193
330
A
100
AcDbEntity
  8
1
  6
solid
 62
     7
370
     0
100
AcDbLine
 10
-0.1509882447536919
 20
1.065073609352111
 30
0.0
 11
-0.1509882447536921
 21
0.7874462353082804
 31
0.0
  0
MTEXT
  5
194
330
A
100
AcDbEntity
  8
1
  6
solid
 62
     7
370
     0
100
AcDbMText
 10
-0.1509882447536921
 20
0.6275736391544342
 30
0.0
 40
0.125
 41
0.0
 71
     5
 72
     1
  1
{\H0.125000;7/8}
 73
     1
 44
1.0
  0
SOLID
  5
195
330
A
100
AcDbEntity
  8
1
  6
solid
 62
     7
370
     0
100
AcDbTrace
 10
-0.1718007447536924
 20
0.2317036689567566
 30
0.0
 11
-0.1301757447536924
 21
0.2317036689567564
 31
0.0
 12
-0.1509882447536925
 22
0.1900736689567565
 32
0.0
 13
-0.1509882447536925
 23
0.1900736689567565
 33
0.0
  0
SOLID
  5
196
330
A
100
AcDbEntity
  8
1
  6
solid
 62
     7
370
     0
100
AcDbTrace
 10
-0.130175744753692
 20
1.023443609352111
 30
0.0
 11
-0.1718007447536919
 21
1.023443609352111
 31
0.0
 12
-0.1509882447536919
 22
1.065073609352111
 32
0.0
 13
-0.1509882447536919
 23
1.065073609352111
 33
0.0
  0
VIEWPORT
  5
141
330
B
100
AcDbEntity
 67
     1
  8
0
  6
Continuous
370
     0
100
AcDbViewport
 10
4.684730930115775
 20
4.302078148941664
 30
0.0
 40
15.41157581003263
 41
8.154357679112901
 68
     1
 69
     1
 12
4.684730930115775
 22
4.302078148941664
 13
0.0
 23
0.0
 14
0.5
 24
0.5
 15
0.5
 25
0.5
 16
0.0
 26
0.0
 36
1.0
 17
0.0
 27
0.0
 37
0.0
 42
50.0
 43
0.0
 44
0.0
 45
8.154357679112901
 50
0.0
 51
0.0
 72
   100
 90
   819232
  1

281
     0
 71
     1
 74
     0
110
0.0
120
0.0
130
0.0
111
1.0
121
0.0
131
0.0
112
0.0
122
1.0
132
0.0
 79
     0
146
0.0
170
     0
  0
VIEWPORT
  5
144
330
B
100
AcDbEntity
 67
     1
  8
0
  6
Continuous
370
     0
100
AcDbViewport
 10
4.684692099996205
 20
4.302078213277008
 30
0.0
 40
10.43093084090485
 41
8.058433110109401
 68
     2
 69
     2
 12
-0.0348435966974745
 22
0.6039348873122666
 13
0.0
 23
0.0
 14
0.5
 24
0.5
 15
0.5
 25
0.5
 16
0.0
 26
0.0
 36
1.0
 17
0.0
 27
0.0
 37
0.0
 42
50.0
 43
0.0
 44
0.0
 45
2.457343554799315
 50
0.0
 51
0.0
 72
   100
 90
   819232
  1

281
     0
 71
     1
 74
     0
110
0.0
120
0.0
130
0.0
111
1.0
121
0.0
131
0.0
112
0.0
122
1.0
132
0.0
 79
     0
146
0.0
170
     0
  0
ENDSEC
  0
SECTION
  2
OBJECTS
  0
DICTIONARY
  5
19
330
0
100
AcDbDictionary
281
     1
  3
ACAD_COLOR
350
13A
  3
ACAD_GROUP
350
1A
  3
ACAD_LAYOUT
350
1E
  3
ACAD_MATERIAL
350
125
  3
ACAD_MLEADERSTYLE
350
16A
  3
ACAD_MLINESTYLE
350
1B
  3
ACAD_PLOTSETTINGS
350
22
  3
ACAD_PLOTSTYLENAME
350
1F
  3
ACAD_SCALELIST
350
148
  3
ACAD_TABLESTYLE
350
13B
  3
ACAD_VISUALSTYLE
350
129
  3
ACAD_WIPEOUT_VARS
350
23
  3
ACDB_RECOMPOSE_DATA
350
1AD
  3
AcDbVariableDictionary
350
145
  0
DICTIONARY
  5
173
330
14
100
AcDbDictionary
280
     1
281
     1
  3
ADSK_XREC_LAYER_RECONCILED
360
174
  0
DICTIONARY
  5
175
330
27
100
AcDbDictionary
280
     1
281
     1
  3
ADSK_XREC_LAYER_RECONCILED
360
176
  0
DICTIONARY
  5
177
330
E0
100
AcDbDictionary
280
     1
281
     1
  3
ADSK_XREC_LAYER_RECONCILED
360
178
  0
DICTIONARY
  5
188
330
A
100
AcDbDictionary
280
     1
281
     1
  3
ACAD_SORTENTS
360
189
  0
DICTIONARY
  5
13A
102
{ACAD_REACTORS
330
19
102
}
330
19
100
AcDbDictionary
281
     1
  0
DICTIONARY
  5
1A
102
{ACAD_REACTORS
330
19
102
}
330
19
100
AcDbDictionary
281
     1
  0
DICTIONARY
  5
1E
102
{ACAD_REACTORS
330
19
102
}
330
19
100
AcDbDictionary
281
     1
  3
Layout1
350
21
  3
Model
350
20
  0
DICTIONARY
  5
125
102
{ACAD_REACTORS
330
19
102
}
330
19
100
AcDbDictionary
281
     1
  3
ByBlock
350
127
  3
ByLayer
350
126
  3
Global
350
128
  0
DICTIONARY
  5
16A
102
{ACAD_REACTORS
330
19
102
}
330
19
100
AcDbDictionary
281
     1
  3
Standard
350
16B
  0
DICTIONARY
  5
1B
102
{ACAD_REACTORS
330
19
102
}
330
19
100
AcDbDictionary
281
     1
  3
Standard
350
1C
  0
DICTIONARY
  5
22
102
{ACAD_REACTORS
330
19
102
}
330
19
100
AcDbDictionary
281
     1
  0
ACDBDICTIONARYWDFLT
  5
1F
102
{ACAD_REACTORS
330
19
102
}
330
19
100
AcDbDictionary
281
     1
  3
Normal
350
1D
100
AcDbDictionaryWithDefault
340
1D
  0
DICTIONARY
  5
148
102
{ACAD_REACTORS
330
19
102
}
330
19
100
AcDbDictionary
281
     1
  3
A0
350
149
  3
A1
350
14A
  3
A2
350
14B
  3
A3
350
14C
  3
A4
350
14D
  3
A5
350
14E
  3
A6
350
14F
  3
A7
350
150
  3
A8
350
151
  3
A9
350
152
  3
B0
350
153
  3
B1
350
154
  3
B2
350
155
  3
B3
350
156
  3
B4
350
157
  3
B5
350
158
  3
B6
350
159
  3
B7
350
15A
  3
B8
350
15B
  3
B9
350
15C
  3
C0
350
15D
  3
C1
350
15E
  3
C2
350
15F
  3
C3
350
160
  3
C4
350
161
  3
C5
350
162
  3
C6
350
163
  3
C7
350
164
  3
C8
350
165
  3
C9
350
166
  3
D0
350
167
  3
D1
350
168
  3
D2
350
169
  0
DICTIONARY
  5
13B
102
{ACAD_REACTORS
330
19
102
}
330
19
100
AcDbDictionary
281
     1
  3
Standard
350
13C
  0
DICTIONARY
  5
129
102
{ACAD_REACTORS
330
19
102
}
330
19
100
AcDbDictionary
281
     1
  3
2dWireframe
350
12F
  3
3D Hidden
350
131
  3
3dWireframe
350
130
  3
Basic
350
12E
  3
Brighten
350
135
  3
ColorChange
350
139
  3
Conceptual
350
132
  3
Dim
350
134
  3
Facepattern
350
138
  3
Flat
350
12A
  3
FlatWithEdges
350
12B
  3
Gouraud
350
12C
  3
GouraudWithEdges
350
12D
  3
Linepattern
350
137
  3
Realistic
350
133
  3
Thicken
350
136
  0
WIPEOUTVARIABLES
  5
23
330
19
100
AcDbWipeoutVariables
 70
     1
  0
XRECORD
  5
1AD
102
{ACAD_REACTORS
330
19
102
}
330
19
100
AcDbXrecord
280
     1
 90
        1
330
13C
  0
DICTIONARY
  5
145
102
{ACAD_REACTORS
330
19
102
}
330
19
100
AcDbDictionary
281
     1
  3
CANNOSCALE
350
1AA
  3
CMLEADERSTYLE
350
1A9
  3
CTABLESTYLE
350
146
  0
XRECORD
  5
174
102
{ACAD_REACTORS
330
173
102
}
330
173
100
AcDbXrecord
280
     1
290
     1
  0
XRECORD
  5
176
102
{ACAD_REACTORS
330
175
102
}
330
175
100
AcDbXrecord
280
     1
290
     1
  0
XRECORD
  5
178
102
{ACAD_REACTORS
330
177
102
}
330
177
100
AcDbXrecord
280
     1
290
     1
  0
SORTENTSTABLE
  5
189
102
{ACAD_REACTORS
330
188
102
}
330
188
100
AcDbSortentsTable
330
A
331
115
  5
123
331
F3
  5
101
331
D9
  5
E8
331
84
  5
92
331
6C
  5
7A
331
104
  5
112
331
EA
  5
F8
331
C8
  5
D6
331
A6
  5
B4
331
195
  5
5B
331
5B
  5
69
331
B7
  5
C5
331
95
  5
A3
331
184
  5
60
331
39
  5
39
331
28
  5
28
331
113
  5
121
331
F1
  5
FF
331
82
  5
90
331
6A
  5
78
331
102
  5
110
331
E8
  5
F6
331
C6
  5
D4
331
A4
  5
B2
331
193
  5
59
331
59
  5
67
331
D7
  5
E6
331
B5
  5
C3
331
93
  5
A1
331
182
  5
5E
331
37
  5
37
331
111
  5
11F
331
80
  5
8E
331
68
  5
76
331
122
  5
195
331
100
  5
10E
331
E6
  5
F4
331
C4
  5
D2
331
A2
  5
B0
331
191
  5
57
331
D5
  5
E4
331
B3
  5
C1
331
91
  5
9F
331
57
  5
65
331
35
  5
35
331
120
  5
193
331
FE
  5
10C
331
E4
  5
F2
331
C2
  5
D0
331
A0
  5
AE
331
7E
  5
8C
331
66
  5
74
331
10F
  5
11D
331
D3
  5
E2
331
B1
  5
BF
331
8F
  5
9D
331
77
  5
85
331
33
  5
33
331
11E
  5
191
331
FC
  5
10A
331
E2
  5
F0
331
C0
  5
CE
331
9E
  5
AC
331
7C
  5
8A
331
64
  5
72
331
10D
  5
11B
331
D1
  5
DF
331
AF
  5
BD
331
8D
  5
9B
331
75
  5
83
331
31
  5
31
331
11C
  5
187
331
FA
  5
108
331
BE
  5
CC
331
9C
  5
AA
331
7A
  5
88
331
62
  5
70
331
10B
  5
119
331
CF
  5
DD
331
AD
  5
BB
331
8B
  5
99
331
73
  5
81
331
2F
  5
2F
331
11A
  5
185
331
F8
  5
106
331
DE
  5
ED
331
BC
  5
CA
331
9A
  5
A8
331
78
  5
86
331
60
  5
6E
331
109
  5
117
331
EF
  5
FD
331
CD
  5
DB
331
AB
  5
B9
331
89
  5
97
331
71
  5
7F
331
3E
  5
3E
331
2D
  5
2D
331
118
  5
183
331
F6
  5
104
331
DC
  5
EB
331
BA
  5
C8
331
98
  5
A6
331
107
  5
115
331
ED
  5
FB
331
CB
  5
D9
331
A9
  5
B7
331
87
  5
95
331
6F
  5
7D
331
5E
  5
6C
331
187
  5
63
331
3C
  5
3C
331
2B
  5
2B
331
116
  5
181
331
F4
  5
102
331
DA
  5
E9
331
B8
  5
C6
331
85
  5
93
331
6D
  5
7B
331
105
  5
113
331
EB
  5
F9
331
C9
  5
D7
331
A7
  5
B5
331
196
  5
5C
331
5C
  5
6A
331
96
  5
A4
331
185
  5
61
331
3A
  5
3A
331
29
  5
29
331
114
  5
122
331
F2
  5
100
331
D8
  5
E7
331
83
  5
91
331
6B
  5
79
331
103
  5
111
331
E9
  5
F7
331
C7
  5
D5
331
A5
  5
B3
331
194
  5
5A
331
5A
  5
68
331
B6
  5
C4
331
94
  5
A2
331
183
  5
5F
331
38
  5
38
331
112
  5
120
331
F0
  5
FE
331
81
  5
8F
331
69
  5
77
331
123
  5
196
331
101
  5
10F
331
E7
  5
F5
331
C5
  5
D3
331
A3
  5
B1
331
192
  5
58
331
58
  5
66
331
D6
  5
E5
331
B4
  5
C2
331
92
  5
A0
331
181
  5
5D
331
36
  5
36
331
110
  5
11E
331
7F
  5
8D
331
67
  5
75
331
121
  5
194
331
FF
  5
10D
331
E5
  5
F3
331
C3
  5
D1
331
A1
  5
AF
331
190
  5
56
331
D4
  5
E3
331
B2
  5
C0
331
90
  5
9E
331
56
  5
64
331
34
  5
34
331
11F
  5
192
331
FD
  5
10B
331
E3
  5
F1
331
C1
  5
CF
331
9F
  5
AD
331
7D
  5
8B
331
65
  5
73
331
10E
  5
11C
331
D2
  5
E1
331
B0
  5
BE
331
8E
  5
9C
331
76
  5
84
331
32
  5
32
331
11D
  5
190
331
FB
  5
109
331
E1
  5
EF
331
BF
  5
CD
331
9D
  5
AB
331
7B
  5
89
331
63
  5
71
331
10C
  5
11A
331
D0
  5
DE
331
AE
  5
BC
331
8C
  5
9A
331
74
  5
82
331
30
  5
30
331
11B
  5
186
331
F9
  5
107
331
DF
  5
EE
331
BD
  5
CB
331
9B
  5
A9
331
79
  5
87
331
61
  5
6F
331
10A
  5
118
331
CE
  5
DC
331
AC
  5
BA
331
8A
  5
98
331
72
  5
80
331
3F
  5
3F
331
2E
  5
2E
331
119
  5
184
331
F7
  5
105
331
DD
  5
EC
331
BB
  5
C9
331
99
  5
A7
331
108
  5
116
331
EE
  5
FC
331
CC
  5
DA
331
AA
  5
B8
331
88
  5
96
331
70
  5
7E
331
5F
  5
6D
331
3D
  5
3D
331
2C
  5
2C
331
117
  5
182
331
F5
  5
103
331
DB
  5
EA
331
B9
  5
C7
331
106
  5
114
331
EC
  5
FA
331
CA
  5
D8
331
A8
  5
B6
331
86
  5
94
331
6E
  5
7C
331
5D
  5
6B
331
97
  5
A5
331
186
  5
62
331
3B
  5
3B
331
2A
  5
2A
  0
LAYOUT
  5
21
102
{ACAD_REACTORS
330
1E
102
}
330
1E
100
AcDbPlotSettings
  1

  2
Foxit PDF Printer
  4
Letter
  6

 40
3.174999952316284
 41
3.174999952316284
 42
3.17498779296875
 43
3.175003051757812
 44
279.3999938964844
 45
215.8999938964844
 46
19.83832962602996
 47
15.66222027740119
 48
0.0
 49
0.0
140
0.0
141
0.0
142
1.0
143
1.0
 70
     4
 72
     0
 73
     0
 74
     1
  7

 75
     0
147
1.0
 76
     0
 77
     2
 78
   300
148
-2.976962803574165
149
-20.16000981431432
100
AcDbLayout
  1
Layout1
 70
     0
 71
     1
 10
-0.7888333375894519
 20
0.0520783301022378
 11
10.21116642211466
 21
8.552078089806347
 12
0.0
 22
0.0
 32
0.0
 14
-0.5315241435926659
 24
0.272308365659125
 34
-0.0015258207003583
 15
9.900986003824218
 25
8.331847932224203
 35
0.0000000349246037
146
0.0
 13
0.0
 23
0.0
 33
0.0
 16
1.0
 26
0.0
 36
0.0
 17
0.0
 27
1.0
 37
0.0
 76
     0
330
B
331
141
1001
ACAD_PSEXT
1000
Foxit PDF Printer
1000
Foxit PDF Printer Driver
1000
FOXIT_PDF
1000

1070
     0
  0
LAYOUT
  5
20
102
{ACAD_REACTORS
330
1E
102
}
330
1E
100
AcDbPlotSettings
  1

  2

  4

  6

 40
0.0
 41
0.0
 42
0.0
 43
0.0
 44
0.0
 45
0.0
 46
0.0
 47
0.0
 48
0.0
 49
0.0
140
0.0
141
0.0
142
1.0
143
1.0
 70
  1024
 72
     0
 73
     0
 74
     0
  7

 75
     0
147
1.0
 76
     0
 77
     2
 78
   300
148
0.0
149
0.0
100
AcDbLayout
  1
Model
 70
     0
 71
     0
 10
0.0
 20
0.0
 11
0.0
 21
0.0
 12
0.0
 22
0.0
 32
0.0
 14
0.0
 24
0.0
 34
0.0
 15
0.0
 25
0.0
 35
0.0
146
0.0
 13
0.0
 23
0.0
 33
0.0
 16
0.0
 26
0.0
 36
0.0
 17
0.0
 27
0.0
 37
0.0
 76
     0
330
A
  0
MATERIAL
  5
127
102
{ACAD_XDICTIONARY
360
1B0
102
}
102
{ACAD_REACTORS
330
125
102
}
330
125
100
AcDbMaterial
  1
ByBlock
 73
     1
 78
     1
172
     1
176
     1
270
     1
274
     1
  0
MATERIAL
  5
126
102
{ACAD_XDICTIONARY
360
1AE
102
}
102
{ACAD_REACTORS
330
125
102
}
330
125
100
AcDbMaterial
  1
ByLayer
 73
     1
 78
     1
172
     1
176
     1
270
     1
274
     1
  0
MATERIAL
  5
128
102
{ACAD_XDICTIONARY
360
1B2
102
}
102
{ACAD_REACTORS
330
125
102
}
330
125
100
AcDbMaterial
  1
Global
 73
     1
 78
     1
172
     1
176
     1
270
     1
274
     1
  0
MLEADERSTYLE
  5
16B
102
{ACAD_REACTORS
330
16A
102
}
330
16A
100
AcDbMLeaderStyle
170
     2
171
     1
172
     0
 90
        2
 40
0.0
 41
0.0
173
     1
 91
-1056964608
340
11
 92
       -2
290
     1
 42
0.09
291
     1
 43
0.36
  3
Standard
 44
0.18
300

342
17
174
     1
178
     6
175
     1
176
     0
 93
-1056964608
 45
0.18
292
     0
297
     0
 46
0.18
 94
-1056964608
 47
1.0
 49
1.0
140
1.0
293
     1
141
0.0
294
     1
177
     0
142
1.0
295
     0
296
     0
143
0.125
1001
ACAD_MLEADERVER
1070
     2
  0
MLINESTYLE
  5
1C
102
{ACAD_REACTORS
330
1B
102
}
330
1B
100
AcDbMlineStyle
  2
STANDARD
 70
     0
  3

 62
     0
 51
90.0
 52
90.0
 71
     2
 49
0.5
 62
   256
  6
BYLAYER
 49
-0.5
 62
   256
  6
BYLAYER
  0
ACDBPLACEHOLDER
  5
1D
102
{ACAD_REACTORS
330
1F
102
}
330
1F
  0
SCALE
  5
149
102
{ACAD_REACTORS
330
148
102
}
330
148
100
AcDbScale
 70
     0
300
1:1
140
1.0
141
1.0
290
     1
  0
SCALE
  5
14A
102
{ACAD_REACTORS
330
148
102
}
330
148
100
AcDbScale
 70
     0
300
1:2
140
1.0
141
2.0
290
     0
  0
SCALE
  5
14B
102
{ACAD_REACTORS
330
148
102
}
330
148
100
AcDbScale
 70
     0
300
1:4
140
1.0
141
4.0
290
     0
  0
SCALE
  5
14C
102
{ACAD_REACTORS
330
148
102
}
330
148
100
AcDbScale
 70
     0
300
1:5
140
1.0
141
5.0
290
     0
  0
SCALE
  5
14D
102
{ACAD_REACTORS
330
148
102
}
330
148
100
AcDbScale
 70
     0
300
1:8
140
1.0
141
8.0
290
     0
  0
SCALE
  5
14E
102
{ACAD_REACTORS
330
148
102
}
330
148
100
AcDbScale
 70
     0
300
1:10
140
1.0
141
10.0
290
     0
  0
SCALE
  5
14F
102
{ACAD_REACTORS
330
148
102
}
330
148
100
AcDbScale
 70
     0
300
1:16
140
1.0
141
16.0
290
     0
  0
SCALE
  5
150
102
{ACAD_REACTORS
330
148
102
}
330
148
100
AcDbScale
 70
     0
300
1:20
140
1.0
141
20.0
290
     0
  0
SCALE
  5
151
102
{ACAD_REACTORS
330
148
102
}
330
148
100
AcDbScale
 70
     0
300
1:30
140
1.0
141
30.0
290
     0
  0
SCALE
  5
152
102
{ACAD_REACTORS
330
148
102
}
330
148
100
AcDbScale
 70
     0
300
1:40
140
1.0
141
40.0
290
     0
  0
SCALE
  5
153
102
{ACAD_REACTORS
330
148
102
}
330
148
100
AcDbScale
 70
     0
300
1:50
140
1.0
141
50.0
290
     0
  0
SCALE
  5
154
102
{ACAD_REACTORS
330
148
102
}
330
148
100
AcDbScale
 70
     0
300
1:100
140
1.0
141
100.0
290
     0
  0
SCALE
  5
155
102
{ACAD_REACTORS
330
148
102
}
330
148
100
AcDbScale
 70
     0
300
2:1
140
2.0
141
1.0
290
     0
  0
SCALE
  5
156
102
{ACAD_REACTORS
330
148
102
}
330
148
100
AcDbScale
 70
     0
300
4:1
140
4.0
141
1.0
290
     0
  0
SCALE
  5
157
102
{ACAD_REACTORS
330
148
102
}
330
148
100
AcDbScale
 70
     0
300
8:1
140
8.0
141
1.0
290
     0
  0
SCALE
  5
158
102
{ACAD_REACTORS
330
148
102
}
330
148
100
AcDbScale
 70
     0
300
10:1
140
10.0
141
1.0
290
     0
  0
SCALE
  5
159
102
{ACAD_REACTORS
330
148
102
}
330
148
100
AcDbScale
 70
     0
300
100:1
140
100.0
141
1.0
290
     0
  0
SCALE
  5
15A
102
{ACAD_REACTORS
330
148
102
}
330
148
100
AcDbScale
 70
     0
300
1/128" = 1'-0"
140
0.0078125
141
12.0
290
     0
  0
SCALE
  5
15B
102
{ACAD_REACTORS
330
148
102
}
330
148
100
AcDbScale
 70
     0
300
1/64" = 1'-0"
140
0.015625
141
12.0
290
     0
  0
SCALE
  5
15C
102
{ACAD_REACTORS
330
148
102
}
330
148
100
AcDbScale
 70
     0
300
1/32" = 1'-0"
140
0.03125
141
12.0
290
     0
  0
SCALE
  5
15D
102
{ACAD_REACTORS
330
148
102
}
330
148
100
AcDbScale
 70
     0
300
1/16" = 1'-0"
140
0.0625
141
12.0
290
     0
  0
SCALE
  5
15E
102
{ACAD_REACTORS
330
148
102
}
330
148
100
AcDbScale
 70
     0
300
3/32" = 1'-0"
140
0.09375
141
12.0
290
     0
  0
SCALE
  5
15F
102
{ACAD_REACTORS
330
148
102
}
330
148
100
AcDbScale
 70
     0
300
1/8" = 1'-0"
140
0.125
141
12.0
290
     0
  0
SCALE
  5
160
102
{ACAD_REACTORS
330
148
102
}
330
148
100
AcDbScale
 70
     0
300
3/16" = 1'-0"
140
0.1875
141
12.0
290
     0
  0
SCALE
  5
161
102
{ACAD_REACTORS
330
148
102
}
330
148
100
AcDbScale
 70
     0
300
1/4" = 1'-0"
140
0.25
141
12.0
290
     0
  0
SCALE
  5
162
102
{ACAD_REACTORS
330
148
102
}
330
148
100
AcDbScale
 70
     0
300
3/8" = 1'-0"
140
0.375
141
12.0
290
     0
  0
SCALE
  5
163
102
{ACAD_REACTORS
330
148
102
}
330
148
100
AcDbScale
 70
     0
300
1/2" = 1'-0"
140
0.5
141
12.0
290
     0
  0
SCALE
  5
164
102
{ACAD_REACTORS
330
148
102
}
330
148
100
AcDbScale
 70
     0
300
3/4" = 1'-0"
140
0.75
141
12.0
290
     0
  0
SCALE
  5
165
102
{ACAD_REACTORS
330
148
102
}
330
148
100
AcDbScale
 70
     0
300
1" = 1'-0"
140
1.0
141
12.0
290
     0
  0
SCALE
  5
166
102
{ACAD_REACTORS
330
148
102
}
330
148
100
AcDbScale
 70
     0
300
1-1/2" = 1'-0"
140
1.5
141
12.0
290
     0
  0
SCALE
  5
167
102
{ACAD_REACTORS
330
148
102
}
330
148
100
AcDbScale
 70
     0
300
3" = 1'-0"
140
3.0
141
12.0
290
     0
  0
SCALE
  5
168
102
{ACAD_REACTORS
330
148
102
}
330
148
100
AcDbScale
 70
     0
300
6" = 1'-0"
140
6.0
141
12.0
290
     0
  0
SCALE
  5
169
102
{ACAD_REACTORS
330
148
102
}
330
148
100
AcDbScale
 70
     0
300
1'-0" = 1'-0"
140
12.0
141
12.0
290
     0
  0
TABLESTYLE
  5
13C
102
{ACAD_XDICTIONARY
360
1AB
102
}
102
{ACAD_REACTORS
330
13B
102
}
330
13B
100
AcDbTableStyle
  3
Standard
 70
     0
 71
     0
 40
0.06
 41
0.06
280
     0
281
     0
  7
Standard
140
0.18
170
     2
 62
     0
 63
     7
283
     0
274
    -2
284
     1
 64
     0
275
    -2
285
     1
 65
     0
276
    -2
286
     1
 66
     0
277
    -2
287
     1
 67
     0
278
    -2
288
     1
 68
     0
279
    -2
289
     1
 69
     0
  7
Standard
140
0.25
170
     5
 62
     0
 63
     7
283
     0
274
    -2
284
     1
 64
     0
275
    -2
285
     1
 65
     0
276
    -2
286
     1
 66
     0
277
    -2
287
     1
 67
     0
278
    -2
288
     1
 68
     0
279
    -2
289
     1
 69
     0
  7
Standard
140
0.18
170
     5
 62
     0
 63
     7
283
     0
274
    -2
284
     1
 64
     0
275
    -2
285
     1
 65
     0
276
    -2
286
     1
 66
     0
277
    -2
287
     1
 67
     0
278
    -2
288
     1
 68
     0
279
    -2
289
     1
 69
     0
  0
VISUALSTYLE
  5
12F
102
{ACAD_REACTORS
330
129
102
}
330
129
100
AcDbVisualStyle
  2
2dWireframe
 70
     4
 71
     0
 72
     2
 73
     0
 90
        0
 40
-0.6
 41
-30.0
 62
     5
 63
     7
421
 16777215
 74
     1
 91
        4
 64
     7
 65
   257
 75
     1
175
     1
 42
1.0
 92
        0
 66
   257
 43
1.0
 76
     1
 77
     6
 78
     2
 67
     7
 79
     5
170
     0
171
     0
290
     0
174
     0
 93
        1
 44
0.0
173
     0
291
     0
 45
0.0
1001
ACAD
1000
AcDbSavedByObjectVersion
1070
     0
  0
VISUALSTYLE
  5
131
102
{ACAD_REACTORS
330
129
102
}
330
129
100
AcDbVisualStyle
  2
3D Hidden
 70
     6
 71
     1
 72
     2
 73
     2
 90
        0
 40
-0.6
 41
-30.0
 62
     5
 63
     7
421
 16777215
 74
     2
 91
        2
 64
     7
 65
   257
 75
     2
175
     1
 42
40.0
 92
        0
 66
   257
 43
1.0
 76
     1
 77
     6
 78
     2
 67
     7
 79
     3
170
     0
171
     0
290
     0
174
     0
 93
        1
 44
0.0
173
     0
291
     0
 45
0.0
1001
ACAD
1000
AcDbSavedByObjectVersion
1070
     0
  0
VISUALSTYLE
  5
130
102
{ACAD_REACTORS
330
129
102
}
330
129
100
AcDbVisualStyle
  2
3dWireframe
 70
     5
 71
     0
 72
     2
 73
     0
 90
        0
 40
-0.6
 41
-30.0
 62
     5
 63
     7
421
 16777215
 74
     1
 91
        4
 64
     7
 65
   257
 75
     1
175
     1
 42
1.0
 92
        0
 66
   257
 43
1.0
 76
     1
 77
     6
 78
     2
 67
     7
 79
     5
170
     0
171
     0
290
     0
174
     0
 93
        1
 44
0.0
173
     0
291
     0
 45
0.0
1001
ACAD
1000
AcDbSavedByObjectVersion
1070
     0
  0
VISUALSTYLE
  5
12E
102
{ACAD_REACTORS
330
129
102
}
330
129
100
AcDbVisualStyle
  2
Basic
 70
     7
 71
     1
 72
     0
 73
     1
 90
        0
 40
-0.6
 41
-30.0
 62
     5
 63
     7
421
 16777215
 74
     0
 91
        4
 64
     7
 65
   257
 75
     1
175
     1
 42
1.0
 92
        8
 66
     7
 43
1.0
 76
     1
 77
     6
 78
     2
 67
     7
 79
     5
170
     0
171
     0
290
     0
174
     0
 93
        1
 44
0.0
173
     0
291
     1
 45
0.0
1001
ACAD
1000
AcDbSavedByObjectVersion
1070
     0
  0
VISUALSTYLE
  5
135
102
{ACAD_REACTORS
330
129
102
}
330
129
100
AcDbVisualStyle
  2
Brighten
 70
    12
 71
     2
 72
     2
 73
     0
 90
        0
 40
-0.6
 41
-30.0
 62
     5
 63
     7
421
 16777215
 74
     1
 91
        4
 64
     7
 65
   257
 75
     1
175
     1
 42
1.0
 92
        8
 66
     7
 43
1.0
 76
     1
 77
     6
 78
     2
 67
     7
 79
     5
170
     0
171
     0
290
     0
174
     0
 93
        1
 44
50.0
173
     0
291
     1
 45
0.0
1001
ACAD
1000
AcDbSavedByObjectVersion
1070
     0
  0
VISUALSTYLE
  5
139
102
{ACAD_REACTORS
330
129
102
}
330
129
100
AcDbVisualStyle
  2
ColorChange
 70
    16
 71
     2
 72
     2
 73
     3
 90
        0
 40
-0.6
 41
-30.0
 62
     5
 63
     8
421
  8421504
 74
     1
 91
        4
 64
     7
 65
   257
 75
     1
175
     1
 42
1.0
 92
        8
 66
     8
424
  8421504
 43
1.0
 76
     1
 77
     6
 78
     2
 67
     7
 79
     5
170
     0
171
     0
290
     0
174
     0
 93
        1
 44
0.0
173
     0
291
     1
 45
0.0
1001
ACAD
1000
AcDbSavedByObjectVersion
1070
     0
  0
VISUALSTYLE
  5
132
102
{ACAD_REACTORS
330
129
102
}
330
129
100
AcDbVisualStyle
  2
Conceptual
 70
     9
 71
     3
 72
     2
 73
     0
 90
        0
 40
-0.6
 41
-30.0
 62
     5
 63
     7
421
 16777215
 74
     2
 91
        2
 64
     7
 65
   257
 75
     1
175
     1
 42
40.0
 92
        8
 66
     7
 43
1.0
 76
     1
 77
     6
 78
     2
 67
     7
 79
     3
170
     0
171
     0
290
     0
174
     0
 93
        1
 44
0.0
173
     0
291
     0
 45
0.0
1001
ACAD
1000
AcDbSavedByObjectVersion
1070
     0
  0
VISUALSTYLE
  5
134
102
{ACAD_REACTORS
330
129
102
}
330
129
100
AcDbVisualStyle
  2
Dim
 70
    11
 71
     2
 72
     2
 73
     0
 90
        0
 40
-0.6
 41
-30.0
 62
     5
 63
     7
421
 16777215
 74
     1
 91
        4
 64
     7
 65
   257
 75
     1
175
     1
 42
1.0
 92
        8
 66
     7
 43
1.0
 76
     1
 77
     6
 78
     2
 67
     7
 79
     5
170
     0
171
     0
290
     0
174
     0
 93
        1
 44
-50.0
173
     0
291
     1
 45
0.0
1001
ACAD
1000
AcDbSavedByObjectVersion
1070
     0
  0
VISUALSTYLE
  5
138
102
{ACAD_REACTORS
330
129
102
}
330
129
100
AcDbVisualStyle
  2
Facepattern
 70
    15
 71
     2
 72
     2
 73
     0
 90
        0
 40
-0.6
 41
-30.0
 62
     5
 63
     7
421
 16777215
 74
     1
 91
        4
 64
     7
 65
   257
 75
     1
175
     1
 42
1.0
 92
        8
 66
     7
 43
1.0
 76
     1
 77
     6
 78
     2
 67
     7
 79
     5
170
     0
171
     0
290
     0
174
     0
 93
        1
 44
0.0
173
     0
291
     1
 45
0.0
1001
ACAD
1000
AcDbSavedByObjectVersion
1070
     0
  0
VISUALSTYLE
  5
12A
102
{ACAD_REACTORS
330
129
102
}
330
129
100
AcDbVisualStyle
  2
Flat
 70
     0
 71
     2
 72
     1
 73
     1
 90
        2
 40
-0.6
 41
30.0
 62
     5
 63
     7
421
 16777215
 74
     0
 91
        4
 64
     7
 65
   257
 75
     1
175
     1
 42
1.0
 92
        8
 66
     7
 43
1.0
 76
     1
 77
     6
 78
     2
 67
     7
 79
     5
170
     0
171
     0
290
     0
174
     0
 93
       13
 44
0.0
173
     0
291
     1
 45
0.0
1001
ACAD
1000
AcDbSavedByObjectVersion
1070
     0
  0
VISUALSTYLE
  5
12B
102
{ACAD_REACTORS
330
129
102
}
330
129
100
AcDbVisualStyle
  2
FlatWithEdges
 70
     1
 71
     2
 72
     1
 73
     1
 90
        2
 40
-0.6
 41
30.0
 62
     5
 63
     7
421
 16777215
 74
     1
 91
        4
 64
     7
 65
   257
 75
     1
175
     1
 42
1.0
 92
        0
 66
   257
 43
1.0
 76
     1
 77
     6
 78
     2
 67
     7
 79
     5
170
     0
171
     0
290
     0
174
     0
 93
       13
 44
0.0
173
     0
291
     1
 45
0.0
1001
ACAD
1000
AcDbSavedByObjectVersion
1070
     0
  0
VISUALSTYLE
  5
12C
102
{ACAD_REACTORS
330
129
102
}
330
129
100
AcDbVisualStyle
  2
Gouraud
 70
     2
 71
     2
 72
     2
 73
     1
 90
        2
 40
-0.6
 41
30.0
 62
     5
 63
     7
421
 16777215
 74
     0
 91
        4
 64
     7
 65
   257
 75
     1
175
     1
 42
1.0
 92
        0
 66
     7
 43
1.0
 76
     1
 77
     6
 78
     2
 67
     7
 79
     5
170
     0
171
     0
290
     0
174
     0
 93
       13
 44
0.0
173
     0
291
     1
 45
0.0
1001
ACAD
1000
AcDbSavedByObjectVersion
1070
     0
  0
VISUALSTYLE
  5
12D
102
{ACAD_REACTORS
330
129
102
}
330
129
100
AcDbVisualStyle
  2
GouraudWithEdges
 70
     3
 71
     2
 72
     2
 73
     1
 90
        2
 40
-0.6
 41
30.0
 62
     5
 63
     7
421
 16777215
 74
     1
 91
        4
 64
     7
 65
   257
 75
     1
175
     1
 42
1.0
 92
        0
 66
   257
 43
1.0
 76
     1
 77
     6
 78
     2
 67
     7
 79
     5
170
     0
171
     0
290
     0
174
     0
 93
       13
 44
0.0
173
     0
291
     1
 45
0.0
1001
ACAD
1000
AcDbSavedByObjectVersion
1070
     0
  0
VISUALSTYLE
  5
137
102
{ACAD_REACTORS
330
129
102
}
330
129
100
AcDbVisualStyle
  2
Linepattern
 70
    14
 71
     2
 72
     2
 73
     0
 90
        0
 40
-0.6
 41
-30.0
 62
     5
 63
     7
421
 16777215
 74
     1
 91
        4
 64
     7
 65
   257
 75
     7
175
     7
 42
1.0
 92
        8
 66
     7
 43
1.0
 76
     1
 77
     6
 78
     2
 67
     7
 79
     5
170
     0
171
     0
290
     0
174
     0
 93
        1
 44
0.0
173
     0
291
     1
 45
0.0
1001
ACAD
1000
AcDbSavedByObjectVersion
1070
     0
  0
VISUALSTYLE
  5
133
102
{ACAD_REACTORS
330
129
102
}
330
129
100
AcDbVisualStyle
  2
Realistic
 70
     8
 71
     2
 72
     2
 73
     0
 90
        0
 40
-0.6
 41
-30.0
 62
     5
 63
     7
421
 16777215
 74
     1
 91
        0
 64
     7
 65
   257
 75
     1
175
     1
 42
1.0
 92
        8
 66
     8
424
  7895160
 43
1.0
 76
     1
 77
     6
 78
     2
 67
     7
 79
     5
170
     0
171
     0
290
     0
174
     0
 93
       13
 44
0.0
173
     0
291
     0
 45
0.0
1001
ACAD
1000
AcDbSavedByObjectVersion
1070
     0
  0
VISUALSTYLE
  5
136
102
{ACAD_REACTORS
330
129
102
}
330
129
100
AcDbVisualStyle
  2
Thicken
 70
    13
 71
     2
 72
     2
 73
     0
 90
        0
 40
-0.6
 41
-30.0
 62
     5
 63
     7
421
 16777215
 74
     1
 91
        4
 64
     7
 65
   257
 75
     1
175
     1
 42
1.0
 92
       12
 66
     7
 43
1.0
 76
     1
 77
     6
 78
     2
 67
     7
 79
     5
170
     0
171
     0
290
     0
174
     0
 93
        1
 44
0.0
173
     0
291
     1
 45
0.0
1001
ACAD
1000
AcDbSavedByObjectVersion
1070
     0
  0
DICTIONARYVAR
  5
1AA
102
{ACAD_REACTORS
330
145
102
}
330
145
100
DictionaryVariables
280
     0
  1
1:1
  0
DICTIONARYVAR
  5
1A9
102
{ACAD_REACTORS
330
145
102
}
330
145
100
DictionaryVariables
280
     0
  1
STANDARD
  0
DICTIONARYVAR
  5
146
102
{ACAD_REACTORS
330
145
102
}
330
145
100
DictionaryVariables
280
     0
  1
STANDARD
  0
DICTIONARY
  5
1B0
330
127
100
AcDbDictionary
280
     1
281
     1
  3
ACAD_XREC_ROUNDTRIP
360
1B1
  0
DICTIONARY
  5
1AE
330
126
100
AcDbDictionary
280
     1
281
     1
  3
ACAD_XREC_ROUNDTRIP
360
1AF
  0
DICTIONARY
  5
1B2
330
128
100
AcDbDictionary
280
     1
281
     1
  3
ACAD_XREC_ROUNDTRIP
360
1B3
  0
DICTIONARY
  5
1AB
330
13C
100
AcDbDictionary
280
     1
281
     1
  3
ACAD_ROUNDTRIP_2008_TABLESTYLE_CELLSTYLEMAP
360
1AC
  3
ACAD_XREC_ROUNDTRIP
360
1B4
  0
XRECORD
  5
1B1
102
{ACAD_REACTORS
330
1B0
102
}
330
1B0
100
AcDbXrecord
280
     1
102
MATERIAL
148
0.0
149
0.0
149
0.0
 93
        0
 94
       63
282
     0
 72
     1
 77
     1
171
     1
175
     1
179
     1
273
     0
  0
XRECORD
  5
1AF
102
{ACAD_REACTORS
330
1AE
102
}
330
1AE
100
AcDbXrecord
280
     1
102
MATERIAL
148
0.0
149
0.0
149
0.0
 93
        0
 94
       63
282
     0
 72
     1
 77
     1
171
     1
175
     1
179
     1
273
     0
  0
XRECORD
  5
1B3
102
{ACAD_REACTORS
330
1B2
102
}
330
1B2
100
AcDbXrecord
280
     1
102
MATERIAL
148
0.0
149
0.0
149
0.0
 93
        0
 94
       63
282
     0
 72
     1
 77
     1
171
     1
175
     1
179
     1
273
     0
  0
CELLSTYLEMAP
  5
1AC
102
{ACAD_REACTORS
330
1AB
102
}
330
1AB
100
AcDbCellStyleMap
 90
        3
300
CELLSTYLE
  1
TABLEFORMAT_BEGIN
 90
        5
170
     1
 91
        0
 92
    32768
 62
   257
 93
        1
300
CONTENTFORMAT
  1
CONTENTFORMAT_BEGIN
 90
        0
 91
        0
 92
      512
 93
        0
300

 40
0.0
140
1.0
 94
        5
 62
     0
340
17
144
0.25
309
CONTENTFORMAT_END
171
     0
 94
        6
 95
        1
302
GRIDFORMAT
  1
GRIDFORMAT_BEGIN
 90
        0
 91
        1
 62
     0
 92
       -2
340
0
 93
        0
 40
0.045
309
GRIDFORMAT_END
 95
        2
302
GRIDFORMAT
  1
GRIDFORMAT_BEGIN
 90
        0
 91
        1
 62
     0
 92
       -2
340
0
 93
        0
 40
0.045
309
GRIDFORMAT_END
 95
        4
302
GRIDFORMAT
  1
GRIDFORMAT_BEGIN
 90
        0
 91
        1
 62
     0
 92
       -2
340
0
 93
        0
 40
0.045
309
GRIDFORMAT_END
 95
        8
302
GRIDFORMAT
  1
GRIDFORMAT_BEGIN
 90
        0
 91
        1
 62
     0
 92
       -2
340
0
 93
        0
 40
0.045
309
GRIDFORMAT_END
 95
       16
302
GRIDFORMAT
  1
GRIDFORMAT_BEGIN
 90
        0
 91
        1
 62
     0
 92
       -2
340
0
 93
        0
 40
0.045
309
GRIDFORMAT_END
 95
       32
302
GRIDFORMAT
  1
GRIDFORMAT_BEGIN
 90
        0
 91
        1
 62
     0
 92
       -2
340
0
 93
        0
 40
0.045
309
GRIDFORMAT_END
309
TABLEFORMAT_END
  1
CELLSTYLE_BEGIN
 90
        1
 91
        1
300
_TITLE
309
CELLSTYLE_END
300
CELLSTYLE
  1
TABLEFORMAT_BEGIN
 90
        5
170
     1
 91
        0
 92
        0
 62
   257
 93
        1
300
CONTENTFORMAT
  1
CONTENTFORMAT_BEGIN
 90
        0
 91
        0
 92
      512
 93
        0
300

 40
0.0
140
1.0
 94
        5
 62
     0
340
17
144
0.18
309
CONTENTFORMAT_END
171
     0
 94
        6
 95
        1
302
GRIDFORMAT
  1
GRIDFORMAT_BEGIN
 90
        0
 91
        1
 62
     0
 92
       -2
340
0
 93
        0
 40
0.045
309
GRIDFORMAT_END
 95
        2
302
GRIDFORMAT
  1
GRIDFORMAT_BEGIN
 90
        0
 91
        1
 62
     0
 92
       -2
340
0
 93
        0
 40
0.045
309
GRIDFORMAT_END
 95
        4
302
GRIDFORMAT
  1
GRIDFORMAT_BEGIN
 90
        0
 91
        1
 62
     0
 92
       -2
340
0
 93
        0
 40
0.045
309
GRIDFORMAT_END
 95
        8
302
GRIDFORMAT
  1
GRIDFORMAT_BEGIN
 90
        0
 91
        1
 62
     0
 92
       -2
340
0
 93
        0
 40
0.045
309
GRIDFORMAT_END
 95
       16
302
GRIDFORMAT
  1
GRIDFORMAT_BEGIN
 90
        0
 91
        1
 62
     0
 92
       -2
340
0
 93
        0
 40
0.045
309
GRIDFORMAT_END
 95
       32
302
GRIDFORMAT
  1
GRIDFORMAT_BEGIN
 90
        0
 91
        1
 62
     0
 92
       -2
340
0
 93
        0
 40
0.045
309
GRIDFORMAT_END
309
TABLEFORMAT_END
  1
CELLSTYLE_BEGIN
 90
        2
 91
        1
300
_HEADER
309
CELLSTYLE_END
300
CELLSTYLE
  1
TABLEFORMAT_BEGIN
 90
        5
170
     1
 91
        0
 92
        0
 62
   257
 93
        1
300
CONTENTFORMAT
  1
CONTENTFORMAT_BEGIN
 90
        0
 91
        0
 92
      512
 93
        0
300

 40
0.0
140
1.0
 94
        2
 62
     0
340
17
144
0.18
309
CONTENTFORMAT_END
171
     0
 94
        6
 95
        1
302
GRIDFORMAT
  1
GRIDFORMAT_BEGIN
 90
        0
 91
        1
 62
     0
 92
       -2
340
0
 93
        0
 40
0.045
309
GRIDFORMAT_END
 95
        2
302
GRIDFORMAT
  1
GRIDFORMAT_BEGIN
 90
        0
 91
        1
 62
     0
 92
       -2
340
0
 93
        0
 40
0.045
309
GRIDFORMAT_END
 95
        4
302
GRIDFORMAT
  1
GRIDFORMAT_BEGIN
 90
        0
 91
        1
 62
     0
 92
       -2
340
0
 93
        0
 40
0.045
309
GRIDFORMAT_END
 95
        8
302
GRIDFORMAT
  1
GRIDFORMAT_BEGIN
 90
        0
 91
        1
 62
     0
 92
       -2
340
0
 93
        0
 40
0.045
309
GRIDFORMAT_END
 95
       16
302
GRIDFORMAT
  1
GRIDFORMAT_BEGIN
 90
        0
 91
        1
 62
     0
 92
       -2
340
0
 93
        0
 40
0.045
309
GRIDFORMAT_END
 95
       32
302
GRIDFORMAT
  1
GRIDFORMAT_BEGIN
 90
        0
 91
        1
 62
     0
 92
       -2
340
0
 93
        0
 40
0.045
309
GRIDFORMAT_END
309
TABLEFORMAT_END
  1
CELLSTYLE_BEGIN
 90
        3
 91
        2
300
_DATA
309
CELLSTYLE_END
  0
XRECORD
  5
1B4
102
{ACAD_REACTORS
330
1AB
102
}
330
1AB
100
AcDbXrecord
280
     1
102
ACAD_ROUNDTRIP_PRE2007_TABLESTYLE
 90
      512
 91
        0
  1

 92
      512
 93
        0
  2

 94
      512
 95
        0
  3

  0
ENDSEC
  0
EOF
