  0
SECTION
  2
HEADER
  9
$ACADVER
  1
AC1018
  9
$ACADMAINTVER
 70
   104
  9
$DWGCODEPAGE
  3
ANSI_1252
  9
$LASTSAVEDBY
  1
EARL
  9
$INSBASE
 10
0.0
 20
0.0
 30
0.0
  9
$EXTMIN
 10
-1.972318410873413
 20
-0.1910030041906176
 30
0.0
  9
$EXTMAX
 10
2.155033214550659
 20
1.634551921855511
 30
0.0
  9
$LIMMIN
 10
0.0
 20
0.0
  9
$LIMMAX
 10
0.0
 20
0.0
  9
$ORTHOMODE
 70
     0
  9
$REGENMODE
 70
     1
  9
$FILLMODE
 70
     1
  9
$QTEXTMODE
 70
     0
  9
$MIRRTEXT
 70
     1
  9
$LTSCALE
 40
1.0
  9
$ATTMODE
 70
     1
  9
$TEXTSIZE
 40
0.0
  9
$TRACEWID
 40
0.05
  9
$TEXTSTYLE
  7
Standard
  9
$CLAYER
  8
0
  9
$CELTYPE
  6
Continuous
  9
$CECOLOR
 62
   256
  9
$CELTSCALE
 40
1.0
  9
$DISPSILH
 70
     0
  9
$DIMSCALE
 40
1.0
  9
$DIMASZ
 40
0.18
  9
$DIMEXO
 40
0.0625
  9
$DIMDLI
 40
0.38
  9
$DIMRND
 40
0.0
  9
$DIMDLE
 40
0.0
  9
$DIMEXE
 40
0.18
  9
$DIMTP
 40
0.0
  9
$DIMTM
 40
0.0
  9
$DIMTXT
 40
0.18
  9
$DIMCEN
 40
0.09
  9
$DIMTSZ
 40
0.0
  9
$DIMTOL
 70
     0
  9
$DIMLIM
 70
     0
  9
$DIMTIH
 70
     1
  9
$DIMTOH
 70
     1
  9
$DIMSE1
 70
     0
  9
$DIMSE2
 70
     0
  9
$DIMTAD
 70
     0
  9
$DIMZIN
 70
     0
  9
$DIMBLK
  1

  9
$DIMASO
 70
     1
  9
$DIMSHO
 70
     1
  9
$DIMPOST
  1

  9
$DIMAPOST
  1

  9
$DIMALT
 70
     0
  9
$DIMALTD
 70
     2
  9
$DIMALTF
 40
25.4
  9
$DIMLFAC
 40
1.0
  9
$DIMTOFL
 70
     0
  9
$DIMTVP
 40
0.0
  9
$DIMTIX
 70
     0
  9
$DIMSOXD
 70
     0
  9
$DIMSAH
 70
     0
  9
$DIMBLK1
  1

  9
$DIMBLK2
  1

  9
$DIMSTYLE
  2
Standard
  9
$DIMCLRD
 70
     0
  9
$DIMCLRE
 70
     0
  9
$DIMCLRT
 70
     0
  9
$DIMTFAC
 40
1.0
  9
$DIMGAP
 40
0.09
  9
$DIMJUST
 70
     0
  9
$DIMSD1
 70
     0
  9
$DIMSD2
 70
     0
  9
$DIMTOLJ
 70
     1
  9
$DIMTZIN
 70
     0
  9
$DIMALTZ
 70
     0
  9
$DIMALTTZ
 70
     0
  9
$DIMUPT
 70
     0
  9
$DIMDEC
 70
     4
  9
$DIMTDEC
 70
     4
  9
$DIMALTU
 70
     2
  9
$DIMALTTD
 70
     2
  9
$DIMTXSTY
  7
Standard
  9
$DIMAUNIT
 70
     0
  9
$DIMADEC
 70
     0
  9
$DIMALTRND
 40
0.0
  9
$DIMAZIN
 70
     0
  9
$DIMDSEP
 70
    46
  9
$DIMATFIT
 70
     0
  9
$DIMFRAC
 70
     0
  9
$DIMLDRBLK
  1

  9
$DIMLUNIT
 70
     2
  9
$DIMLWD
 70
    -2
  9
$DIMLWE
 70
    -2
  9
$DIMTMOVE
 70
     0
  9
$LUNITS
 70
     2
  9
$LUPREC
 70
     4
  9
$SKETCHINC
 40
0.1
  9
$FILLETRAD
 40
0.0
  9
$AUNITS
 70
     0
  9
$AUPREC
 70
     0
  9
$MENU
  1
acad
  9
$ELEVATION
 40
0.0
  9
$PELEVATION
 40
0.0
  9
$THICKNESS
 40
0.0
  9
$LIMCHECK
 70
     0
  9
$CHAMFERA
 40
0.0
  9
$CHAMFERB
 40
0.0
  9
$CHAMFERC
 40
0.0
  9
$CHAMFERD
 40
0.0
  9
$SKPOLY
 70
     0
  9
$TDCREATE
 40
2455006.763784723
  9
$TDUCREATE
 40
2455006.930451389
  9
$TDUPDATE
 40
2455103.877602894
  9
$TDUUPDATE
 40
2455104.044269560
  9
$TDINDWG
 40
0.0011880903
  9
$TDUSRTIMER
 40
0.0011880903
  9
$USRTIMER
 70
     1
  9
$ANGBASE
 50
0.0
  9
$ANGDIR
 70
     0
  9
$PDMODE
 70
     0
  9
$PDSIZE
 40
0.0
  9
$PLINEWID
 40
0.0
  9
$SPLFRAME
 70
     0
  9
$SPLINETYPE
 70
     6
  9
$SPLINESEGS
 70
     8
  9
$HANDSEED
  5
1FD
  9
$SURFTAB1
 70
     6
  9
$SURFTAB2
 70
     6
  9
$SURFTYPE
 70
     6
  9
$SURFU
 70
     6
  9
$SURFV
 70
     6
  9
$UCSBASE
  2

  9
$UCSNAME
  2

  9
$UCSORG
 10
0.0
 20
0.0
 30
0.0
  9
$UCSXDIR
 10
1.0
 20
0.0
 30
0.0
  9
$UCSYDIR
 10
0.0
 20
1.0
 30
0.0
  9
$UCSORTHOREF
  2

  9
$UCSORTHOVIEW
 70
     0
  9
$UCSORGTOP
 10
0.0
 20
0.0
 30
0.0
  9
$UCSORGBOTTOM
 10
0.0
 20
0.0
 30
0.0
  9
$UCSORGLEFT
 10
0.0
 20
0.0
 30
0.0
  9
$UCSORGRIGHT
 10
0.0
 20
0.0
 30
0.0
  9
$UCSORGFRONT
 10
0.0
 20
0.0
 30
0.0
  9
$UCSORGBACK
 10
0.0
 20
0.0
 30
0.0
  9
$PUCSBASE
  2

  9
$PUCSNAME
  2

  9
$PUCSORG
 10
0.0
 20
0.0
 30
0.0
  9
$PUCSXDIR
 10
1.0
 20
0.0
 30
0.0
  9
$PUCSYDIR
 10
0.0
 20
1.0
 30
0.0
  9
$PUCSORTHOREF
  2

  9
$PUCSORTHOVIEW
 70
     0
  9
$PUCSORGTOP
 10
0.0
 20
0.0
 30
0.0
  9
$PUCSORGBOTTOM
 10
0.0
 20
0.0
 30
0.0
  9
$PUCSORGLEFT
 10
0.0
 20
0.0
 30
0.0
  9
$PUCSORGRIGHT
 10
0.0
 20
0.0
 30
0.0
  9
$PUCSORGFRONT
 10
0.0
 20
0.0
 30
0.0
  9
$PUCSORGBACK
 10
0.0
 20
0.0
 30
0.0
  9
$USERI1
 70
     0
  9
$USERI2
 70
     0
  9
$USERI3
 70
     0
  9
$USERI4
 70
     0
  9
$USERI5
 70
     0
  9
$USERR1
 40
0.0
  9
$USERR2
 40
0.0
  9
$USERR3
 40
0.0
  9
$USERR4
 40
0.0
  9
$USERR5
 40
0.0
  9
$WORLDVIEW
 70
     1
  9
$SHADEDGE
 70
     3
  9
$SHADEDIF
 70
    70
  9
$TILEMODE
 70
     0
  9
$MAXACTVP
 70
    16
  9
$PINSBASE
 10
0.0
 20
0.0
 30
0.0
  9
$PLIMCHECK
 70
     0
  9
$PEXTMIN
 10
-0.0556788165195279
 20
0.2463684249560032
 30
-0.0015258207003583
  9
$PEXTMAX
 10
10.34074429551085
 20
8.322768952978108
 30
0.0000000349246037
  9
$PLIMMIN
 10
-0.3306119115190196
 20
0.0611573093483306
  9
$PLIMMAX
 10
10.66938784818509
 20
8.561157069052439
  9
$UNITMODE
 70
     0
  9
$VISRETAIN
 70
     0
  9
$PLINEGEN
 70
     1
  9
$PSLTSCALE
 70
     0
  9
$TREEDEPTH
 70
  3020
  9
$CMLSTYLE
  2
Standard
  9
$CMLJUST
 70
     0
  9
$CMLSCALE
 40
1.0
  9
$PROXYGRAPHICS
 70
     0
  9
$MEASUREMENT
 70
     0
  9
$CELWEIGHT
370
     0
  9
$ENDCAPS
280
     0
  9
$JOINSTYLE
280
     0
  9
$LWDISPLAY
290
     0
  9
$INSUNITS
 70
     0
  9
$HYPERLINKBASE
  1

  9
$STYLESHEET
  1

  9
$XEDIT
290
     1
  9
$CEPSNTYPE
380
     0
  9
$PSTYLEMODE
290
     1
  9
$FINGERPRINTGUID
  2

  9
$VERSIONGUID
  2
{C7CD82D8-852D-4AED-97B6-2D2ECE113543}
  9
$EXTNAMES
290
     1
  9
$PSVPSCALE
 40
0.0
  9
$OLESTARTUP
290
     0
  9
$SORTENTS
280
   127
  9
$INDEXCTL
280
     0
  9
$HIDETEXT
280
     0
  9
$XCLIPFRAME
290
     0
  9
$HALOGAP
280
     0
  9
$OBSCOLOR
 70
   257
  9
$OBSLTYPE
280
     0
  9
$INTERSECTIONDISPLAY
280
     0
  9
$INTERSECTIONCOLOR
 70
   257
  9
$DIMASSOC
280
     1
  9
$PROJECTNAME
  1

  0
ENDSEC
  0
SECTION
  2
CLASSES
  0
CLASS
  1
IMAGE
  2
AcDbRasterImage
  3
ISM
 90
     2175
 91
        0
280
     0
281
     1
  0
CLASS
  1
DICTIONARYVAR
  2
AcDbDictionaryVar
  3
ObjectDBX Classes
 90
        0
 91
        5
280
     0
281
     0
  0
CLASS
  1
RASTERVARIABLES
  2
AcDbRasterVariables
  3
ISM
 90
        0
 91
        0
280
     0
281
     0
  0
CLASS
  1
IMAGEDEF
  2
AcDbRasterImageDef
  3
ISM
 90
        0
 91
        0
280
     0
281
     0
  0
CLASS
  1
IMAGEDEF_REACTOR
  2
AcDbRasterImageDefReactor
  3
ISM
 90
        1
 91
        0
280
     0
281
     0
  0
CLASS
  1
IDBUFFER
  2
AcDbIdBuffer
  3
ObjectDBX Classes
 90
        0
 91
        0
280
     0
281
     0
  0
CLASS
  1
SPATIAL_FILTER
  2
AcDbSpatialFilter
  3
ObjectDBX Classes
 90
        0
 91
        0
280
     0
281
     0
  0
CLASS
  1
SORTENTSTABLE
  2
AcDbSortentsTable
  3
ObjectDBX Classes
 90
        0
 91
        1
280
     0
281
     0
  0
CLASS
  1
LAYER_INDEX
  2
AcDbLayerIndex
  3
ObjectDBX Classes
 90
        0
 91
        0
280
     0
281
     0
  0
CLASS
  1
SPATIAL_INDEX
  2
AcDbSpatialIndex
  3
ObjectDBX Classes
 90
        0
 91
        0
280
     0
281
     0
  0
CLASS
  1
OBJECT_PTR
  2
CAseDLPNTableRecord
  3
"ASE-LPNTableRecord"
 90
        1
 91
        0
280
     0
281
     0
  0
CLASS
  1
PLOTSETTINGS
  2
AcDbPlotSettings
  3
ObjectDBX Classes
 90
        0
 91
        0
280
     0
281
     0
  0
CLASS
  1
ACDBDICTIONARYWDFLT
  2
AcDbDictionaryWithDefault
  3
ObjectDBX Classes
 90
        0
 91
        1
280
     0
281
     0
  0
CLASS
  1
WIPEOUT
  2
AcDbWipeout
  3
"WipeOut|Product Desc: Object Enabler for WipeOut entity                        |Company: Autodesk, Inc.                        |WEB Address: www.autodesk.com"
 90
     2175
 91
        0
280
     0
281
     1
  0
CLASS
  1
WIPEOUTVARIABLES
  2
AcDbWipeoutVariables
  3
"WipeOut|Product Desc:     WipeOut Dbx Application|Company:          Autodesk, Inc.|WEB Address:      www.autodesk.com"
 90
        0
 91
        1
280
     0
281
     0
  0
CLASS
  1
RTEXT
  2
RText
  3
RText|AutoCAD Express Tool|expresstools@autodesk.com
 90
        0
 91
        0
280
     0
281
     1
  0
CLASS
  1
ARCALIGNEDTEXT
  2
AcDbArcAlignedText
  3
ATEXT|AutoCAD Express Tool|expresstools@autodesk.com
 90
        0
 91
        0
280
     0
281
     1
  0
CLASS
  1
MATERIAL
  2
AcDbMaterial
  3
ObjectDBX Classes
 90
     1153
 91
        3
280
     0
281
     0
  0
CLASS
  1
VISUALSTYLE
  2
AcDbVisualStyle
  3
ObjectDBX Classes
 90
     4095
 91
       16
280
     0
281
     0
  0
CLASS
  1
TABLESTYLE
  2
AcDbTableStyle
  3
ObjectDBX Classes
 90
     4095
 91
        1
280
     0
281
     0
  0
CLASS
  1
SCALE
  2
AcDbScale
  3
ObjectDBX Classes
 90
     1153
 91
       33
280
     0
281
     0
  0
CLASS
  1
MLEADERSTYLE
  2
AcDbMLeaderStyle
  3
ACDB_MLEADERSTYLE_CLASS
 90
     4095
 91
        1
280
     0
281
     0
  0
CLASS
  1
CELLSTYLEMAP
  2
AcDbCellStyleMap
  3
ObjectDBX Classes
 90
     1152
 91
        2
280
     0
281
     0
  0
ENDSEC
  0
SECTION
  2
TABLES
  0
TABLE
  2
VPORT
  5
7
330
0
100
AcDbSymbolTable
 70
     1
  0
VPORT
  5
15
330
7
100
AcDbSymbolTableRecord
100
AcDbViewportTableRecord
  2
*ACTIVE
 70
     0
 10
0.0
 20
0.0
 11
1.0
 21
1.0
 12
12.11780667605996
 22
4.579183999999999
 13
0.0
 23
0.0
 14
1.0
 24
1.0
 15
0.0
 25
0.0
 16
0.0
 26
0.0
 36
1.0
 17
0.0
 27
0.0
 37
0.0
 40
9.158369
 41
1.895442359249329
 42
50.0
 43
0.0
 44
0.0
 50
0.0
 51
0.0
 71
     0
 72
   100
 73
     1
 74
     1
 75
     0
 76
     0
 77
     0
 78
     0
281
     0
 65
     0
110
0.0
120
0.0
130
0.0
111
1.0
121
0.0
131
0.0
112
0.0
122
1.0
132
0.0
 79
     0
146
0.0
  0
ENDTAB
  0
TABLE
  2
LTYPE
  5
4
330
0
100
AcDbSymbolTable
 70
     5
  0
LTYPE
  5
11
330
4
100
AcDbSymbolTableRecord
100
AcDbLinetypeTableRecord
  2
ByBlock
 70
     0
  3

 72
    65
 73
     0
 40
0.0
  0
LTYPE
  5
12
330
4
100
AcDbSymbolTableRecord
100
AcDbLinetypeTableRecord
  2
ByLayer
 70
     0
  3

 72
    65
 73
     0
 40
0.0
  0
LTYPE
  5
13
330
4
100
AcDbSymbolTableRecord
100
AcDbLinetypeTableRecord
  2
Continuous
 70
     0
  3
Solid line
 72
    65
 73
     0
 40
0.0
  0
LTYPE
  5
24
330
4
100
AcDbSymbolTableRecord
100
AcDbLinetypeTableRecord
  2
solid
 70
     0
  3

 72
    65
 73
     0
 40
0.0
  0
LTYPE
  5
25
330
4
100
AcDbSymbolTableRecord
100
AcDbLinetypeTableRecord
  2
dashed
 70
     0
  3

 72
    65
 73
     0
 40
0.0
  0
LTYPE
  5
26
330
4
100
AcDbSymbolTableRecord
100
AcDbLinetypeTableRecord
  2
center
 70
     0
  3

 72
    65
 73
     0
 40
0.0
  0
ENDTAB
  0
TABLE
  2
LAYER
  5
2
330
0
100
AcDbSymbolTable
 70
     3
  0
LAYER
  5
14
102
{ACAD_XDICTIONARY
360
1BA
102
}
330
2
100
AcDbSymbolTableRecord
100
AcDbLayerTableRecord
  2
0
 70
     0
 62
     7
  6
Continuous
370
    -3
390
1D
  0
LAYER
  5
27
102
{ACAD_XDICTIONARY
360
1BC
102
}
330
2
100
AcDbSymbolTableRecord
100
AcDbLayerTableRecord
  2
1
 70
     0
 62
     1
  6
solid
370
    -3
390
1D
  0
LAYER
  5
12E
102
{ACAD_XDICTIONARY
360
1BE
102
}
330
2
100
AcDbSymbolTableRecord
100
AcDbLayerTableRecord
  2
0
 70
     0
 62
     1
  6
solid
370
    -3
390
1D
  0
ENDTAB
  0
TABLE
  2
STYLE
  5
3
330
0
100
AcDbSymbolTable
 70
     2
  0
STYLE
  5
17
330
3
100
AcDbSymbolTableRecord
100
AcDbTextStyleTableRecord
  2
Standard
 70
     0
 40
0.0
 41
1.0
 50
0.0
 71
     0
 42
0.0
  3
txt
  4

  0
ENDTAB
  0
TABLE
  2
VIEW
  5
5
330
0
100
AcDbSymbolTable
 70
     0
  0
ENDTAB
  0
TABLE
  2
UCS
  5
6
330
0
100
AcDbSymbolTable
 70
     0
  0
ENDTAB
  0
TABLE
  2
APPID
  5
8
330
0
100
AcDbSymbolTable
 70
     4
  0
APPID
  5
16
330
8
100
AcDbSymbolTableRecord
100
AcDbRegAppTableRecord
  2
ACAD
 70
     0
  0
APPID
  5
189
330
8
100
AcDbSymbolTableRecord
100
AcDbRegAppTableRecord
  2
ACAD_PSEXT
 70
     0
  0
APPID
  5
1B3
330
8
100
AcDbSymbolTableRecord
100
AcDbRegAppTableRecord
  2
ACAD_MLEADERVER
 70
     0
  0
APPID
  5
1D2
330
8
100
AcDbSymbolTableRecord
100
AcDbRegAppTableRecord
  2
ACAD_EXEMPT_FROM_CAD_STANDARDS
 70
     0
  0
ENDTAB
  0
TABLE
  2
DIMSTYLE
  5
9
330
0
100
AcDbSymbolTable
 70
     3
100
AcDbDimStyleTable
 71
     1
340
18
  0
DIMSTYLE
105
18
330
9
100
AcDbSymbolTableRecord
100
AcDbDimStyleTableRecord
  2
Standard
 70
     0
289
     0
340
17
  0
ENDTAB
  0
TABLE
  2
BLOCK_RECORD
  5
1
330
0
100
AcDbSymbolTable
 70
     4
  0
BLOCK_RECORD
  5
A
102
{ACAD_XDICTIONARY
360
1CF
102
}
330
1
100
AcDbSymbolTableRecord
100
AcDbBlockTableRecord
  2
*MODEL_SPACE
340
20
  0
BLOCK_RECORD
  5
B
330
1
100
AcDbSymbolTableRecord
100
AcDbBlockTableRecord
  2
*PAPER_SPACE
340
21
  0
BLOCK_RECORD
  5
40
330
1
100
AcDbSymbolTableRecord
100
AcDbBlockTableRecord
  2
*D0
340
0
  0
BLOCK_RECORD
  5
4B
330
1
100
AcDbSymbolTableRecord
100
AcDbBlockTableRecord
  2
*D1
340
0
  0
ENDTAB
  0
ENDSEC
  0
SECTION
  2
BLOCKS
  0
BLOCK
  5
D
330
A
100
AcDbEntity
  8
0
100
AcDbBlockBegin
  2
*MODEL_SPACE
 70
     0
 10
0.0
 20
0.0
 30
0.0
  3
*MODEL_SPACE
  1

  0
ENDBLK
  5
E
330
A
100
AcDbEntity
  8
0
100
AcDbBlockEnd
  0
BLOCK
  5
F
330
B
100
AcDbEntity
 67
     1
  8
0
100
AcDbBlockBegin
  2
*PAPER_SPACE
 70
     0
 10
0.0
 20
0.0
 30
0.0
  3
*PAPER_SPACE
  1

  0
ENDBLK
  5
10
330
B
100
AcDbEntity
 67
     1
  8
0
100
AcDbBlockEnd
  0
BLOCK
  5
41
330
40
100
AcDbEntity
  8
1
  6
solid
 62
     7
100
AcDbBlockBegin
  2
*D0
 70
     0
 10
0.0
 20
0.0
 30
0.0
  3
*D0
  1

  0
LINE
  5
42
330
40
100
AcDbEntity
  8
1
  6
solid
 62
     7
100
AcDbLine
 10
-1.972318410873413
 20
0.2590519189834595
 30
0.0
 11
-1.972318410873413
 21
0.0013942723289078
 31
0.0
  0
LINE
  5
43
330
40
100
AcDbEntity
  8
1
  6
solid
 62
     7
100
AcDbLine
 10
-0.5973183512687683
 20
0.2590519189834595
 30
0.0
 11
-0.5973183512687683
 21
0.0013942723289078
 31
0.0
  0
LINE
  5
44
330
40
100
AcDbEntity
  8
1
  6
solid
 62
     7
100
AcDbLine
 10
-1.972318410873413
 20
0.0638942723289078
 30
0.0
 11
-1.523362498718149
 21
0.0638942723289078
 31
0.0
  0
LINE
  5
45
330
40
100
AcDbEntity
  8
1
  6
solid
 62
     7
100
AcDbLine
 10
-0.5973183512687683
 20
0.0638942723289078
 30
0.0
 11
-1.046274263424031
 21
0.0638942723289078
 31
0.0
  0
MTEXT
  5
46
330
40
100
AcDbEntity
  8
1
  6
solid
 62
     7
100
AcDbMText
 10
-1.28481838107109
 20
0.0638942723289078
 30
0.0
 40
0.125
 41
0.0
 71
     5
 72
     1
  1
{\H0.125000;1 3/8}
 73
     1
 44
1.0
  0
SOLID
  5
47
330
40
100
AcDbEntity
  8
1
  6
solid
 62
     7
100
AcDbTrace
 10
-1.930688410873413
 20
0.0847067723289078
 30
0.0
 11
-1.930688410873413
 21
0.0430817723289078
 31
0.0
 12
-1.972318410873413
 22
0.0638942723289078
 32
0.0
 13
-1.972318410873413
 23
0.0638942723289078
 33
0.0
  0
SOLID
  5
48
330
40
100
AcDbEntity
  8
1
  6
solid
 62
     7
100
AcDbTrace
 10
-0.6389483512687684
 20
0.0430817723289078
 30
0.0
 11
-0.6389483512687684
 21
0.0847067723289078
 31
0.0
 12
-0.5973183512687683
 22
0.0638942723289078
 32
0.0
 13
-0.5973183512687683
 23
0.0638942723289078
 33
0.0
  0
ENDBLK
  5
49
330
40
100
AcDbEntity
  8
1
  6
solid
 62
     7
100
AcDbBlockEnd
  0
BLOCK
  5
4C
330
4B
100
AcDbEntity
  8
1
  6
solid
 62
     7
100
AcDbBlockBegin
  2
*D1
 70
     0
 10
0.0
 20
0.0
 30
0.0
  3
*D1
  1

  0
LINE
  5
4D
330
4B
100
AcDbEntity
  8
1
  6
solid
 62
     7
100
AcDbLine
 10
-0.5973183512687683
 20
0.2590519189834594
 30
0.0
 11
-0.3554510917693318
 21
0.2590519189834594
 31
0.0
  0
LINE
  5
4E
330
4B
100
AcDbEntity
  8
1
  6
solid
 62
     7
100
AcDbLine
 10
-1.534818410873413
 20
1.634551882743835
 30
0.0
 11
-0.3554510917693308
 21
1.634551882743834
 31
0.0
  0
LINE
  5
4F
330
4B
100
AcDbEntity
  8
1
  6
solid
 62
     7
100
AcDbLine
 10
-0.4179510917693319
 20
0.2590519189834594
 30
0.0
 11
-0.4179510917693314
 21
0.7869293047098011
 31
0.0
  0
LINE
  5
50
330
4B
100
AcDbEntity
  8
1
  6
solid
 62
     7
100
AcDbLine
 10
-0.4179510917693309
 20
1.634551882743834
 30
0.0
 11
-0.4179510917693312
 21
1.106674497017493
 31
0.0
  0
MTEXT
  5
51
330
4B
100
AcDbEntity
  8
1
  6
solid
 62
     7
100
AcDbMText
 10
-0.4179510917693313
 20
0.9468019008636472
 30
0.0
 40
0.125
 41
0.0
 71
     5
 72
     1
  1
{\H0.125000;1 3/8}
 73
     1
 44
1.0
  0
SOLID
  5
52
330
4B
100
AcDbEntity
  8
1
  6
solid
 62
     7
100
AcDbTrace
 10
-0.4387635917693319
 20
0.3006819189834594
 30
0.0
 11
-0.3971385917693318
 21
0.3006819189834593
 31
0.0
 12
-0.4179510917693319
 22
0.2590519189834594
 32
0.0
 13
-0.4179510917693319
 23
0.2590519189834594
 33
0.0
  0
SOLID
  5
53
330
4B
100
AcDbEntity
  8
1
  6
solid
 62
     7
100
AcDbTrace
 10
-0.3971385917693309
 20
1.592921882743834
 30
0.0
 11
-0.438763591769331
 21
1.592921882743834
 31
0.0
 12
-0.4179510917693309
 22
1.634551882743834
 32
0.0
 13
-0.4179510917693309
 23
1.634551882743834
 33
0.0
  0
ENDBLK
  5
54
330
4B
100
AcDbEntity
  8
1
  6
solid
 62
     7
100
AcDbBlockEnd
  0
ENDSEC
  0
SECTION
  2
ENTITIES
  0
LINE
  5
28
330
A
100
AcDbEntity
  8
1
  6
solid
 62
     7
100
AcDbLine
 10
0.9050332145506596
 20
1.624592095380801
 30
0.0
 11
1.092533214550659
 21
1.624592095380801
 31
0.0
  0
LINE
  5
29
330
A
100
AcDbEntity
  8
1
  6
solid
 62
     7
100
AcDbLine
 10
2.155033214550659
 20
0.5615920953808024
 30
0.0
 11
2.155033214550659
 21
0.3740920953808022
 31
0.0
  0
LINE
  5
2A
330
A
100
AcDbEntity
  8
1
  6
solid
 62
     7
100
AcDbLine
 10
2.030033214550659
 20
0.2490920953808022
 30
0.0
 11
0.9050332145506594
 21
0.2490920953808022
 31
0.0
  0
LINE
  5
2B
330
A
100
AcDbEntity
  8
1
  6
solid
 62
     7
100
AcDbLine
 10
0.7800332145506595
 20
0.3740920953808022
 30
0.0
 11
0.7800332145506595
 21
1.499592095380802
 31
0.0
  0
LINE
  5
2C
330
A
100
AcDbEntity
  8
1
  6
solid
 62
     7
100
AcDbLine
 10
1.092533214550659
 20
0.5615920953808022
 30
0.0
 11
1.092533214550659
 21
1.624592095380802
 31
0.0
  0
LINE
  5
2D
330
A
100
AcDbEntity
  8
1
  6
solid
 62
     7
100
AcDbLine
 10
1.092533214550659
 20
0.5615920953808022
 30
0.0
 11
2.155033214550659
 21
0.5615920953808022
 31
0.0
  0
ARC
  5
2E
330
A
100
AcDbEntity
  8
1
  6
solid
 62
     7
100
AcDbCircle
 10
0.9050332145506594
 20
0.3740920953808022
 30
0.0
 40
0.125
100
AcDbArc
 50
179.9999999999999
 51
269.9999999999999
  0
ARC
  5
2F
330
A
100
AcDbEntity
  8
1
  6
solid
 62
     7
100
AcDbCircle
 10
0.9050332145506594
 20
1.499592095380802
 30
0.0
 40
0.125
100
AcDbArc
 50
89.99999999999996
 51
180.0
  0
ARC
  5
30
330
A
100
AcDbEntity
  8
1
  6
solid
 62
     7
100
AcDbCircle
 10
2.030033214550659
 20
0.3740920953808022
 30
0.0
 40
0.125
100
AcDbArc
 50
269.9999999999999
 51
360.0
  0
LINE
  5
31
330
A
100
AcDbEntity
  8
1
  6
solid
 62
     7
100
AcDbLine
 10
-1.847318372686402
 20
1.634551921855511
 30
0.0
 11
-1.659818372686402
 21
1.634551921855511
 31
0.0
  0
LINE
  5
32
330
A
100
AcDbEntity
  8
1
  6
solid
 62
     7
100
AcDbLine
 10
-0.5973183726864027
 20
0.5715519218555118
 30
0.0
 11
-0.5973183726864027
 21
0.3840519218555116
 31
0.0
  0
LINE
  5
33
330
A
100
AcDbEntity
  8
1
  6
solid
 62
     7
100
AcDbLine
 10
-0.7223183726864027
 20
0.2590519218555116
 30
0.0
 11
-1.847318372686402
 21
0.2590519218555116
 31
0.0
  0
LINE
  5
34
330
A
100
AcDbEntity
  8
1
  6
solid
 62
     7
100
AcDbLine
 10
-1.972318372686402
 20
0.3840519218555116
 30
0.0
 11
-1.972318372686402
 21
1.509551921855511
 31
0.0
  0
LINE
  5
35
330
A
100
AcDbEntity
  8
1
  6
solid
 62
     7
100
AcDbLine
 10
-1.659818372686402
 20
0.5715519218555116
 30
0.0
 11
-1.659818372686402
 21
1.634551921855511
 31
0.0
  0
LINE
  5
36
330
A
100
AcDbEntity
  8
1
  6
solid
 62
     7
100
AcDbLine
 10
-1.659818372686402
 20
0.5715519218555116
 30
0.0
 11
-0.5973183726864027
 21
0.5715519218555116
 31
0.0
  0
ARC
  5
37
330
A
100
AcDbEntity
  8
1
  6
solid
 62
     7
100
AcDbCircle
 10
-1.847318372686402
 20
0.3840519218555116
 30
0.0
 40
0.125
100
AcDbArc
 50
179.9999999999999
 51
269.9999999999999
  0
ARC
  5
38
330
A
100
AcDbEntity
  8
1
  6
solid
 62
     7
100
AcDbCircle
 10
-1.847318372686402
 20
1.509551921855511
 30
0.0
 40
0.125
100
AcDbArc
 50
89.99999999999996
 51
180.0
  0
ARC
  5
39
330
A
100
AcDbEntity
  8
1
  6
solid
 62
     7
100
AcDbCircle
 10
-0.7223183726864027
 20
0.3840519218555116
 30
0.0
 40
0.125
100
AcDbArc
 50
269.9999999999999
 51
360.0
  0
LINE
  5
3A
330
A
100
AcDbEntity
  8
1
  6
solid
 62
     7
100
AcDbLine
 10
1.339484766954704
 20
0.0891169967355239
 30
0.0
 11
0.214484766954705
 21
0.0891169967355239
 31
0.0
  0
LINE
  5
3B
330
A
100
AcDbEntity
  8
1
  6
solid
 62
     7
100
AcDbLine
 10
0.089484766954705
 20
0.2141169967355239
 30
0.0
 11
0.089484766954705
 21
1.339616996735523
 31
0.0
  0
ARC
  5
3C
330
A
100
AcDbEntity
  8
1
  6
solid
 62
     7
100
AcDbCircle
 10
0.214484766954705
 20
0.2141169967355239
 30
0.0
 40
0.125
100
AcDbArc
 50
179.9999999999999
 51
269.9999999999999
  0
ARC
  5
3D
330
A
100
AcDbEntity
  8
1
  6
solid
 62
     7
100
AcDbCircle
 10
0.214484766954705
 20
1.339616996735523
 30
0.0
 40
0.125
100
AcDbArc
 50
95.07026683534586
 51
180.0
  0
LINE
  5
3E
330
A
100
AcDbEntity
  8
1
  6
solid
 62
     7
100
AcDbLine
 10
0.8506970839822269
 20
1.612164671592108
 30
0.0
 11
0.2034375922352444
 21
1.464127879515775
 31
0.0
  0
LINE
  5
3F
330
A
100
AcDbEntity
  8
1
  6
solid
 62
     7
100
AcDbLine
 10
1.339484810829162
 20
0.0891169980168343
 30
0.0
 11
2.030033111572265
 21
0.2490921020507812
 31
0.0
  0
LINE
  5
56
330
A
100
AcDbEntity
  8
1
  6
solid
 62
     7
100
AcDbLine
 10
0.4790432909059489
 20
-0.081049300486914
 30
0.0
 11
0.4834477353503933
 21
-0.081049300486914
 31
0.0
  0
LINE
  5
57
330
A
100
AcDbEntity
  8
1
  6
solid
 62
     7
100
AcDbLine
 10
0.4834477353503933
 20
-0.081049300486914
 30
0.0
 11
0.4834477353503933
 21
-0.1560081893758028
 31
0.0
  0
SPLINE
  5
58
330
A
100
AcDbEntity
  8
1
  6
solid
 62
     7
100
AcDbSpline
210
0.0
220
0.0
230
1.0
 70
     8
 71
     2
 72
     7
 73
     4
 74
     0
 42
0.0000000001
 43
0.0000000001
 40
0.0
 40
0.0
 40
0.0
 40
1.0
 40
2.0
 40
2.0
 40
2.0
 10
0.4834477353503933
 20
-0.1560081893758028
 30
0.0
 10
0.4834477353503933
 20
-0.1614515227091362
 30
0.0
 10
0.4849488464615045
 20
-0.1674874486350621
 30
0.0
 10
0.48609440201706
 20
-0.168526337523951
 30
0.0
  0
SPLINE
  5
59
330
A
100
AcDbEntity
  8
1
  6
solid
 62
     7
100
AcDbSpline
210
0.0
220
0.0
230
1.0
 70
     8
 71
     2
 72
     6
 73
     3
 74
     0
 42
0.0000000001
 43
0.0000000001
 40
0.0
 40
0.0
 40
0.0
 40
1.0
 40
1.0
 40
1.0
 10
0.48609440201706
 20
-0.168526337523951
 30
0.0
 10
0.489258476091134
 20
-0.1710070782646917
 30
0.0
 10
0.4969258834985414
 20
-0.171856337523951
 30
0.0
  0
LINE
  5
5A
330
A
100
AcDbEntity
  8
1
  6
solid
 62
     7
100
AcDbLine
 10
0.4969258834985414
 20
-0.171856337523951
 30
0.0
 11
0.4969258834985414
 21
-0.1747993004869139
 31
0.0
  0
LINE
  5
5B
330
A
100
AcDbEntity
  8
1
  6
solid
 62
     7
100
AcDbLine
 10
0.4969258834985414
 20
-0.1747993004869139
 30
0.0
 11
0.4546547723874303
 21
-0.1747993004869139
 31
0.0
  0
LINE
  5
5C
330
A
100
AcDbEntity
  8
1
  6
solid
 62
     7
100
AcDbLine
 10
0.4546547723874303
 20
-0.1747993004869139
 30
0.0
 11
0.4546547723874303
 21
-0.1717970782646917
 31
0.0
  0
SPLINE
  5
5D
330
A
100
AcDbEntity
  8
1
  6
solid
 62
     7
100
AcDbSpline
210
0.0
220
0.0
230
1.0
 70
     8
 71
     2
 72
     7
 73
     4
 74
     0
 42
0.0000000001
 43
0.0000000001
 40
0.0
 40
0.0
 40
0.0
 40
1.0
 40
2.0
 40
2.0
 40
2.0
 10
0.4546547723874303
 20
-0.1717970782646917
 30
0.0
 10
0.4597703279429858
 20
-0.1711137449313584
 30
0.0
 10
0.4640206983133563
 20
-0.1698022634498769
 30
0.0
 10
0.4654269946096525
 20
-0.1683130041906176
 30
0.0
  0
SPLINE
  5
5E
330
A
100
AcDbEntity
  8
1
  6
solid
 62
     7
100
AcDbSpline
210
0.0
220
0.0
230
1.0
 70
     8
 71
     2
 72
     7
 73
     4
 74
     0
 42
0.0000000001
 43
0.0000000001
 40
0.0
 40
0.0
 40
0.0
 40
1.0
 40
2.0
 40
2.0
 40
2.0
 10
0.4654269946096525
 20
-0.1683130041906176
 30
0.0
 10
0.4668332909059489
 20
-0.1664485597461732
 30
0.0
 10
0.468401439054097
 20
-0.1616174486350621
 30
0.0
 10
0.468401439054097
 20
-0.1562689301165436
 30
0.0
  0
LINE
  5
5F
330
A
100
AcDbEntity
  8
1
  6
solid
 62
     7
100
AcDbLine
 10
0.468401439054097
 20
-0.1562689301165436
 30
0.0
 11
0.468401439054097
 21
-0.0935200412276547
 31
0.0
  0
SPLINE
  5
60
330
A
100
AcDbEntity
  8
1
  6
solid
 62
     7
100
AcDbSpline
210
0.0
220
0.0
230
1.0
 70
     8
 71
     2
 72
     6
 73
     3
 74
     0
 42
0.0000000001
 43
0.0000000001
 40
0.0
 40
0.0
 40
0.0
 40
1.0
 40
1.0
 40
1.0
 10
0.468401439054097
 20
-0.0935200412276547
 30
0.0
 10
0.4661221797948377
 20
-0.0937807819683954
 30
0.0
 10
0.4640206983133563
 20
-0.0937807819683954
 30
0.0
  0
SPLINE
  5
61
330
A
100
AcDbEntity
  8
1
  6
solid
 62
     7
100
AcDbSpline
210
0.0
220
0.0
230
1.0
 70
     8
 71
     2
 72
     6
 73
     3
 74
     0
 42
0.0000000001
 43
0.0000000001
 40
0.0
 40
0.0
 40
0.0
 40
1.0
 40
1.0
 40
1.0
 10
0.4640206983133563
 20
-0.0937807819683954
 30
0.0
 10
0.4586958834985415
 20
-0.0937807819683954
 30
0.0
 10
0.4548681057207637
 20
-0.0923981893758029
 30
0.0
  0
LINE
  5
62
330
A
100
AcDbEntity
  8
1
  6
solid
 62
     7
100
AcDbLine
 10
0.4548681057207637
 20
-0.0923981893758029
 30
0.0
 11
0.4548681057207637
 21
-0.0891511523387658
 31
0.0
  0
LINE
  5
63
330
A
100
AcDbEntity
  8
1
  6
solid
 62
     7
100
AcDbLine
 10
0.4548681057207637
 20
-0.0891511523387658
 30
0.0
 11
0.4574318094244674
 21
-0.0891511523387658
 31
0.0
  0
SPLINE
  5
64
330
A
100
AcDbEntity
  8
1
  6
solid
 62
     7
100
AcDbSpline
210
0.0
220
0.0
230
1.0
 70
     8
 71
     2
 72
     7
 73
     4
 74
     0
 42
0.0000000001
 43
0.0000000001
 40
0.0
 40
0.0
 40
0.0
 40
1.0
 40
2.0
 40
2.0
 40
2.0
 10
0.4574318094244674
 20
-0.0891511523387658
 30
0.0
 10
0.4626618094244673
 20
-0.0891511523387658
 30
0.0
 10
0.4713799575726155
 20
-0.0862555967832103
 30
0.0
 10
0.4770247723874303
 20
-0.0826648560424695
 30
0.0
  0
LINE
  5
65
330
A
100
AcDbEntity
  8
1
  6
solid
 62
     7
100
AcDbLine
 10
0.4790432909059489
 20
-0.081049300486914
 30
0.0
 11
0.4770247723874303
 21
-0.0826648560424695
 31
0.0
  0
LINE
  5
66
330
A
100
AcDbEntity
  8
1
  6
solid
 62
     7
100
AcDbLine
 10
0.5083366242392822
 20
-0.1377622634498769
 30
0.0
 11
0.5419014390540971
 21
-0.1377622634498769
 31
0.0
  0
LINE
  5
67
330
A
100
AcDbEntity
  8
1
  6
solid
 62
     7
100
AcDbLine
 10
0.5419014390540971
 20
-0.1377622634498769
 30
0.0
 11
0.5419014390540971
 21
-0.1504937449313584
 31
0.0
  0
LINE
  5
68
330
A
100
AcDbEntity
  8
1
  6
solid
 62
     7
100
AcDbLine
 10
0.5419014390540971
 20
-0.1504937449313584
 30
0.0
 11
0.5083366242392822
 21
-0.1504937449313584
 31
0.0
  0
LINE
  5
69
330
A
100
AcDbEntity
  8
1
  6
solid
 62
     7
100
AcDbLine
 10
0.5083366242392822
 20
-0.1377622634498769
 30
0.0
 11
0.5083366242392822
 21
-0.1504937449313584
 31
0.0
  0
SPLINE
  5
6A
330
A
100
AcDbEntity
  8
1
  6
solid
 62
     7
100
AcDbSpline
210
0.0
220
0.0
230
1.0
 70
     8
 71
     2
 72
     6
 73
     3
 74
     0
 42
0.0000000001
 43
0.0000000001
 40
0.0
 40
0.0
 40
0.0
 40
1.0
 40
1.0
 40
1.0
 10
0.5927510686837266
 20
-0.1255718930795065
 30
0.0
 10
0.6142440316466895
 20
-0.1303793004869139
 30
0.0
 10
0.6142440316466895
 20
-0.1478115227091362
 30
0.0
  0
SPLINE
  5
6B
330
A
100
AcDbEntity
  8
1
  6
solid
 62
     7
100
AcDbSpline
210
0.0
220
0.0
230
1.0
 70
     8
 71
     2
 72
     6
 73
     3
 74
     0
 42
0.0000000001
 43
0.0000000001
 40
0.0
 40
0.0
 40
0.0
 40
1.0
 40
1.0
 40
1.0
 10
0.6142440316466895
 20
-0.1478115227091362
 30
0.0
 10
0.6142440316466895
 20
-0.1536341153017288
 30
0.0
 10
0.6111747723874302
 20
-0.1594567078943213
 30
0.0
  0
SPLINE
  5
6C
330
A
100
AcDbEntity
  8
1
  6
solid
 62
     7
100
AcDbSpline
210
0.0
220
0.0
230
1.0
 70
     8
 71
     2
 72
     7
 73
     4
 74
     0
 42
0.0000000001
 43
0.0000000001
 40
0.0
 40
0.0
 40
0.0
 40
1.0
 40
2.0
 40
2.0
 40
2.0
 10
0.6111747723874302
 20
-0.1594567078943213
 30
0.0
 10
0.6075603279429858
 20
-0.1671911523387658
 30
0.0
 10
0.5905547723874303
 20
-0.1759567078943214
 30
0.0
 10
0.5797114390540969
 20
-0.1759567078943214
 30
0.0
  0
SPLINE
  5
6D
330
A
100
AcDbEntity
  8
1
  6
solid
 62
     7
100
AcDbSpline
210
0.0
220
0.0
230
1.0
 70
     8
 71
     2
 72
     7
 73
     4
 74
     0
 42
0.0000000001
 43
0.0000000001
 40
0.0
 40
0.0
 40
0.0
 40
1.0
 40
2.0
 40
2.0
 40
2.0
 10
0.5797114390540969
 20
-0.1759567078943214
 30
0.0
 10
0.5731462538689117
 20
-0.1759567078943214
 30
0.0
 10
0.5622673649800229
 20
-0.1724015227091362
 30
0.0
 10
0.5587714390540969
 20
-0.1695178190054325
 30
0.0
  0
SPLINE
  5
6E
330
A
100
AcDbEntity
  8
1
  6
solid
 62
     7
100
AcDbSpline
210
0.0
220
0.0
230
1.0
 70
     8
 71
     2
 72
     7
 73
     4
 74
     0
 42
0.0000000001
 43
0.0000000001
 40
0.0
 40
0.0
 40
0.0
 40
1.0
 40
2.0
 40
2.0
 40
2.0
 10
0.5587714390540969
 20
-0.1695178190054325
 30
0.0
 10
0.5557495872022451
 20
-0.1666618930795065
 30
0.0
 10
0.552901439054097
 20
-0.1597293004869139
 30
0.0
 10
0.552901439054097
 20
-0.1561741153017288
 30
0.0
  0
SPLINE
  5
6F
330
A
100
AcDbEntity
  8
1
  6
solid
 62
     7
100
AcDbSpline
210
0.0
220
0.0
230
1.0
 70
     8
 71
     2
 72
     7
 73
     4
 74
     0
 42
0.0000000001
 43
0.0000000001
 40
0.0
 40
0.0
 40
0.0
 40
1.0
 40
2.0
 40
2.0
 40
2.0
 10
0.552901439054097
 20
-0.1561741153017288
 30
0.0
 10
0.552901439054097
 20
-0.1501026338202473
 30
0.0
 10
0.561311439054097
 20
-0.1412344856720991
 30
0.0
 10
0.5695081057207636
 20
-0.1412344856720991
 30
0.0
  0
LINE
  5
70
330
A
100
AcDbEntity
  8
1
  6
solid
 62
     7
100
AcDbLine
 10
0.5695081057207636
 20
-0.1412344856720991
 30
0.0
 11
0.5702625501652081
 21
-0.1441141153017288
 31
0.0
  0
SPLINE
  5
71
330
A
100
AcDbEntity
  8
1
  6
solid
 62
     7
100
AcDbSpline
210
0.0
220
0.0
230
1.0
 70
     8
 71
     2
 72
     7
 73
     4
 74
     0
 42
0.0000000001
 43
0.0000000001
 40
0.0
 40
0.0
 40
0.0
 40
1.0
 40
2.0
 40
2.0
 40
2.0
 10
0.5702625501652081
 20
-0.1441141153017288
 30
0.0
 10
0.5668851427578007
 20
-0.1467252264128398
 30
0.0
 10
0.564475513128171
 20
-0.1516511523387658
 30
0.0
 10
0.564475513128171
 20
-0.1557948560424695
 30
0.0
  0
SPLINE
  5
72
330
A
100
AcDbEntity
  8
1
  6
solid
 62
     7
100
AcDbSpline
210
0.0
220
0.0
230
1.0
 70
     8
 71
     2
 72
     6
 73
     3
 74
     0
 42
0.0000000001
 43
0.0000000001
 40
0.0
 40
0.0
 40
0.0
 40
1.0
 40
1.0
 40
1.0
 10
0.564475513128171
 20
-0.1557948560424695
 30
0.0
 10
0.564475513128171
 20
-0.1616055967832102
 30
0.0
 10
0.5671458834985414
 20
-0.1654689301165435
 30
0.0
  0
SPLINE
  5
73
330
A
100
AcDbEntity
  8
1
  6
solid
 62
     7
100
AcDbSpline
210
0.0
220
0.0
230
1.0
 70
     8
 71
     2
 72
     7
 73
     4
 74
     0
 42
0.0000000001
 43
0.0000000001
 40
0.0
 40
0.0
 40
0.0
 40
1.0
 40
2.0
 40
2.0
 40
2.0
 10
0.5671458834985414
 20
-0.1654689301165435
 30
0.0
 10
0.5696029205355784
 20
-0.1695059671535806
 30
0.0
 10
0.5763577353503933
 20
-0.1724844856720991
 30
0.0
 10
0.5800669946096525
 20
-0.1724844856720991
 30
0.0
  0
SPLINE
  5
74
330
A
100
AcDbEntity
  8
1
  6
solid
 62
     7
100
AcDbSpline
210
0.0
220
0.0
230
1.0
 70
     8
 71
     2
 72
     6
 73
     3
 74
     0
 42
0.0000000001
 43
0.0000000001
 40
0.0
 40
0.0
 40
0.0
 40
1.0
 40
1.0
 40
1.0
 10
0.5800669946096525
 20
-0.1724844856720991
 30
0.0
 10
0.5887810686837267
 20
-0.1724844856720991
 30
0.0
 10
0.5936832909059488
 20
-0.1661996708572843
 30
0.0
  0
SPLINE
  5
75
330
A
100
AcDbEntity
  8
1
  6
solid
 62
     7
100
AcDbSpline
210
0.0
220
0.0
230
1.0
 70
     8
 71
     2
 72
     7
 73
     4
 74
     0
 42
0.0000000001
 43
0.0000000001
 40
0.0
 40
0.0
 40
0.0
 40
1.0
 40
2.0
 40
2.0
 40
2.0
 10
0.5936832909059488
 20
-0.1661996708572843
 30
0.0
 10
0.5961166242392821
 20
-0.162893374560988
 30
0.0
 10
0.5991977353503933
 20
-0.1538118930795065
 30
0.0
 10
0.5991977353503933
 20
-0.1492178190054325
 30
0.0
  0
SPLINE
  5
76
330
A
100
AcDbEntity
  8
1
  6
solid
 62
     7
100
AcDbSpline
210
0.0
220
0.0
230
1.0
 70
     8
 71
     2
 72
     7
 73
     4
 74
     0
 42
0.0000000001
 43
0.0000000001
 40
0.0
 40
0.0
 40
0.0
 40
1.0
 40
2.0
 40
2.0
 40
2.0
 10
0.5991977353503933
 20
-0.1492178190054325
 30
0.0
 10
0.5991977353503933
 20
-0.1442918930795065
 30
0.0
 10
0.5952910686837266
 20
-0.1347481893758029
 30
0.0
 10
0.5926562538689117
 20
-0.1317737449313584
 30
0.0
  0
SPLINE
  5
77
330
A
100
AcDbEntity
  8
1
  6
solid
 62
     7
100
AcDbSpline
210
0.0
220
0.0
230
1.0
 70
     8
 71
     2
 72
     6
 73
     3
 74
     0
 42
0.0000000001
 43
0.0000000001
 40
0.0
 40
0.0
 40
0.0
 40
1.0
 40
1.0
 40
1.0
 10
0.5926562538689117
 20
-0.1317737449313584
 30
0.0
 10
0.5893144020170599
 20
-0.1285030041906177
 30
0.0
 10
0.5856762538689118
 20
-0.1285030041906177
 30
0.0
  0
SPLINE
  5
78
330
A
100
AcDbEntity
  8
1
  6
solid
 62
     7
100
AcDbSpline
210
0.0
220
0.0
230
1.0
 70
     8
 71
     2
 72
     7
 73
     4
 74
     0
 42
0.0000000001
 43
0.0000000001
 40
0.0
 40
0.0
 40
0.0
 40
1.0
 40
2.0
 40
2.0
 40
2.0
 10
0.5856762538689118
 20
-0.1285030041906177
 30
0.0
 10
0.5853444020170599
 20
-0.1285030041906177
 30
0.0
 10
0.583681439054097
 20
-0.1292455967832102
 30
0.0
 10
0.5819906983133562
 20
-0.1305926338202473
 30
0.0
  0
SPLINE
  5
79
330
A
100
AcDbEntity
  8
1
  6
solid
 62
     7
100
AcDbSpline
210
0.0
220
0.0
230
1.0
 70
     8
 71
     2
 72
     6
 73
     3
 74
     0
 42
0.0000000001
 43
0.0000000001
 40
0.0
 40
0.0
 40
0.0
 40
1.0
 40
1.0
 40
1.0
 10
0.5819906983133562
 20
-0.1305926338202473
 30
0.0
 10
0.5783644020170599
 20
-0.1331326338202473
 30
0.0
 10
0.5744340316466895
 20
-0.1331326338202473
 30
0.0
  0
SPLINE
  5
7A
330
A
100
AcDbEntity
  8
1
  6
solid
 62
     7
100
AcDbSpline
210
0.0
220
0.0
230
1.0
 70
     8
 71
     2
 72
     7
 73
     4
 74
     0
 42
0.0000000001
 43
0.0000000001
 40
0.0
 40
0.0
 40
0.0
 40
1.0
 40
2.0
 40
2.0
 40
2.0
 10
0.5744340316466895
 20
-0.1331326338202473
 30
0.0
 10
0.5720836612763192
 20
-0.1331326338202473
 30
0.0
 10
0.5691051427578007
 20
-0.1305452264128399
 30
0.0
 10
0.5691051427578007
 20
-0.128313374560988
 30
0.0
  0
SPLINE
  5
7B
330
A
100
AcDbEntity
  8
1
  6
solid
 62
     7
100
AcDbSpline
210
0.0
220
0.0
230
1.0
 70
     8
 71
     2
 72
     7
 73
     4
 74
     0
 42
0.0000000001
 43
0.0000000001
 40
0.0
 40
0.0
 40
0.0
 40
1.0
 40
2.0
 40
2.0
 40
2.0
 10
0.5691051427578007
 20
-0.128313374560988
 30
0.0
 10
0.5691051427578007
 20
-0.1258918930795065
 30
0.0
 10
0.5729447723874303
 20
-0.1227159671535806
 30
0.0
 10
0.5760495872022452
 20
-0.1227159671535806
 30
0.0
  0
SPLINE
  5
7C
330
A
100
AcDbEntity
  8
1
  6
solid
 62
     7
100
AcDbSpline
210
0.0
220
0.0
230
1.0
 70
     8
 71
     2
 72
     6
 73
     3
 74
     0
 42
0.0000000001
 43
0.0000000001
 40
0.0
 40
0.0
 40
0.0
 40
1.0
 40
1.0
 40
1.0
 10
0.5760495872022452
 20
-0.1227159671535806
 30
0.0
 10
0.5774440316466896
 20
-0.1231267078943214
 30
0.0
 10
0.5786844020170598
 20
-0.1232926338202473
 30
0.0
  0
LINE
  5
7D
330
A
100
AcDbEntity
  8
1
  6
solid
 62
     7
100
AcDbLine
 10
0.5786844020170598
 20
-0.1232926338202473
 30
0.0
 11
0.5811532909059488
 21
-0.1236955967832102
 31
0.0
  0
SPLINE
  5
7E
330
A
100
AcDbEntity
  8
1
  6
solid
 62
     7
100
AcDbSpline
210
0.0
220
0.0
230
1.0
 70
     8
 71
     2
 72
     6
 73
     3
 74
     0
 42
0.0000000001
 43
0.0000000001
 40
0.0
 40
0.0
 40
0.0
 40
1.0
 40
1.0
 40
1.0
 10
0.5811532909059488
 20
-0.1236955967832102
 30
0.0
 10
0.5822632909059488
 20
-0.123873374560988
 30
0.0
 10
0.5832903279429859
 20
-0.123873374560988
 30
0.0
  0
SPLINE
  5
7F
330
A
100
AcDbEntity
  8
1
  6
solid
 62
     7
100
AcDbSpline
210
0.0
220
0.0
230
1.0
 70
     8
 71
     2
 72
     6
 73
     3
 74
     0
 42
0.0000000001
 43
0.0000000001
 40
0.0
 40
0.0
 40
0.0
 40
1.0
 40
1.0
 40
1.0
 10
0.5832903279429859
 20
-0.123873374560988
 30
0.0
 10
0.587165513128171
 20
-0.123873374560988
 30
0.0
 10
0.5912973649800229
 20
-0.1200218930795065
 30
0.0
  0
SPLINE
  5
80
330
A
100
AcDbEntity
  8
1
  6
solid
 62
     7
100
AcDbSpline
210
0.0
220
0.0
230
1.0
 70
     8
 71
     2
 72
     6
 73
     3
 74
     0
 42
0.0000000001
 43
0.0000000001
 40
0.0
 40
0.0
 40
0.0
 40
1.0
 40
1.0
 40
1.0
 10
0.5912973649800229
 20
-0.1200218930795065
 30
0.0
 10
0.5968829205355784
 20
-0.1142348560424695
 30
0.0
 10
0.5968829205355784
 20
-0.1046793004869139
 30
0.0
  0
SPLINE
  5
81
330
A
100
AcDbEntity
  8
1
  6
solid
 62
     7
100
AcDbSpline
210
0.0
220
0.0
230
1.0
 70
     8
 71
     2
 72
     7
 73
     4
 74
     0
 42
0.0000000001
 43
0.0000000001
 40
0.0
 40
0.0
 40
0.0
 40
1.0
 40
2.0
 40
2.0
 40
2.0
 10
0.5968829205355784
 20
-0.1046793004869139
 30
0.0
 10
0.5968829205355784
 20
-0.0999904115980251
 30
0.0
 10
0.593825513128171
 20
-0.0910511523387658
 30
0.0
 10
0.5913329205355784
 20
-0.0877567078943214
 30
0.0
  0
SPLINE
  5
82
330
A
100
AcDbEntity
  8
1
  6
solid
 62
     7
100
AcDbSpline
210
0.0
220
0.0
230
1.0
 70
     8
 71
     2
 72
     6
 73
     3
 74
     0
 42
0.0000000001
 43
0.0000000001
 40
0.0
 40
0.0
 40
0.0
 40
1.0
 40
1.0
 40
1.0
 10
0.5913329205355784
 20
-0.0877567078943214
 30
0.0
 10
0.5869047723874302
 20
-0.0822067078943214
 30
0.0
 10
0.5808214390540969
 20
-0.0822067078943214
 30
0.0
  0
SPLINE
  5
83
330
A
100
AcDbEntity
  8
1
  6
solid
 62
     7
100
AcDbSpline
210
0.0
220
0.0
230
1.0
 70
     8
 71
     2
 72
     7
 73
     4
 74
     0
 42
0.0000000001
 43
0.0000000001
 40
0.0
 40
0.0
 40
0.0
 40
1.0
 40
2.0
 40
2.0
 40
2.0
 10
0.5808214390540969
 20
-0.0822067078943214
 30
0.0
 10
0.5763458834985414
 20
-0.0822067078943214
 30
0.0
 10
0.5702625501652081
 20
-0.0885348560424695
 30
0.0
 10
0.5702625501652081
 20
-0.0936504115980251
 30
0.0
  0
SPLINE
  5
84
330
A
100
AcDbEntity
  8
1
  6
solid
 62
     7
100
AcDbSpline
210
0.0
220
0.0
230
1.0
 70
     8
 71
     2
 72
     7
 73
     4
 74
     0
 42
0.0000000001
 43
0.0000000001
 40
0.0
 40
0.0
 40
0.0
 40
1.0
 40
2.0
 40
2.0
 40
2.0
 10
0.5702625501652081
 20
-0.0936504115980251
 30
0.0
 10
0.5702625501652081
 20
-0.0979126338202473
 30
0.0
 10
0.5731699575726155
 20
-0.1028385597461732
 30
0.0
 10
0.576618476091134
 20
-0.1038774486350621
 30
0.0
  0
LINE
  5
85
330
A
100
AcDbEntity
  8
1
  6
solid
 62
     7
100
AcDbLine
 10
0.576618476091134
 20
-0.1038774486350621
 30
0.0
 11
0.5772069946096526
 21
-0.1062159671535806
 31
0.0
  0
SPLINE
  5
86
330
A
100
AcDbEntity
  8
1
  6
solid
 62
     7
100
AcDbSpline
210
0.0
220
0.0
230
1.0
 70
     8
 71
     2
 72
     6
 73
     3
 74
     0
 42
0.0000000001
 43
0.0000000001
 40
0.0
 40
0.0
 40
0.0
 40
1.0
 40
1.0
 40
1.0
 10
0.5772069946096526
 20
-0.1062159671535806
 30
0.0
 10
0.5729447723874303
 20
-0.1076696708572843
 30
0.0
 10
0.57027440201706
 20
-0.1076696708572843
 30
0.0
  0
SPLINE
  5
87
330
A
100
AcDbEntity
  8
1
  6
solid
 62
     7
100
AcDbSpline
210
0.0
220
0.0
230
1.0
 70
     8
 71
     2
 72
     7
 73
     4
 74
     0
 42
0.0000000001
 43
0.0000000001
 40
0.0
 40
0.0
 40
0.0
 40
1.0
 40
2.0
 40
2.0
 40
2.0
 10
0.57027440201706
 20
-0.1076696708572843
 30
0.0
 10
0.5649021797948377
 20
-0.1076696708572843
 30
0.0
 10
0.5586884760911339
 20
-0.101503374560988
 30
0.0
 10
0.5586884760911339
 20
-0.096589300486914
 30
0.0
  0
SPLINE
  5
88
330
A
100
AcDbEntity
  8
1
  6
solid
 62
     7
100
AcDbSpline
210
0.0
220
0.0
230
1.0
 70
     8
 71
     2
 72
     7
 73
     4
 74
     0
 42
0.0000000001
 43
0.0000000001
 40
0.0
 40
0.0
 40
0.0
 40
1.0
 40
2.0
 40
2.0
 40
2.0
 10
0.5586884760911339
 20
-0.096589300486914
 30
0.0
 10
0.5586884760911339
 20
-0.0889970782646917
 30
0.0
 10
0.5720599575726154
 20
-0.0787344856720991
 30
0.0
 10
0.5819077353503932
 20
-0.0787344856720991
 30
0.0
  0
SPLINE
  5
89
330
A
100
AcDbEntity
  8
1
  6
solid
 62
     7
100
AcDbSpline
210
0.0
220
0.0
230
1.0
 70
     8
 71
     2
 72
     7
 73
     4
 74
     0
 42
0.0000000001
 43
0.0000000001
 40
0.0
 40
0.0
 40
0.0
 40
1.0
 40
2.0
 40
2.0
 40
2.0
 10
0.5819077353503932
 20
-0.0787344856720991
 30
0.0
 10
0.587872550165208
 20
-0.0787344856720991
 30
0.0
 10
0.5992451427578006
 20
-0.0829137449313584
 30
0.0
 10
0.6027529205355784
 20
-0.0861844856720992
 30
0.0
  0
SPLINE
  5
8A
330
A
100
AcDbEntity
  8
1
  6
solid
 62
     7
100
AcDbSpline
210
0.0
220
0.0
230
1.0
 70
     8
 71
     2
 72
     7
 73
     4
 74
     0
 42
0.0000000001
 43
0.0000000001
 40
0.0
 40
0.0
 40
0.0
 40
1.0
 40
2.0
 40
2.0
 40
2.0
 10
0.6027529205355784
 20
-0.0861844856720992
 30
0.0
 10
0.6066518094244673
 20
-0.0898107819683954
 30
0.0
 10
0.6107718094244673
 20
-0.0983511523387658
 30
0.0
 10
0.6107718094244673
 20
-0.1030400412276547
 30
0.0
  0
SPLINE
  5
8B
330
A
100
AcDbEntity
  8
1
  6
solid
 62
     7
100
AcDbSpline
210
0.0
220
0.0
230
1.0
 70
     8
 71
     2
 72
     6
 73
     3
 74
     0
 42
0.0000000001
 43
0.0000000001
 40
0.0
 40
0.0
 40
0.0
 40
1.0
 40
1.0
 40
1.0
 10
0.6107718094244673
 20
-0.1030400412276547
 30
0.0
 10
0.6107718094244673
 20
-0.1133618930795065
 30
0.0
 10
0.6020577353503933
 20
-0.1209067078943214
 30
0.0
  0
SPLINE
  5
8C
330
A
100
AcDbEntity
  8
1
  6
solid
 62
     7
100
AcDbSpline
210
0.0
220
0.0
230
1.0
 70
     8
 71
     2
 72
     6
 73
     3
 74
     0
 42
0.0000000001
 43
0.0000000001
 40
0.0
 40
0.0
 40
0.0
 40
1.0
 40
1.0
 40
1.0
 10
0.6020577353503933
 20
-0.1209067078943214
 30
0.0
 10
0.598585513128171
 20
-0.1236600412276547
 30
0.0
 10
0.5927510686837266
 20
-0.1255718930795065
 30
0.0
  0
LINE
  5
8D
330
A
100
AcDbEntity
  8
1
  6
solid
 62
     7
100
AcDbLine
 10
0.6252440316466896
 20
-0.1910030041906176
 30
0.0
 11
0.6659784760911341
 21
-0.0775770782646918
 31
0.0
  0
LINE
  5
8E
330
A
100
AcDbEntity
  8
1
  6
solid
 62
     7
100
AcDbLine
 10
0.6659784760911341
 20
-0.0775770782646918
 30
0.0
 11
0.6738551427578007
 21
-0.0775770782646918
 31
0.0
  0
LINE
  5
8F
330
A
100
AcDbEntity
  8
1
  6
solid
 62
     7
100
AcDbLine
 10
0.6738551427578007
 20
-0.0775770782646918
 30
0.0
 11
0.63267440201706
 21
-0.1910030041906176
 31
0.0
  0
LINE
  5
90
330
A
100
AcDbEntity
  8
1
  6
solid
 62
     7
100
AcDbLine
 10
0.6252440316466896
 20
-0.1910030041906176
 30
0.0
 11
0.63267440201706
 21
-0.1910030041906176
 31
0.0
  0
SPLINE
  5
91
330
A
100
AcDbEntity
  8
1
  6
solid
 62
     7
100
AcDbSpline
210
0.0
220
0.0
230
1.0
 70
     8
 71
     2
 72
     7
 73
     4
 74
     0
 42
0.0000000001
 43
0.0000000001
 40
0.0
 40
0.0
 40
0.0
 40
1.0
 40
2.0
 40
2.0
 40
2.0
 10
0.7243136612763191
 20
-0.1225974486350621
 30
0.0
 10
0.7283903279429858
 20
-0.1248174486350621
 30
0.0
 10
0.7348488464615042
 20
-0.1295300412276547
 30
0.0
 10
0.7369740316466894
 20
-0.1318567078943214
 30
0.0
  0
SPLINE
  5
92
330
A
100
AcDbEntity
  8
1
  6
solid
 62
     7
100
AcDbSpline
210
0.0
220
0.0
230
1.0
 70
     8
 71
     2
 72
     6
 73
     3
 74
     0
 42
0.0000000001
 43
0.0000000001
 40
0.0
 40
0.0
 40
0.0
 40
1.0
 40
1.0
 40
1.0
 10
0.7369740316466894
 20
-0.1318567078943214
 30
0.0
 10
0.7438829205355783
 20
-0.1397689301165436
 30
0.0
 10
0.7438829205355783
 20
-0.1499130041906176
 30
0.0
  0
SPLINE
  5
93
330
A
100
AcDbEntity
  8
1
  6
solid
 62
     7
100
AcDbSpline
210
0.0
220
0.0
230
1.0
 70
     8
 71
     2
 72
     6
 73
     3
 74
     0
 42
0.0000000001
 43
0.0000000001
 40
0.0
 40
0.0
 40
0.0
 40
1.0
 40
1.0
 40
1.0
 10
0.7438829205355783
 20
-0.1499130041906176
 30
0.0
 10
0.7438829205355783
 20
-0.1605548560424695
 30
0.0
 10
0.7359588464615042
 20
-0.1684196708572843
 30
0.0
  0
SPLINE
  5
94
330
A
100
AcDbEntity
  8
1
  6
solid
 62
     7
100
AcDbSpline
210
0.0
220
0.0
230
1.0
 70
     8
 71
     2
 72
     6
 73
     3
 74
     0
 42
0.0000000001
 43
0.0000000001
 40
0.0
 40
0.0
 40
0.0
 40
1.0
 40
1.0
 40
1.0
 10
0.7359588464615042
 20
-0.1684196708572843
 30
0.0
 10
0.7280347723874302
 20
-0.1759567078943214
 30
0.0
 10
0.7144303279429857
 20
-0.1759567078943214
 30
0.0
  0
SPLINE
  5
95
330
A
100
AcDbEntity
  8
1
  6
solid
 62
     7
100
AcDbSpline
210
0.0
220
0.0
230
1.0
 70
     8
 71
     2
 72
     6
 73
     3
 74
     0
 42
0.0000000001
 43
0.0000000001
 40
0.0
 40
0.0
 40
0.0
 40
1.0
 40
1.0
 40
1.0
 10
0.7144303279429857
 20
-0.1759567078943214
 30
0.0
 10
0.700529587202245
 20
-0.1759567078943214
 30
0.0
 10
0.6920484760911339
 20
-0.1676770782646917
 30
0.0
  0
SPLINE
  5
96
330
A
100
AcDbEntity
  8
1
  6
solid
 62
     7
100
AcDbSpline
210
0.0
220
0.0
230
1.0
 70
     8
 71
     2
 72
     6
 73
     3
 74
     0
 42
0.0000000001
 43
0.0000000001
 40
0.0
 40
0.0
 40
0.0
 40
1.0
 40
1.0
 40
1.0
 10
0.6920484760911339
 20
-0.1676770782646917
 30
0.0
 10
0.6848551427578006
 20
-0.1606259671535806
 30
0.0
 10
0.6848551427578006
 20
-0.1510111523387658
 30
0.0
  0
SPLINE
  5
97
330
A
100
AcDbEntity
  8
1
  6
solid
 62
     7
100
AcDbSpline
210
0.0
220
0.0
230
1.0
 70
     8
 71
     2
 72
     6
 73
     3
 74
     0
 42
0.0000000001
 43
0.0000000001
 40
0.0
 40
0.0
 40
0.0
 40
1.0
 40
1.0
 40
1.0
 10
0.6848551427578006
 20
-0.1510111523387658
 30
0.0
 10
0.6848551427578006
 20
-0.1405470782646917
 30
0.0
 10
0.6932177353503932
 20
-0.1336144856720991
 30
0.0
  0
SPLINE
  5
98
330
A
100
AcDbEntity
  8
1
  6
solid
 62
     7
100
AcDbSpline
210
0.0
220
0.0
230
1.0
 70
     8
 71
     2
 72
     6
 73
     3
 74
     0
 42
0.0000000001
 43
0.0000000001
 40
0.0
 40
0.0
 40
0.0
 40
1.0
 40
1.0
 40
1.0
 10
0.6932177353503932
 20
-0.1336144856720991
 30
0.0
 10
0.6967492168318747
 20
-0.1304978190054325
 30
0.0
 10
0.7050051427578006
 20
-0.1270848560424695
 30
0.0
  0
SPLINE
  5
99
330
A
100
AcDbEntity
  8
1
  6
solid
 62
     7
100
AcDbSpline
210
0.0
220
0.0
230
1.0
 70
     8
 71
     2
 72
     6
 73
     3
 74
     0
 42
0.0000000001
 43
0.0000000001
 40
0.0
 40
0.0
 40
0.0
 40
1.0
 40
1.0
 40
1.0
 10
0.7050051427578006
 20
-0.1270848560424695
 30
0.0
 10
0.6971284760911339
 20
-0.124343374560988
 30
0.0
 10
0.6930162538689117
 20
-0.1188526338202473
 30
0.0
  0
SPLINE
  5
9A
330
A
100
AcDbEntity
  8
1
  6
solid
 62
     7
100
AcDbSpline
210
0.0
220
0.0
230
1.0
 70
     8
 71
     2
 72
     6
 73
     3
 74
     0
 42
0.0000000001
 43
0.0000000001
 40
0.0
 40
0.0
 40
0.0
 40
1.0
 40
1.0
 40
1.0
 10
0.6930162538689117
 20
-0.1188526338202473
 30
0.0
 10
0.6871699575726154
 20
-0.1119081893758028
 30
0.0
 10
0.6871699575726154
 20
-0.1029215227091362
 30
0.0
  0
SPLINE
  5
9B
330
A
100
AcDbEntity
  8
1
  6
solid
 62
     7
100
AcDbSpline
210
0.0
220
0.0
230
1.0
 70
     8
 71
     2
 72
     6
 73
     3
 74
     0
 42
0.0000000001
 43
0.0000000001
 40
0.0
 40
0.0
 40
0.0
 40
1.0
 40
1.0
 40
1.0
 10
0.6871699575726154
 20
-0.1029215227091362
 30
0.0
 10
0.6871699575726154
 20
-0.0934726338202473
 30
0.0
 10
0.693383661276319
 20
-0.0866941153017288
 30
0.0
  0
SPLINE
  5
9C
330
A
100
AcDbEntity
  8
1
  6
solid
 62
     7
100
AcDbSpline
210
0.0
220
0.0
230
1.0
 70
     8
 71
     2
 72
     7
 73
     4
 74
     0
 42
0.0000000001
 43
0.0000000001
 40
0.0
 40
0.0
 40
0.0
 40
1.0
 40
2.0
 40
2.0
 40
2.0
 10
0.693383661276319
 20
-0.0866941153017288
 30
0.0
 10
0.6969506983133562
 20
-0.0830322634498769
 30
0.0
 10
0.7073199575726154
 20
-0.0787344856720991
 30
0.0
 10
0.7131662538689117
 20
-0.0787344856720991
 30
0.0
  0
SPLINE
  5
9D
330
A
100
AcDbEntity
  8
1
  6
solid
 62
     7
100
AcDbSpline
210
0.0
220
0.0
230
1.0
 70
     8
 71
     2
 72
     7
 73
     4
 74
     0
 42
0.0000000001
 43
0.0000000001
 40
0.0
 40
0.0
 40
0.0
 40
1.0
 40
2.0
 40
2.0
 40
2.0
 10
0.7131662538689117
 20
-0.0787344856720991
 30
0.0
 10
0.7187992168318747
 20
-0.0787344856720991
 30
0.0
 10
0.7292988464615043
 20
-0.0826530041906177
 30
0.0
 10
0.732652550165208
 20
-0.0852641153017288
 30
0.0
  0
SPLINE
  5
9E
330
A
100
AcDbEntity
  8
1
  6
solid
 62
     7
100
AcDbSpline
210
0.0
220
0.0
230
1.0
 70
     8
 71
     2
 72
     6
 73
     3
 74
     0
 42
0.0000000001
 43
0.0000000001
 40
0.0
 40
0.0
 40
0.0
 40
1.0
 40
1.0
 40
1.0
 10
0.732652550165208
 20
-0.0852641153017288
 30
0.0
 10
0.7404106983133561
 20
-0.0914541153017288
 30
0.0
 10
0.7404106983133561
 20
-0.1005711523387658
 30
0.0
  0
SPLINE
  5
9F
330
A
100
AcDbEntity
  8
1
  6
solid
 62
     7
100
AcDbSpline
210
0.0
220
0.0
230
1.0
 70
     8
 71
     2
 72
     6
 73
     3
 74
     0
 42
0.0000000001
 43
0.0000000001
 40
0.0
 40
0.0
 40
0.0
 40
1.0
 40
1.0
 40
1.0
 10
0.7404106983133561
 20
-0.1005711523387658
 30
0.0
 10
0.7404106983133561
 20
-0.1092615227091362
 30
0.0
 10
0.7338218094244672
 20
-0.1156530041906177
 30
0.0
  0
SPLINE
  5
A0
330
A
100
AcDbEntity
  8
1
  6
solid
 62
     7
100
AcDbSpline
210
0.0
220
0.0
230
1.0
 70
     8
 71
     2
 72
     6
 73
     3
 74
     0
 42
0.0000000001
 43
0.0000000001
 40
0.0
 40
0.0
 40
0.0
 40
1.0
 40
1.0
 40
1.0
 10
0.7338218094244672
 20
-0.1156530041906177
 30
0.0
 10
0.7313529205355783
 20
-0.1186274486350621
 30
0.0
 10
0.7243136612763191
 20
-0.1225974486350621
 30
0.0
  0
SPLINE
  5
A1
330
A
100
AcDbEntity
  8
1
  6
solid
 62
     7
100
AcDbSpline
210
0.0
220
0.0
230
1.0
 70
     8
 71
     2
 72
     7
 73
     4
 74
     0
 42
0.0000000001
 43
0.0000000001
 40
0.0
 40
0.0
 40
0.0
 40
1.0
 40
2.0
 40
2.0
 40
2.0
 10
0.7186214390540968
 20
-0.1201996708572843
 30
0.0
 10
0.7221529205355784
 20
-0.1169170782646917
 30
0.0
 10
0.7265218094244672
 20
-0.1074326338202473
 30
0.0
 10
0.7265218094244672
 20
-0.1014678190054325
 30
0.0
  0
SPLINE
  5
A2
330
A
100
AcDbEntity
  8
1
  6
solid
 62
     7
100
AcDbSpline
210
0.0
220
0.0
230
1.0
 70
     8
 71
     2
 72
     7
 73
     4
 74
     0
 42
0.0000000001
 43
0.0000000001
 40
0.0
 40
0.0
 40
0.0
 40
1.0
 40
2.0
 40
2.0
 40
2.0
 10
0.7265218094244672
 20
-0.1014678190054325
 30
0.0
 10
0.7265218094244672
 20
-0.0931526338202473
 30
0.0
 10
0.7184318094244672
 20
-0.0822067078943214
 30
0.0
 10
0.7119969946096524
 20
-0.0822067078943214
 30
0.0
  0
SPLINE
  5
A3
330
A
100
AcDbEntity
  8
1
  6
solid
 62
     7
100
AcDbSpline
210
0.0
220
0.0
230
1.0
 70
     8
 71
     2
 72
     7
 73
     4
 74
     0
 42
0.0000000001
 43
0.0000000001
 40
0.0
 40
0.0
 40
0.0
 40
1.0
 40
2.0
 40
2.0
 40
2.0
 10
0.7119969946096524
 20
-0.0822067078943214
 30
0.0
 10
0.7071066242392821
 20
-0.0822067078943214
 30
0.0
 10
0.6999014390540969
 20
-0.0909800412276547
 30
0.0
 10
0.6999014390540969
 20
-0.0982089301165436
 30
0.0
  0
SPLINE
  5
A4
330
A
100
AcDbEntity
  8
1
  6
solid
 62
     7
100
AcDbSpline
210
0.0
220
0.0
230
1.0
 70
     8
 71
     2
 72
     6
 73
     3
 74
     0
 42
0.0000000001
 43
0.0000000001
 40
0.0
 40
0.0
 40
0.0
 40
1.0
 40
1.0
 40
1.0
 10
0.6999014390540969
 20
-0.0982089301165436
 30
0.0
 10
0.6999014390540969
 20
-0.1081041153017288
 30
0.0
 10
0.7069881057207635
 20
-0.1134448560424695
 30
0.0
  0
SPLINE
  5
A5
330
A
100
AcDbEntity
  8
1
  6
solid
 62
     7
100
AcDbSpline
210
0.0
220
0.0
230
1.0
 70
     8
 71
     2
 72
     6
 73
     3
 74
     0
 42
0.0000000001
 43
0.0000000001
 40
0.0
 40
0.0
 40
0.0
 40
1.0
 40
1.0
 40
1.0
 10
0.7069881057207635
 20
-0.1134448560424695
 30
0.0
 10
0.7115703279429857
 20
-0.1174107819683954
 30
0.0
 10
0.7186214390540968
 20
-0.1201996708572843
 30
0.0
  0
SPLINE
  5
A6
330
A
100
AcDbEntity
  8
1
  6
solid
 62
     7
100
AcDbSpline
210
0.0
220
0.0
230
1.0
 70
     8
 71
     2
 72
     7
 73
     4
 74
     0
 42
0.0000000001
 43
0.0000000001
 40
0.0
 40
0.0
 40
0.0
 40
1.0
 40
2.0
 40
2.0
 40
2.0
 10
0.7091725501652081
 20
-0.1294826338202473
 30
0.0
 10
0.7045429205355784
 20
-0.1337330041906176
 30
0.0
 10
0.6987440316466894
 20
-0.1452359671535806
 30
0.0
 10
0.6987440316466894
 20
-0.1525004115980251
 30
0.0
  0
SPLINE
  5
A7
330
A
100
AcDbEntity
  8
1
  6
solid
 62
     7
100
AcDbSpline
210
0.0
220
0.0
230
1.0
 70
     8
 71
     2
 72
     6
 73
     3
 74
     0
 42
0.0000000001
 43
0.0000000001
 40
0.0
 40
0.0
 40
0.0
 40
1.0
 40
1.0
 40
1.0
 10
0.6987440316466894
 20
-0.1525004115980251
 30
0.0
 10
0.6987440316466894
 20
-0.1616293004869139
 30
0.0
 10
0.7027377353503931
 20
-0.1666855967832102
 30
0.0
  0
SPLINE
  5
A8
330
A
100
AcDbEntity
  8
1
  6
solid
 62
     7
100
AcDbSpline
210
0.0
220
0.0
230
1.0
 70
     8
 71
     2
 72
     6
 73
     3
 74
     0
 42
0.0000000001
 43
0.0000000001
 40
0.0
 40
0.0
 40
0.0
 40
1.0
 40
1.0
 40
1.0
 10
0.7027377353503931
 20
-0.1666855967832102
 30
0.0
 10
0.7074147723874301
 20
-0.1724844856720991
 30
0.0
 10
0.714406624239282
 20
-0.1724844856720991
 30
0.0
  0
SPLINE
  5
A9
330
A
100
AcDbEntity
  8
1
  6
solid
 62
     7
100
AcDbSpline
210
0.0
220
0.0
230
1.0
 70
     8
 71
     2
 72
     6
 73
     3
 74
     0
 42
0.0000000001
 43
0.0000000001
 40
0.0
 40
0.0
 40
0.0
 40
1.0
 40
1.0
 40
1.0
 10
0.714406624239282
 20
-0.1724844856720991
 30
0.0
 10
0.7211614390540968
 20
-0.1724844856720991
 30
0.0
 10
0.7249418094244672
 20
-0.1683604115980251
 30
0.0
  0
SPLINE
  5
AA
330
A
100
AcDbEntity
  8
1
  6
solid
 62
     7
100
AcDbSpline
210
0.0
220
0.0
230
1.0
 70
     8
 71
     2
 72
     7
 73
     4
 74
     0
 42
0.0000000001
 43
0.0000000001
 40
0.0
 40
0.0
 40
0.0
 40
1.0
 40
2.0
 40
2.0
 40
2.0
 10
0.7249418094244672
 20
-0.1683604115980251
 30
0.0
 10
0.7271736612763191
 20
-0.1659626338202473
 30
0.0
 10
0.7299940316466894
 20
-0.1584889301165436
 30
0.0
 10
0.7299940316466894
 20
-0.1547322634498769
 30
0.0
  0
SPLINE
  5
AB
330
A
100
AcDbEntity
  8
1
  6
solid
 62
     7
100
AcDbSpline
210
0.0
220
0.0
230
1.0
 70
     8
 71
     2
 72
     6
 73
     3
 74
     0
 42
0.0000000001
 43
0.0000000001
 40
0.0
 40
0.0
 40
0.0
 40
1.0
 40
1.0
 40
1.0
 10
0.7299940316466894
 20
-0.1547322634498769
 30
0.0
 10
0.7299940316466894
 20
-0.1456270782646917
 30
0.0
 10
0.7234762538689117
 20
-0.1394015227091362
 30
0.0
  0
SPLINE
  5
AC
330
A
100
AcDbEntity
  8
1
  6
solid
 62
     7
100
AcDbSpline
210
0.0
220
0.0
230
1.0
 70
     8
 71
     2
 72
     6
 73
     3
 74
     0
 42
0.0000000001
 43
0.0000000001
 40
0.0
 40
0.0
 40
0.0
 40
1.0
 40
1.0
 40
1.0
 10
0.7234762538689117
 20
-0.1394015227091362
 30
0.0
 10
0.7186806983133561
 20
-0.1341004115980251
 30
0.0
 10
0.7091725501652081
 20
-0.1294826338202473
 30
0.0
  0
LINE
  5
AD
330
A
100
AcDbEntity
  8
1
  6
solid
 62
     7
100
AcDbLine
 10
0.7693551427578007
 20
-0.081049300486914
 30
0.0
 11
0.8149206983133561
 21
-0.081049300486914
 31
0.0
  0
LINE
  5
AE
330
A
100
AcDbEntity
  8
1
  6
solid
 62
     7
100
AcDbLine
 10
0.8149206983133561
 20
-0.081049300486914
 30
0.0
 11
0.8149206983133561
 21
-0.0845215227091362
 31
0.0
  0
SPLINE
  5
AF
330
A
100
AcDbEntity
  8
1
  6
solid
 62
     7
100
AcDbSpline
210
0.0
220
0.0
230
1.0
 70
     8
 71
     2
 72
     6
 73
     3
 74
     0
 42
0.0000000001
 43
0.0000000001
 40
0.0
 40
0.0
 40
0.0
 40
1.0
 40
1.0
 40
1.0
 10
0.8149206983133561
 20
-0.0845215227091362
 30
0.0
 10
0.8087544020170598
 20
-0.0845215227091362
 30
0.0
 10
0.8064514390540969
 20
-0.0854418930795065
 30
0.0
  0
SPLINE
  5
B0
330
A
100
AcDbEntity
  8
1
  6
solid
 62
     7
100
AcDbSpline
210
0.0
220
0.0
230
1.0
 70
     8
 71
     2
 72
     6
 73
     3
 74
     0
 42
0.0000000001
 43
0.0000000001
 40
0.0
 40
0.0
 40
0.0
 40
1.0
 40
1.0
 40
1.0
 10
0.8064514390540969
 20
-0.0854418930795065
 30
0.0
 10
0.8040773649800227
 20
-0.0863859671535806
 30
0.0
 10
0.8040773649800227
 20
-0.0896922634498769
 30
0.0
  0
SPLINE
  5
B1
330
A
100
AcDbEntity
  8
1
  6
solid
 62
     7
100
AcDbSpline
210
0.0
220
0.0
230
1.0
 70
     8
 71
     2
 72
     6
 73
     3
 74
     0
 42
0.0000000001
 43
0.0000000001
 40
0.0
 40
0.0
 40
0.0
 40
1.0
 40
1.0
 40
1.0
 10
0.8040773649800227
 20
-0.0896922634498769
 30
0.0
 10
0.8040773649800227
 20
-0.0932948560424695
 30
0.0
 10
0.8091336612763191
 20
-0.1004881893758028
 30
0.0
  0
LINE
  5
B2
330
A
100
AcDbEntity
  8
1
  6
solid
 62
     7
100
AcDbLine
 10
0.8091336612763191
 20
-0.1004881893758028
 30
0.0
 11
0.8198703279429858
 21
-0.1173870782646917
 31
0.0
  0
LINE
  5
B3
330
A
100
AcDbEntity
  8
1
  6
solid
 62
     7
100
AcDbLine
 10
0.8198703279429858
 20
-0.1173870782646917
 30
0.0
 11
0.8285488464615042
 21
-0.1049993004869139
 31
0.0
  0
SPLINE
  5
B4
330
A
100
AcDbEntity
  8
1
  6
solid
 62
     7
100
AcDbSpline
210
0.0
220
0.0
230
1.0
 70
     8
 71
     2
 72
     7
 73
     4
 74
     0
 42
0.0000000001
 43
0.0000000001
 40
0.0
 40
0.0
 40
0.0
 40
1.0
 40
2.0
 40
2.0
 40
2.0
 10
0.8285488464615042
 20
-0.1049993004869139
 30
0.0
 10
0.8342647723874302
 20
-0.0978178190054325
 30
0.0
 10
0.8376421797948376
 20
-0.092066337523951
 30
0.0
 10
0.8376421797948376
 20
-0.0898226338202473
 30
0.0
  0
SPLINE
  5
B5
330
A
100
AcDbEntity
  8
1
  6
solid
 62
     7
100
AcDbSpline
210
0.0
220
0.0
230
1.0
 70
     8
 71
     2
 72
     6
 73
     3
 74
     0
 42
0.0000000001
 43
0.0000000001
 40
0.0
 40
0.0
 40
0.0
 40
1.0
 40
1.0
 40
1.0
 10
0.8376421797948376
 20
-0.0898226338202473
 30
0.0
 10
0.8376421797948376
 20
-0.0866704115980251
 30
0.0
 10
0.8345847723874301
 20
-0.0855248560424695
 30
0.0
  0
SPLINE
  5
B6
330
A
100
AcDbEntity
  8
1
  6
solid
 62
     7
100
AcDbSpline
210
0.0
220
0.0
230
1.0
 70
     8
 71
     2
 72
     6
 73
     3
 74
     0
 42
0.0000000001
 43
0.0000000001
 40
0.0
 40
0.0
 40
0.0
 40
1.0
 40
1.0
 40
1.0
 10
0.8345847723874301
 20
-0.0855248560424695
 30
0.0
 10
0.8332258834985413
 20
-0.0850981893758028
 30
0.0
 10
0.8283829205355782
 20
-0.0844741153017288
 30
0.0
  0
LINE
  5
B7
330
A
100
AcDbEntity
  8
1
  6
solid
 62
     7
100
AcDbLine
 10
0.8283829205355782
 20
-0.0844741153017288
 30
0.0
 11
0.8283829205355782
 21
-0.081049300486914
 31
0.0
  0
LINE
  5
B8
330
A
100
AcDbEntity
  8
1
  6
solid
 62
     7
100
AcDbLine
 10
0.8283829205355782
 20
-0.081049300486914
 30
0.0
 11
0.8619477353503931
 21
-0.081049300486914
 31
0.0
  0
LINE
  5
B9
330
A
100
AcDbEntity
  8
1
  6
solid
 62
     7
100
AcDbLine
 10
0.8619477353503931
 20
-0.081049300486914
 30
0.0
 11
0.8619477353503931
 21
-0.0845215227091362
 31
0.0
  0
SPLINE
  5
BA
330
A
100
AcDbEntity
  8
1
  6
solid
 62
     7
100
AcDbSpline
210
0.0
220
0.0
230
1.0
 70
     8
 71
     2
 72
     6
 73
     3
 74
     0
 42
0.0000000001
 43
0.0000000001
 40
0.0
 40
0.0
 40
0.0
 40
1.0
 40
1.0
 40
1.0
 10
0.8619477353503931
 20
-0.0845215227091362
 30
0.0
 10
0.8551692168318748
 20
-0.0845215227091362
 30
0.0
 10
0.8522540316466894
 20
-0.0861489301165436
 30
0.0
  0
SPLINE
  5
BB
330
A
100
AcDbEntity
  8
1
  6
solid
 62
     7
100
AcDbSpline
210
0.0
220
0.0
230
1.0
 70
     8
 71
     2
 72
     6
 73
     3
 74
     0
 42
0.0000000001
 43
0.0000000001
 40
0.0
 40
0.0
 40
0.0
 40
1.0
 40
1.0
 40
1.0
 10
0.8522540316466894
 20
-0.0861489301165436
 30
0.0
 10
0.8487818094244673
 20
-0.087626337523951
 30
0.0
 10
0.8415529205355783
 20
-0.0970396708572843
 30
0.0
  0
LINE
  5
BC
330
A
100
AcDbEntity
  8
1
  6
solid
 62
     7
100
AcDbLine
 10
0.8415529205355783
 20
-0.0970396708572843
 30
0.0
 11
0.8368047723874301
 21
-0.1036404115980251
 31
0.0
  0
LINE
  5
BD
330
A
100
AcDbEntity
  8
1
  6
solid
 62
     7
100
AcDbLine
 10
0.8368047723874301
 20
-0.1036404115980251
 30
0.0
 11
0.8233306983133561
 21
-0.1209778190054325
 31
0.0
  0
LINE
  5
BE
330
A
100
AcDbEntity
  8
1
  6
solid
 62
     7
100
AcDbLine
 10
0.8233306983133561
 20
-0.1209778190054325
 30
0.0
 11
0.8464314390540968
 21
-0.1548626338202473
 31
0.0
  0
SPLINE
  5
BF
330
A
100
AcDbEntity
  8
1
  6
solid
 62
     7
100
AcDbSpline
210
0.0
220
0.0
230
1.0
 70
     8
 71
     2
 72
     6
 73
     3
 74
     0
 42
0.0000000001
 43
0.0000000001
 40
0.0
 40
0.0
 40
0.0
 40
1.0
 40
1.0
 40
1.0
 10
0.8464314390540968
 20
-0.1548626338202473
 30
0.0
 10
0.8522303279429857
 20
-0.1640389301165436
 30
0.0
 10
0.8565992168318746
 20
-0.1676296708572843
 30
0.0
  0
SPLINE
  5
C0
330
A
100
AcDbEntity
  8
1
  6
solid
 62
     7
100
AcDbSpline
210
0.0
220
0.0
230
1.0
 70
     8
 71
     2
 72
     7
 73
     4
 74
     0
 42
0.0000000001
 43
0.0000000001
 40
0.0
 40
0.0
 40
0.0
 40
1.0
 40
2.0
 40
2.0
 40
2.0
 10
0.8565992168318746
 20
-0.1676296708572843
 30
0.0
 10
0.8590918094244672
 20
-0.1698852264128399
 30
0.0
 10
0.8632118094244672
 20
-0.1712322634498769
 30
0.0
 10
0.8688921797948376
 20
-0.1718089301165436
 30
0.0
  0
LINE
  5
C1
330
A
100
AcDbEntity
  8
1
  6
solid
 62
     7
100
AcDbLine
 10
0.8688921797948376
 20
-0.1718089301165436
 30
0.0
 11
0.8688921797948376
 21
-0.1747993004869139
 31
0.0
  0
LINE
  5
C2
330
A
100
AcDbEntity
  8
1
  6
solid
 62
     7
100
AcDbLine
 10
0.8688921797948376
 20
-0.1747993004869139
 30
0.0
 11
0.8202810686837265
 21
-0.1747993004869139
 31
0.0
  0
LINE
  5
C3
330
A
100
AcDbEntity
  8
1
  6
solid
 62
     7
100
AcDbLine
 10
0.8202810686837265
 20
-0.1747993004869139
 30
0.0
 11
0.8202810686837265
 21
-0.1718207819683954
 31
0.0
  0
SPLINE
  5
C4
330
A
100
AcDbEntity
  8
1
  6
solid
 62
     7
100
AcDbSpline
210
0.0
220
0.0
230
1.0
 70
     8
 71
     2
 72
     6
 73
     3
 74
     0
 42
0.0000000001
 43
0.0000000001
 40
0.0
 40
0.0
 40
0.0
 40
1.0
 40
1.0
 40
1.0
 10
0.8202810686837265
 20
-0.1718207819683954
 30
0.0
 10
0.8262340316466895
 20
-0.1709478190054324
 30
0.0
 10
0.8284777353503931
 20
-0.1697430041906176
 30
0.0
  0
SPLINE
  5
C5
330
A
100
AcDbEntity
  8
1
  6
solid
 62
     7
100
AcDbSpline
210
0.0
220
0.0
230
1.0
 70
     8
 71
     2
 72
     6
 73
     3
 74
     0
 42
0.0000000001
 43
0.0000000001
 40
0.0
 40
0.0
 40
0.0
 40
1.0
 40
1.0
 40
1.0
 10
0.8284777353503931
 20
-0.1697430041906176
 30
0.0
 10
0.8318551427578006
 20
-0.1677600412276547
 30
0.0
 10
0.8318551427578006
 20
-0.1649237449313584
 30
0.0
  0
SPLINE
  5
C6
330
A
100
AcDbEntity
  8
1
  6
solid
 62
     7
100
AcDbSpline
210
0.0
220
0.0
230
1.0
 70
     8
 71
     2
 72
     7
 73
     4
 74
     0
 42
0.0000000001
 43
0.0000000001
 40
0.0
 40
0.0
 40
0.0
 40
1.0
 40
2.0
 40
2.0
 40
2.0
 10
0.8318551427578006
 20
-0.1649237449313584
 30
0.0
 10
0.8318551427578006
 20
-0.1638967078943213
 30
0.0
 10
0.8300499575726155
 20
-0.1606615227091362
 30
0.0
 10
0.8278181057207635
 20
-0.1573315227091362
 30
0.0
  0
LINE
  5
C7
330
A
100
AcDbEntity
  8
1
  6
solid
 62
     7
100
AcDbLine
 10
0.8278181057207635
 20
-0.1573315227091362
 30
0.0
 11
0.8124873649800228
 21
-0.1330496708572843
 31
0.0
  0
LINE
  5
C8
330
A
100
AcDbEntity
  8
1
  6
solid
 62
     7
100
AcDbLine
 10
0.8124873649800228
 20
-0.1330496708572843
 30
0.0
 11
0.7985155131281711
 21
-0.1522752264128398
 31
0.0
  0
SPLINE
  5
C9
330
A
100
AcDbEntity
  8
1
  6
solid
 62
     7
100
AcDbSpline
210
0.0
220
0.0
230
1.0
 70
     8
 71
     2
 72
     7
 73
     4
 74
     0
 42
0.0000000001
 43
0.0000000001
 40
0.0
 40
0.0
 40
0.0
 40
1.0
 40
2.0
 40
2.0
 40
2.0
 10
0.7985155131281711
 20
-0.1522752264128398
 30
0.0
 10
0.7951973649800229
 20
-0.1561267078943213
 30
0.0
 10
0.7925032909059487
 20
-0.1618070782646917
 30
0.0
 10
0.7925032909059487
 20
-0.1642996708572843
 30
0.0
  0
SPLINE
  5
CA
330
A
100
AcDbEntity
  8
1
  6
solid
 62
     7
100
AcDbSpline
210
0.0
220
0.0
230
1.0
 70
     8
 71
     2
 72
     7
 73
     4
 74
     0
 42
0.0000000001
 43
0.0000000001
 40
0.0
 40
0.0
 40
0.0
 40
1.0
 40
2.0
 40
2.0
 40
2.0
 10
0.7925032909059487
 20
-0.1642996708572843
 30
0.0
 10
0.7925032909059487
 20
-0.1682655967832102
 30
0.0
 10
0.7964851427578007
 20
-0.1711848560424695
 30
0.0
 10
0.8031332909059488
 20
-0.1718207819683954
 30
0.0
  0
LINE
  5
CB
330
A
100
AcDbEntity
  8
1
  6
solid
 62
     7
100
AcDbLine
 10
0.8031332909059488
 20
-0.1718207819683954
 30
0.0
 11
0.8031332909059488
 21
-0.1747993004869139
 31
0.0
  0
LINE
  5
CC
330
A
100
AcDbEntity
  8
1
  6
solid
 62
     7
100
AcDbLine
 10
0.8031332909059488
 20
-0.1747993004869139
 30
0.0
 11
0.7670403279429859
 21
-0.1747993004869139
 31
0.0
  0
LINE
  5
CD
330
A
100
AcDbEntity
  8
1
  6
solid
 62
     7
100
AcDbLine
 10
0.7670403279429859
 20
-0.1747993004869139
 30
0.0
 11
0.7670403279429859
 21
-0.1718681893758028
 31
0.0
  0
SPLINE
  5
CE
330
A
100
AcDbEntity
  8
1
  6
solid
 62
     7
100
AcDbSpline
210
0.0
220
0.0
230
1.0
 70
     8
 71
     2
 72
     7
 73
     4
 74
     0
 42
0.0000000001
 43
0.0000000001
 40
0.0
 40
0.0
 40
0.0
 40
1.0
 40
2.0
 40
2.0
 40
2.0
 10
0.7670403279429859
 20
-0.1718681893758028
 30
0.0
 10
0.7710577353503933
 20
-0.1709241153017288
 30
0.0
 10
0.7756399575726155
 20
-0.1684670782646917
 30
0.0
 10
0.7789699575726155
 20
-0.1650896708572843
 30
0.0
  0
SPLINE
  5
CF
330
A
100
AcDbEntity
  8
1
  6
solid
 62
     7
100
AcDbSpline
210
0.0
220
0.0
230
1.0
 70
     8
 71
     2
 72
     6
 73
     3
 74
     0
 42
0.0000000001
 43
0.0000000001
 40
0.0
 40
0.0
 40
0.0
 40
1.0
 40
1.0
 40
1.0
 10
0.7789699575726155
 20
-0.1650896708572843
 30
0.0
 10
0.7835640316466895
 20
-0.1607444856720991
 30
0.0
 10
0.7920451427578006
 20
-0.1502211523387658
 30
0.0
  0
LINE
  5
D0
330
A
100
AcDbEntity
  8
1
  6
solid
 62
     7
100
AcDbLine
 10
0.7920451427578006
 20
-0.1502211523387658
 30
0.0
 11
0.809228476091134
 21
-0.1295181893758028
 31
0.0
  0
LINE
  5
D1
330
A
100
AcDbEntity
  8
1
  6
solid
 62
     7
100
AcDbLine
 10
0.809228476091134
 20
-0.1295181893758028
 30
0.0
 11
0.7891495872022451
 21
-0.0992004115980251
 31
0.0
  0
LINE
  5
D2
330
A
100
AcDbEntity
  8
1
  6
solid
 62
     7
100
AcDbLine
 10
0.7891495872022451
 20
-0.0992004115980251
 30
0.0
 11
0.7857010686837266
 21
-0.0937215227091362
 31
0.0
  0
SPLINE
  5
D3
330
A
100
AcDbEntity
  8
1
  6
solid
 62
     7
100
AcDbSpline
210
0.0
220
0.0
230
1.0
 70
     8
 71
     2
 72
     6
 73
     3
 74
     0
 42
0.0000000001
 43
0.0000000001
 40
0.0
 40
0.0
 40
0.0
 40
1.0
 40
1.0
 40
1.0
 10
0.7857010686837266
 20
-0.0937215227091362
 30
0.0
 10
0.7821221797948378
 20
-0.0884400412276547
 30
0.0
 10
0.7793492168318748
 20
-0.086599300486914
 30
0.0
  0
SPLINE
  5
D4
330
A
100
AcDbEntity
  8
1
  6
solid
 62
     7
100
AcDbSpline
210
0.0
220
0.0
230
1.0
 70
     8
 71
     2
 72
     6
 73
     3
 74
     0
 42
0.0000000001
 43
0.0000000001
 40
0.0
 40
0.0
 40
0.0
 40
1.0
 40
1.0
 40
1.0
 10
0.7793492168318748
 20
-0.086599300486914
 30
0.0
 10
0.7775873649800229
 20
-0.0853115227091362
 30
0.0
 10
0.7721558834985414
 20
-0.0850152264128399
 30
0.0
  0
SPLINE
  5
D5
330
A
100
AcDbEntity
  8
1
  6
solid
 62
     7
100
AcDbSpline
210
0.0
220
0.0
230
1.0
 70
     8
 71
     2
 72
     6
 73
     3
 74
     0
 42
0.0000000001
 43
0.0000000001
 40
0.0
 40
0.0
 40
0.0
 40
1.0
 40
1.0
 40
1.0
 10
0.7721558834985414
 20
-0.0850152264128399
 30
0.0
 10
0.7717173649800229
 20
-0.0850152264128399
 30
0.0
 10
0.7693551427578007
 20
-0.0844504115980251
 30
0.0
  0
LINE
  5
D6
330
A
100
AcDbEntity
  8
1
  6
solid
 62
     7
100
AcDbLine
 10
0.7693551427578007
 20
-0.081049300486914
 30
0.0
 11
0.7693551427578007
 21
-0.0844504115980251
 31
0.0
  0
LINE
  5
D7
330
A
100
AcDbEntity
  8
1
  6
solid
 62
     7
100
AcDbLine
 10
0.9165803279429859
 20
-0.081049300486914
 30
0.0
 11
0.9209847723874304
 21
-0.081049300486914
 31
0.0
  0
LINE
  5
D8
330
A
100
AcDbEntity
  8
1
  6
solid
 62
     7
100
AcDbLine
 10
0.9209847723874304
 20
-0.081049300486914
 30
0.0
 11
0.9209847723874304
 21
-0.1560081893758028
 31
0.0
  0
SPLINE
  5
D9
330
A
100
AcDbEntity
  8
1
  6
solid
 62
     7
100
AcDbSpline
210
0.0
220
0.0
230
1.0
 70
     8
 71
     2
 72
     7
 73
     4
 74
     0
 42
0.0000000001
 43
0.0000000001
 40
0.0
 40
0.0
 40
0.0
 40
1.0
 40
2.0
 40
2.0
 40
2.0
 10
0.9209847723874304
 20
-0.1560081893758028
 30
0.0
 10
0.9209847723874304
 20
-0.1614515227091362
 30
0.0
 10
0.9224858834985415
 20
-0.1674874486350621
 30
0.0
 10
0.923631439054097
 20
-0.168526337523951
 30
0.0
  0
SPLINE
  5
DA
330
A
100
AcDbEntity
  8
1
  6
solid
 62
     7
100
AcDbSpline
210
0.0
220
0.0
230
1.0
 70
     8
 71
     2
 72
     6
 73
     3
 74
     0
 42
0.0000000001
 43
0.0000000001
 40
0.0
 40
0.0
 40
0.0
 40
1.0
 40
1.0
 40
1.0
 10
0.923631439054097
 20
-0.168526337523951
 30
0.0
 10
0.9267955131281711
 20
-0.1710070782646917
 30
0.0
 10
0.9344629205355785
 20
-0.171856337523951
 30
0.0
  0
LINE
  5
DB
330
A
100
AcDbEntity
  8
1
  6
solid
 62
     7
100
AcDbLine
 10
0.9344629205355785
 20
-0.171856337523951
 30
0.0
 11
0.9344629205355785
 21
-0.1747993004869139
 31
0.0
  0
LINE
  5
DC
330
A
100
AcDbEntity
  8
1
  6
solid
 62
     7
100
AcDbLine
 10
0.9344629205355785
 20
-0.1747993004869139
 30
0.0
 11
0.8921918094244674
 21
-0.1747993004869139
 31
0.0
  0
LINE
  5
DD
330
A
100
AcDbEntity
  8
1
  6
solid
 62
     7
100
AcDbLine
 10
0.8921918094244674
 20
-0.1747993004869139
 30
0.0
 11
0.8921918094244674
 21
-0.1717970782646917
 31
0.0
  0
SPLINE
  5
DE
330
A
100
AcDbEntity
  8
1
  6
solid
 62
     7
100
AcDbSpline
210
0.0
220
0.0
230
1.0
 70
     8
 71
     2
 72
     7
 73
     4
 74
     0
 42
0.0000000001
 43
0.0000000001
 40
0.0
 40
0.0
 40
0.0
 40
1.0
 40
2.0
 40
2.0
 40
2.0
 10
0.8921918094244674
 20
-0.1717970782646917
 30
0.0
 10
0.8973073649800229
 20
-0.1711137449313584
 30
0.0
 10
0.9015577353503932
 20
-0.1698022634498769
 30
0.0
 10
0.9029640316466895
 20
-0.1683130041906176
 30
0.0
  0
SPLINE
  5
DF
330
A
100
AcDbEntity
  8
1
  6
solid
 62
     7
100
AcDbSpline
210
0.0
220
0.0
230
1.0
 70
     8
 71
     2
 72
     7
 73
     4
 74
     0
 42
0.0000000001
 43
0.0000000001
 40
0.0
 40
0.0
 40
0.0
 40
1.0
 40
2.0
 40
2.0
 40
2.0
 10
0.9029640316466895
 20
-0.1683130041906176
 30
0.0
 10
0.9043703279429859
 20
-0.1664485597461732
 30
0.0
 10
0.905938476091134
 20
-0.1616174486350621
 30
0.0
 10
0.905938476091134
 20
-0.1562689301165436
 30
0.0
  0
LINE
  5
E0
330
A
100
AcDbEntity
  8
1
  6
solid
 62
     7
100
AcDbLine
 10
0.905938476091134
 20
-0.1562689301165436
 30
0.0
 11
0.905938476091134
 21
-0.0935200412276547
 31
0.0
  0
SPLINE
  5
E1
330
A
100
AcDbEntity
  8
1
  6
solid
 62
     7
100
AcDbSpline
210
0.0
220
0.0
230
1.0
 70
     8
 71
     2
 72
     6
 73
     3
 74
     0
 42
0.0000000001
 43
0.0000000001
 40
0.0
 40
0.0
 40
0.0
 40
1.0
 40
1.0
 40
1.0
 10
0.905938476091134
 20
-0.0935200412276547
 30
0.0
 10
0.9036592168318748
 20
-0.0937807819683954
 30
0.0
 10
0.9015577353503932
 20
-0.0937807819683954
 30
0.0
  0
SPLINE
  5
E2
330
A
100
AcDbEntity
  8
1
  6
solid
 62
     7
100
AcDbSpline
210
0.0
220
0.0
230
1.0
 70
     8
 71
     2
 72
     6
 73
     3
 74
     0
 42
0.0000000001
 43
0.0000000001
 40
0.0
 40
0.0
 40
0.0
 40
1.0
 40
1.0
 40
1.0
 10
0.9015577353503932
 20
-0.0937807819683954
 30
0.0
 10
0.8962329205355786
 20
-0.0937807819683954
 30
0.0
 10
0.8924051427578007
 20
-0.0923981893758029
 30
0.0
  0
LINE
  5
E3
330
A
100
AcDbEntity
  8
1
  6
solid
 62
     7
100
AcDbLine
 10
0.8924051427578007
 20
-0.0923981893758029
 30
0.0
 11
0.8924051427578007
 21
-0.0891511523387658
 31
0.0
  0
LINE
  5
E4
330
A
100
AcDbEntity
  8
1
  6
solid
 62
     7
100
AcDbLine
 10
0.8924051427578007
 20
-0.0891511523387658
 30
0.0
 11
0.8949688464615043
 21
-0.0891511523387658
 31
0.0
  0
SPLINE
  5
E5
330
A
100
AcDbEntity
  8
1
  6
solid
 62
     7
100
AcDbSpline
210
0.0
220
0.0
230
1.0
 70
     8
 71
     2
 72
     7
 73
     4
 74
     0
 42
0.0000000001
 43
0.0000000001
 40
0.0
 40
0.0
 40
0.0
 40
1.0
 40
2.0
 40
2.0
 40
2.0
 10
0.8949688464615043
 20
-0.0891511523387658
 30
0.0
 10
0.9001988464615045
 20
-0.0891511523387658
 30
0.0
 10
0.9089169946096525
 20
-0.0862555967832103
 30
0.0
 10
0.9145618094244674
 20
-0.0826648560424695
 30
0.0
  0
LINE
  5
E6
330
A
100
AcDbEntity
  8
1
  6
solid
 62
     7
100
AcDbLine
 10
0.9165803279429859
 20
-0.081049300486914
 30
0.0
 11
0.9145618094244674
 21
-0.0826648560424695
 31
0.0
  0
LINE
  5
E7
330
A
100
AcDbEntity
  8
1
  6
solid
 62
     7
100
AcDbLine
 10
0.9458736612763193
 20
-0.1377622634498769
 30
0.0
 11
0.9794384760911341
 21
-0.1377622634498769
 31
0.0
  0
LINE
  5
E8
330
A
100
AcDbEntity
  8
1
  6
solid
 62
     7
100
AcDbLine
 10
0.9794384760911341
 20
-0.1377622634498769
 30
0.0
 11
0.9794384760911341
 21
-0.1504937449313584
 31
0.0
  0
LINE
  5
E9
330
A
100
AcDbEntity
  8
1
  6
solid
 62
     7
100
AcDbLine
 10
0.9794384760911341
 20
-0.1504937449313584
 30
0.0
 11
0.9458736612763193
 21
-0.1504937449313584
 31
0.0
  0
LINE
  5
EA
330
A
100
AcDbEntity
  8
1
  6
solid
 62
     7
100
AcDbLine
 10
0.9458736612763193
 20
-0.1377622634498769
 30
0.0
 11
0.9458736612763193
 21
-0.1504937449313584
 31
0.0
  0
SPLINE
  5
EB
330
A
100
AcDbEntity
  8
1
  6
solid
 62
     7
100
AcDbSpline
210
0.0
220
0.0
230
1.0
 70
     8
 71
     2
 72
     6
 73
     3
 74
     0
 42
0.0000000001
 43
0.0000000001
 40
0.0
 40
0.0
 40
0.0
 40
1.0
 40
1.0
 40
1.0
 10
1.030288105720763
 20
-0.1255718930795065
 30
0.0
 10
1.051781068683726
 20
-0.1303793004869139
 30
0.0
 10
1.051781068683726
 20
-0.1478115227091362
 30
0.0
  0
SPLINE
  5
EC
330
A
100
AcDbEntity
  8
1
  6
solid
 62
     7
100
AcDbSpline
210
0.0
220
0.0
230
1.0
 70
     8
 71
     2
 72
     6
 73
     3
 74
     0
 42
0.0000000001
 43
0.0000000001
 40
0.0
 40
0.0
 40
0.0
 40
1.0
 40
1.0
 40
1.0
 10
1.051781068683726
 20
-0.1478115227091362
 30
0.0
 10
1.051781068683726
 20
-0.1536341153017288
 30
0.0
 10
1.048711809424467
 20
-0.1594567078943213
 30
0.0
  0
SPLINE
  5
ED
330
A
100
AcDbEntity
  8
1
  6
solid
 62
     7
100
AcDbSpline
210
0.0
220
0.0
230
1.0
 70
     8
 71
     2
 72
     7
 73
     4
 74
     0
 42
0.0000000001
 43
0.0000000001
 40
0.0
 40
0.0
 40
0.0
 40
1.0
 40
2.0
 40
2.0
 40
2.0
 10
1.048711809424467
 20
-0.1594567078943213
 30
0.0
 10
1.045097364980022
 20
-0.1671911523387658
 30
0.0
 10
1.028091809424467
 20
-0.1759567078943214
 30
0.0
 10
1.017248476091134
 20
-0.1759567078943214
 30
0.0
  0
SPLINE
  5
EE
330
A
100
AcDbEntity
  8
1
  6
solid
 62
     7
100
AcDbSpline
210
0.0
220
0.0
230
1.0
 70
     8
 71
     2
 72
     7
 73
     4
 74
     0
 42
0.0000000001
 43
0.0000000001
 40
0.0
 40
0.0
 40
0.0
 40
1.0
 40
2.0
 40
2.0
 40
2.0
 10
1.017248476091134
 20
-0.1759567078943214
 30
0.0
 10
1.010683290905948
 20
-0.1759567078943214
 30
0.0
 10
0.9998044020170599
 20
-0.1724015227091362
 30
0.0
 10
0.9963084760911339
 20
-0.1695178190054325
 30
0.0
  0
SPLINE
  5
EF
330
A
100
AcDbEntity
  8
1
  6
solid
 62
     7
100
AcDbSpline
210
0.0
220
0.0
230
1.0
 70
     8
 71
     2
 72
     7
 73
     4
 74
     0
 42
0.0000000001
 43
0.0000000001
 40
0.0
 40
0.0
 40
0.0
 40
1.0
 40
2.0
 40
2.0
 40
2.0
 10
0.9963084760911339
 20
-0.1695178190054325
 30
0.0
 10
0.9932866242392821
 20
-0.1666618930795065
 30
0.0
 10
0.9904384760911339
 20
-0.1597293004869139
 30
0.0
 10
0.9904384760911339
 20
-0.1561741153017288
 30
0.0
  0
SPLINE
  5
F0
330
A
100
AcDbEntity
  8
1
  6
solid
 62
     7
100
AcDbSpline
210
0.0
220
0.0
230
1.0
 70
     8
 71
     2
 72
     7
 73
     4
 74
     0
 42
0.0000000001
 43
0.0000000001
 40
0.0
 40
0.0
 40
0.0
 40
1.0
 40
2.0
 40
2.0
 40
2.0
 10
0.9904384760911339
 20
-0.1561741153017288
 30
0.0
 10
0.9904384760911339
 20
-0.1501026338202473
 30
0.0
 10
0.998848476091134
 20
-0.1412344856720991
 30
0.0
 10
1.0070451427578
 20
-0.1412344856720991
 30
0.0
  0
LINE
  5
F1
330
A
100
AcDbEntity
  8
1
  6
solid
 62
     7
100
AcDbLine
 10
1.0070451427578
 20
-0.1412344856720991
 30
0.0
 11
1.007799587202245
 21
-0.1441141153017288
 31
0.0
  0
SPLINE
  5
F2
330
A
100
AcDbEntity
  8
1
  6
solid
 62
     7
100
AcDbSpline
210
0.0
220
0.0
230
1.0
 70
     8
 71
     2
 72
     7
 73
     4
 74
     0
 42
0.0000000001
 43
0.0000000001
 40
0.0
 40
0.0
 40
0.0
 40
1.0
 40
2.0
 40
2.0
 40
2.0
 10
1.007799587202245
 20
-0.1441141153017288
 30
0.0
 10
1.004422179794837
 20
-0.1467252264128398
 30
0.0
 10
1.002012550165207
 20
-0.1516511523387658
 30
0.0
 10
1.002012550165207
 20
-0.1557948560424695
 30
0.0
  0
SPLINE
  5
F3
330
A
100
AcDbEntity
  8
1
  6
solid
 62
     7
100
AcDbSpline
210
0.0
220
0.0
230
1.0
 70
     8
 71
     2
 72
     6
 73
     3
 74
     0
 42
0.0000000001
 43
0.0000000001
 40
0.0
 40
0.0
 40
0.0
 40
1.0
 40
1.0
 40
1.0
 10
1.002012550165207
 20
-0.1557948560424695
 30
0.0
 10
1.002012550165207
 20
-0.1616055967832102
 30
0.0
 10
1.004682920535578
 20
-0.1654689301165435
 30
0.0
  0
SPLINE
  5
F4
330
A
100
AcDbEntity
  8
1
  6
solid
 62
     7
100
AcDbSpline
210
0.0
220
0.0
230
1.0
 70
     8
 71
     2
 72
     7
 73
     4
 74
     0
 42
0.0000000001
 43
0.0000000001
 40
0.0
 40
0.0
 40
0.0
 40
1.0
 40
2.0
 40
2.0
 40
2.0
 10
1.004682920535578
 20
-0.1654689301165435
 30
0.0
 10
1.007139957572615
 20
-0.1695059671535806
 30
0.0
 10
1.01389477238743
 20
-0.1724844856720991
 30
0.0
 10
1.017604031646689
 20
-0.1724844856720991
 30
0.0
  0
SPLINE
  5
F5
330
A
100
AcDbEntity
  8
1
  6
solid
 62
     7
100
AcDbSpline
210
0.0
220
0.0
230
1.0
 70
     8
 71
     2
 72
     6
 73
     3
 74
     0
 42
0.0000000001
 43
0.0000000001
 40
0.0
 40
0.0
 40
0.0
 40
1.0
 40
1.0
 40
1.0
 10
1.017604031646689
 20
-0.1724844856720991
 30
0.0
 10
1.026318105720763
 20
-0.1724844856720991
 30
0.0
 10
1.031220327942985
 20
-0.1661996708572843
 30
0.0
  0
SPLINE
  5
F6
330
A
100
AcDbEntity
  8
1
  6
solid
 62
     7
100
AcDbSpline
210
0.0
220
0.0
230
1.0
 70
     8
 71
     2
 72
     7
 73
     4
 74
     0
 42
0.0000000001
 43
0.0000000001
 40
0.0
 40
0.0
 40
0.0
 40
1.0
 40
2.0
 40
2.0
 40
2.0
 10
1.031220327942985
 20
-0.1661996708572843
 30
0.0
 10
1.033653661276319
 20
-0.162893374560988
 30
0.0
 10
1.03673477238743
 20
-0.1538118930795065
 30
0.0
 10
1.03673477238743
 20
-0.1492178190054325
 30
0.0
  0
SPLINE
  5
F7
330
A
100
AcDbEntity
  8
1
  6
solid
 62
     7
100
AcDbSpline
210
0.0
220
0.0
230
1.0
 70
     8
 71
     2
 72
     7
 73
     4
 74
     0
 42
0.0000000001
 43
0.0000000001
 40
0.0
 40
0.0
 40
0.0
 40
1.0
 40
2.0
 40
2.0
 40
2.0
 10
1.03673477238743
 20
-0.1492178190054325
 30
0.0
 10
1.03673477238743
 20
-0.1442918930795065
 30
0.0
 10
1.032828105720763
 20
-0.1347481893758029
 30
0.0
 10
1.030193290905948
 20
-0.1317737449313584
 30
0.0
  0
SPLINE
  5
F8
330
A
100
AcDbEntity
  8
1
  6
solid
 62
     7
100
AcDbSpline
210
0.0
220
0.0
230
1.0
 70
     8
 71
     2
 72
     6
 73
     3
 74
     0
 42
0.0000000001
 43
0.0000000001
 40
0.0
 40
0.0
 40
0.0
 40
1.0
 40
1.0
 40
1.0
 10
1.030193290905948
 20
-0.1317737449313584
 30
0.0
 10
1.026851439054097
 20
-0.1285030041906177
 30
0.0
 10
1.023213290905948
 20
-0.1285030041906177
 30
0.0
  0
SPLINE
  5
F9
330
A
100
AcDbEntity
  8
1
  6
solid
 62
     7
100
AcDbSpline
210
0.0
220
0.0
230
1.0
 70
     8
 71
     2
 72
     7
 73
     4
 74
     0
 42
0.0000000001
 43
0.0000000001
 40
0.0
 40
0.0
 40
0.0
 40
1.0
 40
2.0
 40
2.0
 40
2.0
 10
1.023213290905948
 20
-0.1285030041906177
 30
0.0
 10
1.022881439054097
 20
-0.1285030041906177
 30
0.0
 10
1.021218476091134
 20
-0.1292455967832102
 30
0.0
 10
1.019527735350393
 20
-0.1305926338202473
 30
0.0
  0
SPLINE
  5
FA
330
A
100
AcDbEntity
  8
1
  6
solid
 62
     7
100
AcDbSpline
210
0.0
220
0.0
230
1.0
 70
     8
 71
     2
 72
     6
 73
     3
 74
     0
 42
0.0000000001
 43
0.0000000001
 40
0.0
 40
0.0
 40
0.0
 40
1.0
 40
1.0
 40
1.0
 10
1.019527735350393
 20
-0.1305926338202473
 30
0.0
 10
1.015901439054097
 20
-0.1331326338202473
 30
0.0
 10
1.011971068683726
 20
-0.1331326338202473
 30
0.0
  0
SPLINE
  5
FB
330
A
100
AcDbEntity
  8
1
  6
solid
 62
     7
100
AcDbSpline
210
0.0
220
0.0
230
1.0
 70
     8
 71
     2
 72
     7
 73
     4
 74
     0
 42
0.0000000001
 43
0.0000000001
 40
0.0
 40
0.0
 40
0.0
 40
1.0
 40
2.0
 40
2.0
 40
2.0
 10
1.011971068683726
 20
-0.1331326338202473
 30
0.0
 10
1.009620698313356
 20
-0.1331326338202473
 30
0.0
 10
1.006642179794837
 20
-0.1305452264128399
 30
0.0
 10
1.006642179794837
 20
-0.128313374560988
 30
0.0
  0
SPLINE
  5
FC
330
A
100
AcDbEntity
  8
1
  6
solid
 62
     7
100
AcDbSpline
210
0.0
220
0.0
230
1.0
 70
     8
 71
     2
 72
     7
 73
     4
 74
     0
 42
0.0000000001
 43
0.0000000001
 40
0.0
 40
0.0
 40
0.0
 40
1.0
 40
2.0
 40
2.0
 40
2.0
 10
1.006642179794837
 20
-0.128313374560988
 30
0.0
 10
1.006642179794837
 20
-0.1258918930795065
 30
0.0
 10
1.010481809424467
 20
-0.1227159671535806
 30
0.0
 10
1.013586624239282
 20
-0.1227159671535806
 30
0.0
  0
SPLINE
  5
FD
330
A
100
AcDbEntity
  8
1
  6
solid
 62
     7
100
AcDbSpline
210
0.0
220
0.0
230
1.0
 70
     8
 71
     2
 72
     6
 73
     3
 74
     0
 42
0.0000000001
 43
0.0000000001
 40
0.0
 40
0.0
 40
0.0
 40
1.0
 40
1.0
 40
1.0
 10
1.013586624239282
 20
-0.1227159671535806
 30
0.0
 10
1.014981068683726
 20
-0.1231267078943214
 30
0.0
 10
1.016221439054096
 20
-0.1232926338202473
 30
0.0
  0
LINE
  5
FE
330
A
100
AcDbEntity
  8
1
  6
solid
 62
     7
100
AcDbLine
 10
1.016221439054096
 20
-0.1232926338202473
 30
0.0
 11
1.018690327942985
 21
-0.1236955967832102
 31
0.0
  0
SPLINE
  5
FF
330
A
100
AcDbEntity
  8
1
  6
solid
 62
     7
100
AcDbSpline
210
0.0
220
0.0
230
1.0
 70
     8
 71
     2
 72
     6
 73
     3
 74
     0
 42
0.0000000001
 43
0.0000000001
 40
0.0
 40
0.0
 40
0.0
 40
1.0
 40
1.0
 40
1.0
 10
1.018690327942985
 20
-0.1236955967832102
 30
0.0
 10
1.019800327942985
 20
-0.123873374560988
 30
0.0
 10
1.020827364980022
 20
-0.123873374560988
 30
0.0
  0
SPLINE
  5
100
330
A
100
AcDbEntity
  8
1
  6
solid
 62
     7
100
AcDbSpline
210
0.0
220
0.0
230
1.0
 70
     8
 71
     2
 72
     6
 73
     3
 74
     0
 42
0.0000000001
 43
0.0000000001
 40
0.0
 40
0.0
 40
0.0
 40
1.0
 40
1.0
 40
1.0
 10
1.020827364980022
 20
-0.123873374560988
 30
0.0
 10
1.024702550165208
 20
-0.123873374560988
 30
0.0
 10
1.028834402017059
 20
-0.1200218930795065
 30
0.0
  0
SPLINE
  5
101
330
A
100
AcDbEntity
  8
1
  6
solid
 62
     7
100
AcDbSpline
210
0.0
220
0.0
230
1.0
 70
     8
 71
     2
 72
     6
 73
     3
 74
     0
 42
0.0000000001
 43
0.0000000001
 40
0.0
 40
0.0
 40
0.0
 40
1.0
 40
1.0
 40
1.0
 10
1.028834402017059
 20
-0.1200218930795065
 30
0.0
 10
1.034419957572615
 20
-0.1142348560424695
 30
0.0
 10
1.034419957572615
 20
-0.1046793004869139
 30
0.0
  0
SPLINE
  5
102
330
A
100
AcDbEntity
  8
1
  6
solid
 62
     7
100
AcDbSpline
210
0.0
220
0.0
230
1.0
 70
     8
 71
     2
 72
     7
 73
     4
 74
     0
 42
0.0000000001
 43
0.0000000001
 40
0.0
 40
0.0
 40
0.0
 40
1.0
 40
2.0
 40
2.0
 40
2.0
 10
1.034419957572615
 20
-0.1046793004869139
 30
0.0
 10
1.034419957572615
 20
-0.0999904115980251
 30
0.0
 10
1.031362550165208
 20
-0.0910511523387658
 30
0.0
 10
1.028869957572615
 20
-0.0877567078943214
 30
0.0
  0
SPLINE
  5
103
330
A
100
AcDbEntity
  8
1
  6
solid
 62
     7
100
AcDbSpline
210
0.0
220
0.0
230
1.0
 70
     8
 71
     2
 72
     6
 73
     3
 74
     0
 42
0.0000000001
 43
0.0000000001
 40
0.0
 40
0.0
 40
0.0
 40
1.0
 40
1.0
 40
1.0
 10
1.028869957572615
 20
-0.0877567078943214
 30
0.0
 10
1.024441809424467
 20
-0.0822067078943214
 30
0.0
 10
1.018358476091133
 20
-0.0822067078943214
 30
0.0
  0
SPLINE
  5
104
330
A
100
AcDbEntity
  8
1
  6
solid
 62
     7
100
AcDbSpline
210
0.0
220
0.0
230
1.0
 70
     8
 71
     2
 72
     7
 73
     4
 74
     0
 42
0.0000000001
 43
0.0000000001
 40
0.0
 40
0.0
 40
0.0
 40
1.0
 40
2.0
 40
2.0
 40
2.0
 10
1.018358476091133
 20
-0.0822067078943214
 30
0.0
 10
1.013882920535578
 20
-0.0822067078943214
 30
0.0
 10
1.007799587202245
 20
-0.0885348560424695
 30
0.0
 10
1.007799587202245
 20
-0.0936504115980251
 30
0.0
  0
SPLINE
  5
105
330
A
100
AcDbEntity
  8
1
  6
solid
 62
     7
100
AcDbSpline
210
0.0
220
0.0
230
1.0
 70
     8
 71
     2
 72
     7
 73
     4
 74
     0
 42
0.0000000001
 43
0.0000000001
 40
0.0
 40
0.0
 40
0.0
 40
1.0
 40
2.0
 40
2.0
 40
2.0
 10
1.007799587202245
 20
-0.0936504115980251
 30
0.0
 10
1.007799587202245
 20
-0.0979126338202473
 30
0.0
 10
1.010706994609652
 20
-0.1028385597461732
 30
0.0
 10
1.01415551312817
 20
-0.1038774486350621
 30
0.0
  0
LINE
  5
106
330
A
100
AcDbEntity
  8
1
  6
solid
 62
     7
100
AcDbLine
 10
1.01415551312817
 20
-0.1038774486350621
 30
0.0
 11
1.014744031646689
 21
-0.1062159671535806
 31
0.0
  0
SPLINE
  5
107
330
A
100
AcDbEntity
  8
1
  6
solid
 62
     7
100
AcDbSpline
210
0.0
220
0.0
230
1.0
 70
     8
 71
     2
 72
     6
 73
     3
 74
     0
 42
0.0000000001
 43
0.0000000001
 40
0.0
 40
0.0
 40
0.0
 40
1.0
 40
1.0
 40
1.0
 10
1.014744031646689
 20
-0.1062159671535806
 30
0.0
 10
1.010481809424467
 20
-0.1076696708572843
 30
0.0
 10
1.007811439054096
 20
-0.1076696708572843
 30
0.0
  0
SPLINE
  5
108
330
A
100
AcDbEntity
  8
1
  6
solid
 62
     7
100
AcDbSpline
210
0.0
220
0.0
230
1.0
 70
     8
 71
     2
 72
     7
 73
     4
 74
     0
 42
0.0000000001
 43
0.0000000001
 40
0.0
 40
0.0
 40
0.0
 40
1.0
 40
2.0
 40
2.0
 40
2.0
 10
1.007811439054096
 20
-0.1076696708572843
 30
0.0
 10
1.002439216831874
 20
-0.1076696708572843
 30
0.0
 10
0.9962255131281709
 20
-0.101503374560988
 30
0.0
 10
0.9962255131281709
 20
-0.096589300486914
 30
0.0
  0
SPLINE
  5
109
330
A
100
AcDbEntity
  8
1
  6
solid
 62
     7
100
AcDbSpline
210
0.0
220
0.0
230
1.0
 70
     8
 71
     2
 72
     7
 73
     4
 74
     0
 42
0.0000000001
 43
0.0000000001
 40
0.0
 40
0.0
 40
0.0
 40
1.0
 40
2.0
 40
2.0
 40
2.0
 10
0.9962255131281709
 20
-0.096589300486914
 30
0.0
 10
0.9962255131281709
 20
-0.0889970782646917
 30
0.0
 10
1.009596994609652
 20
-0.0787344856720991
 30
0.0
 10
1.01944477238743
 20
-0.0787344856720991
 30
0.0
  0
SPLINE
  5
10A
330
A
100
AcDbEntity
  8
1
  6
solid
 62
     7
100
AcDbSpline
210
0.0
220
0.0
230
1.0
 70
     8
 71
     2
 72
     7
 73
     4
 74
     0
 42
0.0000000001
 43
0.0000000001
 40
0.0
 40
0.0
 40
0.0
 40
1.0
 40
2.0
 40
2.0
 40
2.0
 10
1.01944477238743
 20
-0.0787344856720991
 30
0.0
 10
1.025409587202245
 20
-0.0787344856720991
 30
0.0
 10
1.036782179794837
 20
-0.0829137449313584
 30
0.0
 10
1.040289957572615
 20
-0.0861844856720992
 30
0.0
  0
SPLINE
  5
10B
330
A
100
AcDbEntity
  8
1
  6
solid
 62
     7
100
AcDbSpline
210
0.0
220
0.0
230
1.0
 70
     8
 71
     2
 72
     7
 73
     4
 74
     0
 42
0.0000000001
 43
0.0000000001
 40
0.0
 40
0.0
 40
0.0
 40
1.0
 40
2.0
 40
2.0
 40
2.0
 10
1.040289957572615
 20
-0.0861844856720992
 30
0.0
 10
1.044188846461504
 20
-0.0898107819683954
 30
0.0
 10
1.048308846461504
 20
-0.0983511523387658
 30
0.0
 10
1.048308846461504
 20
-0.1030400412276547
 30
0.0
  0
SPLINE
  5
10C
330
A
100
AcDbEntity
  8
1
  6
solid
 62
     7
100
AcDbSpline
210
0.0
220
0.0
230
1.0
 70
     8
 71
     2
 72
     6
 73
     3
 74
     0
 42
0.0000000001
 43
0.0000000001
 40
0.0
 40
0.0
 40
0.0
 40
1.0
 40
1.0
 40
1.0
 10
1.048308846461504
 20
-0.1030400412276547
 30
0.0
 10
1.048308846461504
 20
-0.1133618930795065
 30
0.0
 10
1.03959477238743
 20
-0.1209067078943214
 30
0.0
  0
SPLINE
  5
10D
330
A
100
AcDbEntity
  8
1
  6
solid
 62
     7
100
AcDbSpline
210
0.0
220
0.0
230
1.0
 70
     8
 71
     2
 72
     6
 73
     3
 74
     0
 42
0.0000000001
 43
0.0000000001
 40
0.0
 40
0.0
 40
0.0
 40
1.0
 40
1.0
 40
1.0
 10
1.03959477238743
 20
-0.1209067078943214
 30
0.0
 10
1.036122550165208
 20
-0.1236600412276547
 30
0.0
 10
1.030288105720763
 20
-0.1255718930795065
 30
0.0
  0
LINE
  5
10E
330
A
100
AcDbEntity
  8
1
  6
solid
 62
     7
100
AcDbLine
 10
1.062781068683726
 20
-0.1910030041906176
 30
0.0
 11
1.103515513128171
 21
-0.0775770782646918
 31
0.0
  0
LINE
  5
10F
330
A
100
AcDbEntity
  8
1
  6
solid
 62
     7
100
AcDbLine
 10
1.103515513128171
 20
-0.0775770782646918
 30
0.0
 11
1.111392179794837
 21
-0.0775770782646918
 31
0.0
  0
LINE
  5
110
330
A
100
AcDbEntity
  8
1
  6
solid
 62
     7
100
AcDbLine
 10
1.111392179794837
 20
-0.0775770782646918
 30
0.0
 11
1.070211439054096
 21
-0.1910030041906176
 31
0.0
  0
LINE
  5
111
330
A
100
AcDbEntity
  8
1
  6
solid
 62
     7
100
AcDbLine
 10
1.062781068683726
 20
-0.1910030041906176
 30
0.0
 11
1.070211439054096
 21
-0.1910030041906176
 31
0.0
  0
SPLINE
  5
112
330
A
100
AcDbEntity
  8
1
  6
solid
 62
     7
100
AcDbSpline
210
0.0
220
0.0
230
1.0
 70
     8
 71
     2
 72
     7
 73
     4
 74
     0
 42
0.0000000001
 43
0.0000000001
 40
0.0
 40
0.0
 40
0.0
 40
1.0
 40
2.0
 40
2.0
 40
2.0
 10
1.161850698313356
 20
-0.1225974486350621
 30
0.0
 10
1.165927364980023
 20
-0.1248174486350621
 30
0.0
 10
1.172385883498541
 20
-0.1295300412276547
 30
0.0
 10
1.174511068683726
 20
-0.1318567078943214
 30
0.0
  0
SPLINE
  5
113
330
A
100
AcDbEntity
  8
1
  6
solid
 62
     7
100
AcDbSpline
210
0.0
220
0.0
230
1.0
 70
     8
 71
     2
 72
     6
 73
     3
 74
     0
 42
0.0000000001
 43
0.0000000001
 40
0.0
 40
0.0
 40
0.0
 40
1.0
 40
1.0
 40
1.0
 10
1.174511068683726
 20
-0.1318567078943214
 30
0.0
 10
1.181419957572615
 20
-0.1397689301165436
 30
0.0
 10
1.181419957572615
 20
-0.1499130041906176
 30
0.0
  0
SPLINE
  5
114
330
A
100
AcDbEntity
  8
1
  6
solid
 62
     7
100
AcDbSpline
210
0.0
220
0.0
230
1.0
 70
     8
 71
     2
 72
     6
 73
     3
 74
     0
 42
0.0000000001
 43
0.0000000001
 40
0.0
 40
0.0
 40
0.0
 40
1.0
 40
1.0
 40
1.0
 10
1.181419957572615
 20
-0.1499130041906176
 30
0.0
 10
1.181419957572615
 20
-0.1605548560424695
 30
0.0
 10
1.173495883498541
 20
-0.1684196708572843
 30
0.0
  0
SPLINE
  5
115
330
A
100
AcDbEntity
  8
1
  6
solid
 62
     7
100
AcDbSpline
210
0.0
220
0.0
230
1.0
 70
     8
 71
     2
 72
     6
 73
     3
 74
     0
 42
0.0000000001
 43
0.0000000001
 40
0.0
 40
0.0
 40
0.0
 40
1.0
 40
1.0
 40
1.0
 10
1.173495883498541
 20
-0.1684196708572843
 30
0.0
 10
1.165571809424467
 20
-0.1759567078943214
 30
0.0
 10
1.151967364980023
 20
-0.1759567078943214
 30
0.0
  0
SPLINE
  5
116
330
A
100
AcDbEntity
  8
1
  6
solid
 62
     7
100
AcDbSpline
210
0.0
220
0.0
230
1.0
 70
     8
 71
     2
 72
     6
 73
     3
 74
     0
 42
0.0000000001
 43
0.0000000001
 40
0.0
 40
0.0
 40
0.0
 40
1.0
 40
1.0
 40
1.0
 10
1.151967364980023
 20
-0.1759567078943214
 30
0.0
 10
1.138066624239282
 20
-0.1759567078943214
 30
0.0
 10
1.129585513128171
 20
-0.1676770782646917
 30
0.0
  0
SPLINE
  5
117
330
A
100
AcDbEntity
  8
1
  6
solid
 62
     7
100
AcDbSpline
210
0.0
220
0.0
230
1.0
 70
     8
 71
     2
 72
     6
 73
     3
 74
     0
 42
0.0000000001
 43
0.0000000001
 40
0.0
 40
0.0
 40
0.0
 40
1.0
 40
1.0
 40
1.0
 10
1.129585513128171
 20
-0.1676770782646917
 30
0.0
 10
1.122392179794837
 20
-0.1606259671535806
 30
0.0
 10
1.122392179794837
 20
-0.1510111523387658
 30
0.0
  0
SPLINE
  5
118
330
A
100
AcDbEntity
  8
1
  6
solid
 62
     7
100
AcDbSpline
210
0.0
220
0.0
230
1.0
 70
     8
 71
     2
 72
     6
 73
     3
 74
     0
 42
0.0000000001
 43
0.0000000001
 40
0.0
 40
0.0
 40
0.0
 40
1.0
 40
1.0
 40
1.0
 10
1.122392179794837
 20
-0.1510111523387658
 30
0.0
 10
1.122392179794837
 20
-0.1405470782646917
 30
0.0
 10
1.13075477238743
 20
-0.1336144856720991
 30
0.0
  0
SPLINE
  5
119
330
A
100
AcDbEntity
  8
1
  6
solid
 62
     7
100
AcDbSpline
210
0.0
220
0.0
230
1.0
 70
     8
 71
     2
 72
     6
 73
     3
 74
     0
 42
0.0000000001
 43
0.0000000001
 40
0.0
 40
0.0
 40
0.0
 40
1.0
 40
1.0
 40
1.0
 10
1.13075477238743
 20
-0.1336144856720991
 30
0.0
 10
1.134286253868911
 20
-0.1304978190054325
 30
0.0
 10
1.142542179794837
 20
-0.1270848560424695
 30
0.0
  0
SPLINE
  5
11A
330
A
100
AcDbEntity
  8
1
  6
solid
 62
     7
100
AcDbSpline
210
0.0
220
0.0
230
1.0
 70
     8
 71
     2
 72
     6
 73
     3
 74
     0
 42
0.0000000001
 43
0.0000000001
 40
0.0
 40
0.0
 40
0.0
 40
1.0
 40
1.0
 40
1.0
 10
1.142542179794837
 20
-0.1270848560424695
 30
0.0
 10
1.134665513128171
 20
-0.124343374560988
 30
0.0
 10
1.130553290905948
 20
-0.1188526338202473
 30
0.0
  0
SPLINE
  5
11B
330
A
100
AcDbEntity
  8
1
  6
solid
 62
     7
100
AcDbSpline
210
0.0
220
0.0
230
1.0
 70
     8
 71
     2
 72
     6
 73
     3
 74
     0
 42
0.0000000001
 43
0.0000000001
 40
0.0
 40
0.0
 40
0.0
 40
1.0
 40
1.0
 40
1.0
 10
1.130553290905948
 20
-0.1188526338202473
 30
0.0
 10
1.124706994609652
 20
-0.1119081893758028
 30
0.0
 10
1.124706994609652
 20
-0.1029215227091362
 30
0.0
  0
SPLINE
  5
11C
330
A
100
AcDbEntity
  8
1
  6
solid
 62
     7
100
AcDbSpline
210
0.0
220
0.0
230
1.0
 70
     8
 71
     2
 72
     6
 73
     3
 74
     0
 42
0.0000000001
 43
0.0000000001
 40
0.0
 40
0.0
 40
0.0
 40
1.0
 40
1.0
 40
1.0
 10
1.124706994609652
 20
-0.1029215227091362
 30
0.0
 10
1.124706994609652
 20
-0.0934726338202473
 30
0.0
 10
1.130920698313356
 20
-0.0866941153017288
 30
0.0
  0
SPLINE
  5
11D
330
A
100
AcDbEntity
  8
1
  6
solid
 62
     7
100
AcDbSpline
210
0.0
220
0.0
230
1.0
 70
     8
 71
     2
 72
     7
 73
     4
 74
     0
 42
0.0000000001
 43
0.0000000001
 40
0.0
 40
0.0
 40
0.0
 40
1.0
 40
2.0
 40
2.0
 40
2.0
 10
1.130920698313356
 20
-0.0866941153017288
 30
0.0
 10
1.134487735350393
 20
-0.0830322634498769
 30
0.0
 10
1.144856994609652
 20
-0.0787344856720991
 30
0.0
 10
1.150703290905948
 20
-0.0787344856720991
 30
0.0
  0
SPLINE
  5
11E
330
A
100
AcDbEntity
  8
1
  6
solid
 62
     7
100
AcDbSpline
210
0.0
220
0.0
230
1.0
 70
     8
 71
     2
 72
     7
 73
     4
 74
     0
 42
0.0000000001
 43
0.0000000001
 40
0.0
 40
0.0
 40
0.0
 40
1.0
 40
2.0
 40
2.0
 40
2.0
 10
1.150703290905948
 20
-0.0787344856720991
 30
0.0
 10
1.156336253868911
 20
-0.0787344856720991
 30
0.0
 10
1.166835883498541
 20
-0.0826530041906177
 30
0.0
 10
1.170189587202245
 20
-0.0852641153017288
 30
0.0
  0
SPLINE
  5
11F
330
A
100
AcDbEntity
  8
1
  6
solid
 62
     7
100
AcDbSpline
210
0.0
220
0.0
230
1.0
 70
     8
 71
     2
 72
     6
 73
     3
 74
     0
 42
0.0000000001
 43
0.0000000001
 40
0.0
 40
0.0
 40
0.0
 40
1.0
 40
1.0
 40
1.0
 10
1.170189587202245
 20
-0.0852641153017288
 30
0.0
 10
1.177947735350393
 20
-0.0914541153017288
 30
0.0
 10
1.177947735350393
 20
-0.1005711523387658
 30
0.0
  0
SPLINE
  5
120
330
A
100
AcDbEntity
  8
1
  6
solid
 62
     7
100
AcDbSpline
210
0.0
220
0.0
230
1.0
 70
     8
 71
     2
 72
     6
 73
     3
 74
     0
 42
0.0000000001
 43
0.0000000001
 40
0.0
 40
0.0
 40
0.0
 40
1.0
 40
1.0
 40
1.0
 10
1.177947735350393
 20
-0.1005711523387658
 30
0.0
 10
1.177947735350393
 20
-0.1092615227091362
 30
0.0
 10
1.171358846461504
 20
-0.1156530041906177
 30
0.0
  0
SPLINE
  5
121
330
A
100
AcDbEntity
  8
1
  6
solid
 62
     7
100
AcDbSpline
210
0.0
220
0.0
230
1.0
 70
     8
 71
     2
 72
     6
 73
     3
 74
     0
 42
0.0000000001
 43
0.0000000001
 40
0.0
 40
0.0
 40
0.0
 40
1.0
 40
1.0
 40
1.0
 10
1.171358846461504
 20
-0.1156530041906177
 30
0.0
 10
1.168889957572615
 20
-0.1186274486350621
 30
0.0
 10
1.161850698313356
 20
-0.1225974486350621
 30
0.0
  0
SPLINE
  5
122
330
A
100
AcDbEntity
  8
1
  6
solid
 62
     7
100
AcDbSpline
210
0.0
220
0.0
230
1.0
 70
     8
 71
     2
 72
     7
 73
     4
 74
     0
 42
0.0000000001
 43
0.0000000001
 40
0.0
 40
0.0
 40
0.0
 40
1.0
 40
2.0
 40
2.0
 40
2.0
 10
1.156158476091134
 20
-0.1201996708572843
 30
0.0
 10
1.159689957572615
 20
-0.1169170782646917
 30
0.0
 10
1.164058846461504
 20
-0.1074326338202473
 30
0.0
 10
1.164058846461504
 20
-0.1014678190054325
 30
0.0
  0
SPLINE
  5
123
330
A
100
AcDbEntity
  8
1
  6
solid
 62
     7
100
AcDbSpline
210
0.0
220
0.0
230
1.0
 70
     8
 71
     2
 72
     7
 73
     4
 74
     0
 42
0.0000000001
 43
0.0000000001
 40
0.0
 40
0.0
 40
0.0
 40
1.0
 40
2.0
 40
2.0
 40
2.0
 10
1.164058846461504
 20
-0.1014678190054325
 30
0.0
 10
1.164058846461504
 20
-0.0931526338202473
 30
0.0
 10
1.155968846461504
 20
-0.0822067078943214
 30
0.0
 10
1.149534031646689
 20
-0.0822067078943214
 30
0.0
  0
SPLINE
  5
124
330
A
100
AcDbEntity
  8
1
  6
solid
 62
     7
100
AcDbSpline
210
0.0
220
0.0
230
1.0
 70
     8
 71
     2
 72
     7
 73
     4
 74
     0
 42
0.0000000001
 43
0.0000000001
 40
0.0
 40
0.0
 40
0.0
 40
1.0
 40
2.0
 40
2.0
 40
2.0
 10
1.149534031646689
 20
-0.0822067078943214
 30
0.0
 10
1.144643661276319
 20
-0.0822067078943214
 30
0.0
 10
1.137438476091134
 20
-0.0909800412276547
 30
0.0
 10
1.137438476091134
 20
-0.0982089301165436
 30
0.0
  0
SPLINE
  5
125
330
A
100
AcDbEntity
  8
1
  6
solid
 62
     7
100
AcDbSpline
210
0.0
220
0.0
230
1.0
 70
     8
 71
     2
 72
     6
 73
     3
 74
     0
 42
0.0000000001
 43
0.0000000001
 40
0.0
 40
0.0
 40
0.0
 40
1.0
 40
1.0
 40
1.0
 10
1.137438476091134
 20
-0.0982089301165436
 30
0.0
 10
1.137438476091134
 20
-0.1081041153017288
 30
0.0
 10
1.1445251427578
 20
-0.1134448560424695
 30
0.0
  0
SPLINE
  5
126
330
A
100
AcDbEntity
  8
1
  6
solid
 62
     7
100
AcDbSpline
210
0.0
220
0.0
230
1.0
 70
     8
 71
     2
 72
     6
 73
     3
 74
     0
 42
0.0000000001
 43
0.0000000001
 40
0.0
 40
0.0
 40
0.0
 40
1.0
 40
1.0
 40
1.0
 10
1.1445251427578
 20
-0.1134448560424695
 30
0.0
 10
1.149107364980022
 20
-0.1174107819683954
 30
0.0
 10
1.156158476091134
 20
-0.1201996708572843
 30
0.0
  0
SPLINE
  5
127
330
A
100
AcDbEntity
  8
1
  6
solid
 62
     7
100
AcDbSpline
210
0.0
220
0.0
230
1.0
 70
     8
 71
     2
 72
     7
 73
     4
 74
     0
 42
0.0000000001
 43
0.0000000001
 40
0.0
 40
0.0
 40
0.0
 40
1.0
 40
2.0
 40
2.0
 40
2.0
 10
1.146709587202245
 20
-0.1294826338202473
 30
0.0
 10
1.142079957572615
 20
-0.1337330041906176
 30
0.0
 10
1.136281068683726
 20
-0.1452359671535806
 30
0.0
 10
1.136281068683726
 20
-0.1525004115980251
 30
0.0
  0
SPLINE
  5
128
330
A
100
AcDbEntity
  8
1
  6
solid
 62
     7
100
AcDbSpline
210
0.0
220
0.0
230
1.0
 70
     8
 71
     2
 72
     6
 73
     3
 74
     0
 42
0.0000000001
 43
0.0000000001
 40
0.0
 40
0.0
 40
0.0
 40
1.0
 40
1.0
 40
1.0
 10
1.136281068683726
 20
-0.1525004115980251
 30
0.0
 10
1.136281068683726
 20
-0.1616293004869139
 30
0.0
 10
1.14027477238743
 20
-0.1666855967832102
 30
0.0
  0
SPLINE
  5
129
330
A
100
AcDbEntity
  8
1
  6
solid
 62
     7
100
AcDbSpline
210
0.0
220
0.0
230
1.0
 70
     8
 71
     2
 72
     6
 73
     3
 74
     0
 42
0.0000000001
 43
0.0000000001
 40
0.0
 40
0.0
 40
0.0
 40
1.0
 40
1.0
 40
1.0
 10
1.14027477238743
 20
-0.1666855967832102
 30
0.0
 10
1.144951809424467
 20
-0.1724844856720991
 30
0.0
 10
1.151943661276319
 20
-0.1724844856720991
 30
0.0
  0
SPLINE
  5
12A
330
A
100
AcDbEntity
  8
1
  6
solid
 62
     7
100
AcDbSpline
210
0.0
220
0.0
230
1.0
 70
     8
 71
     2
 72
     6
 73
     3
 74
     0
 42
0.0000000001
 43
0.0000000001
 40
0.0
 40
0.0
 40
0.0
 40
1.0
 40
1.0
 40
1.0
 10
1.151943661276319
 20
-0.1724844856720991
 30
0.0
 10
1.158698476091134
 20
-0.1724844856720991
 30
0.0
 10
1.162478846461504
 20
-0.1683604115980251
 30
0.0
  0
SPLINE
  5
12B
330
A
100
AcDbEntity
  8
1
  6
solid
 62
     7
100
AcDbSpline
210
0.0
220
0.0
230
1.0
 70
     8
 71
     2
 72
     7
 73
     4
 74
     0
 42
0.0000000001
 43
0.0000000001
 40
0.0
 40
0.0
 40
0.0
 40
1.0
 40
2.0
 40
2.0
 40
2.0
 10
1.162478846461504
 20
-0.1683604115980251
 30
0.0
 10
1.164710698313356
 20
-0.1659626338202473
 30
0.0
 10
1.167531068683726
 20
-0.1584889301165436
 30
0.0
 10
1.167531068683726
 20
-0.1547322634498769
 30
0.0
  0
SPLINE
  5
12C
330
A
100
AcDbEntity
  8
1
  6
solid
 62
     7
100
AcDbSpline
210
0.0
220
0.0
230
1.0
 70
     8
 71
     2
 72
     6
 73
     3
 74
     0
 42
0.0000000001
 43
0.0000000001
 40
0.0
 40
0.0
 40
0.0
 40
1.0
 40
1.0
 40
1.0
 10
1.167531068683726
 20
-0.1547322634498769
 30
0.0
 10
1.167531068683726
 20
-0.1456270782646917
 30
0.0
 10
1.161013290905948
 20
-0.1394015227091362
 30
0.0
  0
SPLINE
  5
12D
330
A
100
AcDbEntity
  8
1
  6
solid
 62
     7
100
AcDbSpline
210
0.0
220
0.0
230
1.0
 70
     8
 71
     2
 72
     6
 73
     3
 74
     0
 42
0.0000000001
 43
0.0000000001
 40
0.0
 40
0.0
 40
0.0
 40
1.0
 40
1.0
 40
1.0
 10
1.161013290905948
 20
-0.1394015227091362
 30
0.0
 10
1.156217735350393
 20
-0.1341004115980251
 30
0.0
 10
1.146709587202245
 20
-0.1294826338202473
 30
0.0
  0
LINE
  5
12F
330
A
100
AcDbEntity
  8
0
  6
solid
 62
     7
100
AcDbLine
 10
0.9795570698466779
 20
0.3747870528109029
 30
0.0
 11
0.9795570698466779
 21
0.499787052810903
 31
0.0
  0
LINE
  5
130
330
A
100
AcDbEntity
  8
0
  6
solid
 62
     7
100
AcDbLine
 10
0.9795570698466779
 20
0.499787052810903
 30
0.0
 11
1.003107794484359
 21
0.499787052810903
 31
0.0
  0
LINE
  5
131
330
A
100
AcDbEntity
  8
0
  6
solid
 62
     7
100
AcDbLine
 10
1.003107794484359
 20
0.499787052810903
 30
0.0
 11
1.003107794484359
 21
0.3965261832456855
 31
0.0
  0
LINE
  5
132
330
A
100
AcDbEntity
  8
0
  6
solid
 62
     7
100
AcDbLine
 10
1.003107794484359
 20
0.3965261832456855
 30
0.0
 11
1.068325185788707
 21
0.3965261832456855
 31
0.0
  0
LINE
  5
133
330
A
100
AcDbEntity
  8
0
  6
solid
 62
     7
100
AcDbLine
 10
1.068325185788707
 20
0.3965261832456855
 30
0.0
 11
1.068325185788707
 21
0.3747870528109029
 31
0.0
  0
LINE
  5
134
330
A
100
AcDbEntity
  8
0
  6
solid
 62
     7
100
AcDbLine
 10
0.9795570698466779
 20
0.3747870528109029
 30
0.0
 11
1.068325185788707
 21
0.3747870528109029
 31
0.0
  0
LINE
  5
135
330
A
100
AcDbEntity
  8
0
  6
solid
 62
     7
100
AcDbLine
 10
1.141243011875663
 20
0.3747870528109029
 30
0.0
 11
1.117692287237982
 21
0.3747870528109029
 31
0.0
  0
LINE
  5
136
330
A
100
AcDbEntity
  8
0
  6
solid
 62
     7
100
AcDbLine
 10
1.117692287237982
 20
0.3747870528109029
 30
0.0
 11
1.117692287237982
 21
0.4645754586080044
 31
0.0
  0
SPLINE
  5
137
330
A
100
AcDbEntity
  8
0
  6
solid
 62
     7
100
AcDbSpline
210
0.0
220
0.0
230
1.0
 70
     8
 71
     2
 72
     6
 73
     3
 74
     0
 42
0.0000000001
 43
0.0000000001
 40
0.0
 40
0.0
 40
0.0
 40
1.0
 40
1.0
 40
1.0
 10
1.117692287237982
 20
0.4645754586080044
 30
0.0
 10
1.104127069846678
 20
0.4514861832456856
 30
0.0
 10
1.086895185788707
 20
0.4454392267239464
 30
0.0
  0
LINE
  5
138
330
A
100
AcDbEntity
  8
0
  6
solid
 62
     7
100
AcDbLine
 10
1.086895185788707
 20
0.4454392267239464
 30
0.0
 11
1.086895185788707
 21
0.4689899513616276
 31
0.0
  0
SPLINE
  5
139
330
A
100
AcDbEntity
  8
0
  6
solid
 62
     7
100
AcDbSpline
210
0.0
220
0.0
230
1.0
 70
     8
 71
     2
 72
     7
 73
     4
 74
     0
 42
0.0000000001
 43
0.0000000001
 40
0.0
 40
0.0
 40
0.0
 40
1.0
 40
2.0
 40
2.0
 40
2.0
 10
1.086895185788707
 20
0.4689899513616276
 30
0.0
 10
1.096101562600301
 20
0.4715806759993087
 30
0.0
 10
1.117859243759721
 20
0.4881261832456855
 30
0.0
 10
1.121760693035083
 20
0.499787052810903
 30
0.0
  0
LINE
  5
13A
330
A
100
AcDbEntity
  8
0
  6
solid
 62
     7
100
AcDbLine
 10
1.121760693035083
 20
0.499787052810903
 30
0.0
 11
1.141243011875663
 21
0.499787052810903
 31
0.0
  0
LINE
  5
13B
330
A
100
AcDbEntity
  8
0
  6
solid
 62
     7
100
AcDbLine
 10
1.141243011875663
 20
0.3747870528109029
 30
0.0
 11
1.141243011875663
 21
0.499787052810903
 31
0.0
  0
LINE
  5
13C
330
A
100
AcDbEntity
  8
0
  6
solid
 62
     7
100
AcDbLine
 10
1.246769533614794
 20
0.3983377774485841
 30
0.0
 11
1.246769533614794
 21
0.3747870528109029
 31
0.0
  0
LINE
  5
13D
330
A
100
AcDbEntity
  8
0
  6
solid
 62
     7
100
AcDbLine
 10
1.246769533614794
 20
0.3747870528109029
 30
0.0
 11
1.165247794484359
 21
0.3747870528109029
 31
0.0
  0
SPLINE
  5
13E
330
A
100
AcDbEntity
  8
0
  6
solid
 62
     7
100
AcDbSpline
210
0.0
220
0.0
230
1.0
 70
     8
 71
     2
 72
     7
 73
     4
 74
     0
 42
0.0000000001
 43
0.0000000001
 40
0.0
 40
0.0
 40
0.0
 40
1.0
 40
2.0
 40
2.0
 40
2.0
 10
1.165247794484359
 20
0.3747870528109029
 30
0.0
 10
1.16611967854233
 20
0.3866212557094537
 30
0.0
 10
1.179759098832185
 20
0.4092073426659754
 30
0.0
 10
1.198746924919141
 20
0.4274160383181493
 30
0.0
  0
SPLINE
  5
13F
330
A
100
AcDbEntity
  8
0
  6
solid
 62
     7
100
AcDbSpline
210
0.0
220
0.0
230
1.0
 70
     8
 71
     2
 72
     6
 73
     3
 74
     0
 42
0.0000000001
 43
0.0000000001
 40
0.0
 40
0.0
 40
0.0
 40
1.0
 40
1.0
 40
1.0
 10
1.198746924919141
 20
0.4274160383181493
 30
0.0
 10
1.214643156803199
 20
0.4420757484630769
 30
0.0
 10
1.218210693035084
 20
0.4473806759993087
 30
0.0
  0
SPLINE
  5
140
330
A
100
AcDbEntity
  8
0
  6
solid
 62
     7
100
AcDbSpline
210
0.0
220
0.0
230
1.0
 70
     8
 71
     2
 72
     6
 73
     3
 74
     0
 42
0.0000000001
 43
0.0000000001
 40
0.0
 40
0.0
 40
0.0
 40
1.0
 40
1.0
 40
1.0
 10
1.218210693035084
 20
0.4473806759993087
 30
0.0
 10
1.223218808977112
 20
0.4546456035355406
 30
0.0
 10
1.223218808977112
 20
0.4617806759993087
 30
0.0
  0
SPLINE
  5
141
330
A
100
AcDbEntity
  8
0
  6
solid
 62
     7
100
AcDbSpline
210
0.0
220
0.0
230
1.0
 70
     8
 71
     2
 72
     7
 73
     4
 74
     0
 42
0.0000000001
 43
0.0000000001
 40
0.0
 40
0.0
 40
0.0
 40
1.0
 40
2.0
 40
2.0
 40
2.0
 10
1.223218808977112
 20
0.4617806759993087
 30
0.0
 10
1.223218808977112
 20
0.4694166180282943
 30
0.0
 10
1.214568953904649
 20
0.4780479223761203
 30
0.0
 10
1.207192722020591
 20
0.4780479223761203
 30
0.0
  0
SPLINE
  5
142
330
A
100
AcDbEntity
  8
0
  6
solid
 62
     7
100
AcDbSpline
210
0.0
220
0.0
230
1.0
 70
     8
 71
     2
 72
     7
 73
     4
 74
     0
 42
0.0000000001
 43
0.0000000001
 40
0.0
 40
0.0
 40
0.0
 40
1.0
 40
2.0
 40
2.0
 40
2.0
 10
1.207192722020591
 20
0.4780479223761203
 30
0.0
 10
1.199872142310446
 20
0.4780479223761203
 30
0.0
 10
1.191055330716243
 20
0.4694351687529319
 30
0.0
 10
1.190610113324938
 20
0.4599319803471348
 30
0.0
  0
LINE
  5
143
330
A
100
AcDbEntity
  8
0
  6
solid
 62
     7
100
AcDbLine
 10
1.190610113324938
 20
0.4599319803471348
 30
0.0
 11
1.167059388687257
 21
0.462003284694961
 31
0.0
  0
SPLINE
  5
144
330
A
100
AcDbEntity
  8
0
  6
solid
 62
     7
100
AcDbSpline
210
0.0
220
0.0
230
1.0
 70
     8
 71
     2
 72
     7
 73
     4
 74
     0
 42
0.0000000001
 43
0.0000000001
 40
0.0
 40
0.0
 40
0.0
 40
1.0
 40
2.0
 40
2.0
 40
2.0
 10
1.167059388687257
 20
0.462003284694961
 30
0.0
 10
1.169056490136533
 20
0.4820606759993087
 30
0.0
 10
1.191036779991605
 20
0.499787052810903
 30
0.0
 10
1.207526635064069
 20
0.499787052810903
 30
0.0
  0
SPLINE
  5
145
330
A
100
AcDbEntity
  8
0
  6
solid
 62
     7
100
AcDbSpline
210
0.0
220
0.0
230
1.0
 70
     8
 71
     2
 72
     7
 73
     4
 74
     0
 42
0.0000000001
 43
0.0000000001
 40
0.0
 40
0.0
 40
0.0
 40
1.0
 40
2.0
 40
2.0
 40
2.0
 10
1.207526635064069
 20
0.499787052810903
 30
0.0
 10
1.225661127817692
 20
0.499787052810903
 30
0.0
 10
1.246769533614794
 20
0.4800635745500334
 30
0.0
 10
1.246769533614794
 20
0.4655337194775697
 30
0.0
  0
SPLINE
  5
146
330
A
100
AcDbEntity
  8
0
  6
solid
 62
     7
100
AcDbSpline
210
0.0
220
0.0
230
1.0
 70
     8
 71
     2
 72
     7
 73
     4
 74
     0
 42
0.0000000001
 43
0.0000000001
 40
0.0
 40
0.0
 40
0.0
 40
1.0
 40
2.0
 40
2.0
 40
2.0
 10
1.246769533614794
 20
0.4655337194775697
 30
0.0
 10
1.246769533614794
 20
0.4569766180282942
 30
0.0
 10
1.240506345208997
 20
0.4421499513616276
 30
0.0
 10
1.234533591585808
 20
0.4336485020862652
 30
0.0
  0
SPLINE
  5
147
330
A
100
AcDbEntity
  8
0
  6
solid
 62
     7
100
AcDbSpline
210
0.0
220
0.0
230
1.0
 70
     8
 71
     2
 72
     8
 73
     5
 74
     0
 42
0.0000000001
 43
0.0000000001
 40
0.0
 40
0.0
 40
0.0
 40
1.0
 40
2.0
 40
3.0
 40
3.0
 40
3.0
 10
1.234533591585808
 20
0.4336485020862652
 30
0.0
 10
1.230576490136533
 20
0.4281951687529319
 30
0.0
 10
1.207730693035083
 20
0.4079337194775696
 30
0.0
 10
1.202073301730736
 20
0.4010398064340914
 30
0.0
 10
1.200280258252475
 20
0.3983377774485841
 30
0.0
  0
LINE
  5
148
330
A
100
AcDbEntity
  8
0
  6
solid
 62
     7
100
AcDbLine
 10
1.246769533614794
 20
0.3983377774485841
 30
0.0
 11
1.200280258252475
 21
0.3983377774485841
 31
0.0
  0
SPLINE
  5
149
330
A
100
AcDbEntity
  8
0
  6
solid
 62
     7
100
AcDbSpline
210
0.0
220
0.0
230
1.0
 70
     8
 71
     2
 72
     7
 73
     4
 74
     0
 42
0.0000000001
 43
0.0000000001
 40
0.0
 40
0.0
 40
0.0
 40
1.0
 40
2.0
 40
2.0
 40
2.0
 10
1.287560982890156
 20
0.4422056035355407
 30
0.0
 10
1.277340693035084
 20
0.4459957484630769
 30
0.0
 10
1.268962722020591
 20
0.4592519803471348
 30
0.0
 10
1.268962722020591
 20
0.4676792267239465
 30
0.0
  0
SPLINE
  5
14A
330
A
100
AcDbEntity
  8
0
  6
solid
 62
     7
100
AcDbSpline
210
0.0
220
0.0
230
1.0
 70
     8
 71
     2
 72
     7
 73
     4
 74
     0
 42
0.0000000001
 43
0.0000000001
 40
0.0
 40
0.0
 40
0.0
 40
1.0
 40
2.0
 40
2.0
 40
2.0
 10
1.268962722020591
 20
0.4676792267239465
 30
0.0
 10
1.268962722020591
 20
0.4817267629558305
 30
0.0
 10
1.289112866948127
 20
0.499787052810903
 30
0.0
 10
1.307599823469866
 20
0.499787052810903
 30
0.0
  0
SPLINE
  5
14B
330
A
100
AcDbEntity
  8
0
  6
solid
 62
     7
100
AcDbSpline
210
0.0
220
0.0
230
1.0
 70
     8
 71
     2
 72
     7
 73
     4
 74
     0
 42
0.0000000001
 43
0.0000000001
 40
0.0
 40
0.0
 40
0.0
 40
1.0
 40
2.0
 40
2.0
 40
2.0
 10
1.307599823469866
 20
0.499787052810903
 30
0.0
 10
1.325975475643779
 20
0.499787052810903
 30
0.0
 10
1.346861272745228
 20
0.4817267629558305
 30
0.0
 10
1.346861272745228
 20
0.4676792267239465
 30
0.0
  0
SPLINE
  5
14C
330
A
100
AcDbEntity
  8
0
  6
solid
 62
     7
100
AcDbSpline
210
0.0
220
0.0
230
1.0
 70
     8
 71
     2
 72
     7
 73
     4
 74
     0
 42
0.0000000001
 43
0.0000000001
 40
0.0
 40
0.0
 40
0.0
 40
1.0
 40
2.0
 40
2.0
 40
2.0
 10
1.346861272745228
 20
0.4676792267239465
 30
0.0
 10
1.346861272745228
 20
0.4589180673036565
 30
0.0
 10
1.336566779991605
 20
0.4457731397674247
 30
0.0
 10
1.32752735970175
 20
0.4422056035355407
 30
0.0
  0
SPLINE
  5
14D
330
A
100
AcDbEntity
  8
0
  6
solid
 62
     7
100
AcDbSpline
210
0.0
220
0.0
230
1.0
 70
     8
 71
     2
 72
     7
 73
     4
 74
     0
 42
0.0000000001
 43
0.0000000001
 40
0.0
 40
0.0
 40
0.0
 40
1.0
 40
2.0
 40
2.0
 40
2.0
 10
1.32752735970175
 20
0.4422056035355407
 30
0.0
 10
1.337970258252475
 20
0.4382299513616276
 30
0.0
 10
1.348672866948127
 20
0.4221296615065551
 30
0.0
 10
1.348672866948127
 20
0.411538357158729
 30
0.0
  0
SPLINE
  5
14E
330
A
100
AcDbEntity
  8
0
  6
solid
 62
     7
100
AcDbSpline
210
0.0
220
0.0
230
1.0
 70
     8
 71
     2
 72
     7
 73
     4
 74
     0
 42
0.0000000001
 43
0.0000000001
 40
0.0
 40
0.0
 40
0.0
 40
1.0
 40
2.0
 40
2.0
 40
2.0
 10
1.348672866948127
 20
0.411538357158729
 30
0.0
 10
1.348672866948127
 20
0.3939974875935116
 30
0.0
 10
1.326198084339431
 20
0.3729754586080043
 30
0.0
 10
1.308045040861171
 20
0.3729754586080043
 30
0.0
  0
SPLINE
  5
14F
330
A
100
AcDbEntity
  8
0
  6
solid
 62
     7
100
AcDbSpline
210
0.0
220
0.0
230
1.0
 70
     8
 71
     2
 72
     6
 73
     3
 74
     0
 42
0.0000000001
 43
0.0000000001
 40
0.0
 40
0.0
 40
0.0
 40
1.0
 40
1.0
 40
1.0
 10
1.308045040861171
 20
0.3729754586080043
 30
0.0
 10
1.291332577093055
 20
0.3729754586080043
 30
0.0
 10
1.280221852455373
 20
0.3813163281732217
 30
0.0
  0
SPLINE
  5
150
330
A
100
AcDbEntity
  8
0
  6
solid
 62
     7
100
AcDbSpline
210
0.0
220
0.0
230
1.0
 70
     8
 71
     2
 72
     6
 73
     3
 74
     0
 42
0.0000000001
 43
0.0000000001
 40
0.0
 40
0.0
 40
0.0
 40
1.0
 40
1.0
 40
1.0
 10
1.280221852455373
 20
0.3813163281732217
 30
0.0
 10
1.267151127817692
 20
0.3919818354195986
 30
0.0
 10
1.267151127817692
 20
0.4102461832456856
 30
0.0
  0
SPLINE
  5
151
330
A
100
AcDbEntity
  8
0
  6
solid
 62
     7
100
AcDbSpline
210
0.0
220
0.0
230
1.0
 70
     8
 71
     2
 72
     7
 73
     4
 74
     0
 42
0.0000000001
 43
0.0000000001
 40
0.0
 40
0.0
 40
0.0
 40
1.0
 40
2.0
 40
2.0
 40
2.0
 10
1.267151127817692
 20
0.4102461832456856
 30
0.0
 10
1.267151127817692
 20
0.4206148788978595
 30
0.0
 10
1.276802722020591
 20
0.4373273426659754
 30
0.0
 10
1.287560982890156
 20
0.4422056035355407
 30
0.0
  0
SPLINE
  5
152
330
A
100
AcDbEntity
  8
0
  6
solid
 62
     7
100
AcDbSpline
210
0.0
220
0.0
230
1.0
 70
     8
 71
     2
 72
     7
 73
     4
 74
     0
 42
0.0000000001
 43
0.0000000001
 40
0.0
 40
0.0
 40
0.0
 40
1.0
 40
2.0
 40
2.0
 40
2.0
 10
1.292513446658272
 20
0.4660531397674247
 30
0.0
 10
1.292513446658272
 20
0.4587511107819175
 30
0.0
 10
1.300483301730736
 20
0.4508740093326421
 30
0.0
 10
1.307544171295953
 20
0.4508740093326421
 30
0.0
  0
SPLINE
  5
153
330
A
100
AcDbEntity
  8
0
  6
solid
 62
     7
100
AcDbSpline
210
0.0
220
0.0
230
1.0
 70
     8
 71
     2
 72
     7
 73
     4
 74
     0
 42
0.0000000001
 43
0.0000000001
 40
0.0
 40
0.0
 40
0.0
 40
1.0
 40
2.0
 40
2.0
 40
2.0
 10
1.307544171295953
 20
0.4508740093326421
 30
0.0
 10
1.314660693035084
 20
0.4508740093326421
 30
0.0
 10
1.323310548107547
 20
0.4588067629558305
 30
0.0
 10
1.323310548107547
 20
0.4661087919413377
 30
0.0
  0
SPLINE
  5
154
330
A
100
AcDbEntity
  8
0
  6
solid
 62
     7
100
AcDbSpline
210
0.0
220
0.0
230
1.0
 70
     8
 71
     2
 72
     7
 73
     4
 74
     0
 42
0.0000000001
 43
0.0000000001
 40
0.0
 40
0.0
 40
0.0
 40
1.0
 40
2.0
 40
2.0
 40
2.0
 10
1.323310548107547
 20
0.4661087919413377
 30
0.0
 10
1.323310548107547
 20
0.4731140093326421
 30
0.0
 10
1.314716345208997
 20
0.4816711107819174
 30
0.0
 10
1.307711127817692
 20
0.4816711107819174
 30
0.0
  0
SPLINE
  5
155
330
A
100
AcDbEntity
  8
0
  6
solid
 62
     7
100
AcDbSpline
210
0.0
220
0.0
230
1.0
 70
     8
 71
     2
 72
     7
 73
     4
 74
     0
 42
0.0000000001
 43
0.0000000001
 40
0.0
 40
0.0
 40
0.0
 40
1.0
 40
2.0
 40
2.0
 40
2.0
 10
1.307711127817692
 20
0.4816711107819174
 30
0.0
 10
1.300538953904649
 20
0.4816711107819174
 30
0.0
 10
1.292513446658272
 20
0.4730583571587291
 30
0.0
 10
1.292513446658272
 20
0.4660531397674247
 30
0.0
  0
SPLINE
  5
156
330
A
100
AcDbEntity
  8
0
  6
solid
 62
     7
100
AcDbSpline
210
0.0
220
0.0
230
1.0
 70
     8
 71
     2
 72
     7
 73
     4
 74
     0
 42
0.0000000001
 43
0.0000000001
 40
0.0
 40
0.0
 40
0.0
 40
1.0
 40
2.0
 40
2.0
 40
2.0
 10
1.290701852455373
 20
0.4128490817964102
 30
0.0
 10
1.290701852455373
 20
0.4023690817964102
 30
0.0
 10
1.300390548107547
 20
0.3910914006369899
 30
0.0
 10
1.307785330716243
 20
0.3910914006369899
 30
0.0
  0
SPLINE
  5
157
330
A
100
AcDbEntity
  8
0
  6
solid
 62
     7
100
AcDbSpline
210
0.0
220
0.0
230
1.0
 70
     8
 71
     2
 72
     7
 73
     4
 74
     0
 42
0.0000000001
 43
0.0000000001
 40
0.0
 40
0.0
 40
0.0
 40
1.0
 40
2.0
 40
2.0
 40
2.0
 10
1.307785330716243
 20
0.3910914006369899
 30
0.0
 10
1.31508735970175
 20
0.3910914006369899
 30
0.0
 10
1.325122142310446
 20
0.402090820926845
 30
0.0
 10
1.325122142310446
 20
0.4120392267239465
 30
0.0
  0
SPLINE
  5
158
330
A
100
AcDbEntity
  8
0
  6
solid
 62
     7
100
AcDbSpline
210
0.0
220
0.0
230
1.0
 70
     8
 71
     2
 72
     7
 73
     4
 74
     0
 42
0.0000000001
 43
0.0000000001
 40
0.0
 40
0.0
 40
0.0
 40
1.0
 40
2.0
 40
2.0
 40
2.0
 10
1.325122142310446
 20
0.4120392267239465
 30
0.0
 10
1.325122142310446
 20
0.4211342991877145
 30
0.0
 10
1.314976055353924
 20
0.4327580673036566
 30
0.0
 10
1.307581272745228
 20
0.4327580673036566
 30
0.0
  0
SPLINE
  5
159
330
A
100
AcDbEntity
  8
0
  6
solid
 62
     7
100
AcDbSpline
210
0.0
220
0.0
230
1.0
 70
     8
 71
     2
 72
     7
 73
     4
 74
     0
 42
0.0000000001
 43
0.0000000001
 40
0.0
 40
0.0
 40
0.0
 40
1.0
 40
2.0
 40
2.0
 40
2.0
 10
1.307581272745228
 20
0.4327580673036566
 30
0.0
 10
1.298764461151026
 20
0.4327580673036566
 30
0.0
 10
1.290701852455373
 20
0.4201511107819174
 30
0.0
 10
1.290701852455373
 20
0.4128490817964102
 30
0.0
  0
LINE
  5
15A
330
A
100
AcDbEntity
  8
0
  6
solid
 62
     7
100
AcDbLine
 10
1.367242866948127
 20
0.4164537194775697
 30
0.0
 11
1.390793591585808
 21
0.4182653136804682
 31
0.0
  0
SPLINE
  5
15B
330
A
100
AcDbEntity
  8
0
  6
solid
 62
     7
100
AcDbSpline
210
0.0
220
0.0
230
1.0
 70
     8
 71
     2
 72
     7
 73
     4
 74
     0
 42
0.0000000001
 43
0.0000000001
 40
0.0
 40
0.0
 40
0.0
 40
1.0
 40
2.0
 40
2.0
 40
2.0
 10
1.390793591585808
 20
0.4182653136804682
 30
0.0
 10
1.392939098832185
 20
0.4059366180282943
 30
0.0
 10
1.407246345208996
 20
0.394714589042787
 30
0.0
 10
1.418913591585808
 20
0.394714589042787
 30
0.0
  0
SPLINE
  5
15C
330
A
100
AcDbEntity
  8
0
  6
solid
 62
     7
100
AcDbSpline
210
0.0
220
0.0
230
1.0
 70
     8
 71
     2
 72
     7
 73
     4
 74
     0
 42
0.0000000001
 43
0.0000000001
 40
0.0
 40
0.0
 40
0.0
 40
1.0
 40
2.0
 40
2.0
 40
2.0
 10
1.418913591585808
 20
0.394714589042787
 30
0.0
 10
1.431650403180011
 20
0.394714589042787
 30
0.0
 10
1.445141417672765
 20
0.404458936868874
 30
0.0
 10
1.445141417672765
 20
0.4113899513616276
 30
0.0
  0
SPLINE
  5
15D
330
A
100
AcDbEntity
  8
0
  6
solid
 62
     7
100
AcDbSpline
210
0.0
220
0.0
230
1.0
 70
     8
 71
     2
 72
     7
 73
     4
 74
     0
 42
0.0000000001
 43
0.0000000001
 40
0.0
 40
0.0
 40
0.0
 40
1.0
 40
2.0
 40
2.0
 40
2.0
 10
1.445141417672765
 20
0.4113899513616276
 30
0.0
 10
1.445141417672765
 20
0.4154769078833667
 30
0.0
 10
1.439836490136533
 20
0.421962704984816
 30
0.0
 10
1.433053881440881
 20
0.4240711107819175
 30
0.0
  0
SPLINE
  5
15E
330
A
100
AcDbEntity
  8
0
  6
solid
 62
     7
100
AcDbSpline
210
0.0
220
0.0
230
1.0
 70
     8
 71
     2
 72
     6
 73
     3
 74
     0
 42
0.0000000001
 43
0.0000000001
 40
0.0
 40
0.0
 40
0.0
 40
1.0
 40
1.0
 40
1.0
 10
1.433053881440881
 20
0.4240711107819175
 30
0.0
 10
1.428874171295953
 20
0.4256600962891639
 30
0.0
 10
1.412829533614794
 20
0.429394589042787
 30
0.0
  0
SPLINE
  5
15F
330
A
100
AcDbEntity
  8
0
  6
solid
 62
     7
100
AcDbSpline
210
0.0
220
0.0
230
1.0
 70
     8
 71
     2
 72
     6
 73
     3
 74
     0
 42
0.0000000001
 43
0.0000000001
 40
0.0
 40
0.0
 40
0.0
 40
1.0
 40
1.0
 40
1.0
 10
1.412829533614794
 20
0.429394589042787
 30
0.0
 10
1.391925185788707
 20
0.4338154586080044
 30
0.0
 10
1.384029533614794
 20
0.4411174875935117
 30
0.0
  0
SPLINE
  5
160
330
A
100
AcDbEntity
  8
0
  6
solid
 62
     7
100
AcDbSpline
210
0.0
220
0.0
230
1.0
 70
     8
 71
     2
 72
     6
 73
     3
 74
     0
 42
0.0000000001
 43
0.0000000001
 40
0.0
 40
0.0
 40
0.0
 40
1.0
 40
1.0
 40
1.0
 10
1.384029533614794
 20
0.4411174875935117
 30
0.0
 10
1.372677649556823
 20
0.4515974875935117
 30
0.0
 10
1.372677649556823
 20
0.4662942991877145
 30
0.0
  0
SPLINE
  5
161
330
A
100
AcDbEntity
  8
0
  6
solid
 62
     7
100
AcDbSpline
210
0.0
220
0.0
230
1.0
 70
     8
 71
     2
 72
     8
 73
     5
 74
     0
 42
0.0000000001
 43
0.0000000001
 40
0.0
 40
0.0
 40
0.0
 40
1.0
 40
2.0
 40
3.0
 40
3.0
 40
3.0
 10
1.372677649556823
 20
0.4662942991877145
 30
0.0
 10
1.372677649556823
 20
0.4762919803471349
 30
0.0
 10
1.382663156803199
 20
0.4927818354195986
 30
0.0
 10
1.402479388687257
 20
0.5015986470138014
 30
0.0
 10
1.41661967854233
 20
0.5015986470138014
 30
0.0
  0
SPLINE
  5
162
330
A
100
AcDbEntity
  8
0
  6
solid
 62
     7
100
AcDbSpline
210
0.0
220
0.0
230
1.0
 70
     8
 71
     2
 72
     7
 73
     4
 74
     0
 42
0.0000000001
 43
0.0000000001
 40
0.0
 40
0.0
 40
0.0
 40
1.0
 40
2.0
 40
2.0
 40
2.0
 10
1.41661967854233
 20
0.5015986470138014
 30
0.0
 10
1.439045185788707
 20
0.5015986470138014
 30
0.0
 10
1.46226199738291
 20
0.4805087919413377
 30
0.0
 10
1.46325735970175
 20
0.463555168752932
 30
0.0
  0
LINE
  5
163
330
A
100
AcDbEntity
  8
0
  6
solid
 62
     7
100
AcDbLine
 10
1.46325735970175
 20
0.463555168752932
 30
0.0
 11
1.439706635064069
 21
0.4617435745500334
 31
0.0
  0
SPLINE
  5
164
330
A
100
AcDbEntity
  8
0
  6
solid
 62
     7
100
AcDbSpline
210
0.0
220
0.0
230
1.0
 70
     8
 71
     2
 72
     7
 73
     4
 74
     0
 42
0.0000000001
 43
0.0000000001
 40
0.0
 40
0.0
 40
0.0
 40
1.0
 40
2.0
 40
2.0
 40
2.0
 10
1.439706635064069
 20
0.4617435745500334
 30
0.0
 10
1.438043446658272
 20
0.4711911107819174
 30
0.0
 10
1.427415040861171
 20
0.4798595165790189
 30
0.0
 10
1.416786635064069
 20
0.4798595165790189
 30
0.0
  0
SPLINE
  5
165
330
A
100
AcDbEntity
  8
0
  6
solid
 62
     7
100
AcDbSpline
210
0.0
220
0.0
230
1.0
 70
     8
 71
     2
 72
     6
 73
     3
 74
     0
 42
0.0000000001
 43
0.0000000001
 40
0.0
 40
0.0
 40
0.0
 40
1.0
 40
1.0
 40
1.0
 10
1.416786635064069
 20
0.4798595165790189
 30
0.0
 10
1.405954171295953
 20
0.4798595165790189
 30
0.0
 10
1.400055620571315
 20
0.4750554586080044
 30
0.0
  0
SPLINE
  5
166
330
A
100
AcDbEntity
  8
0
  6
solid
 62
     7
100
AcDbSpline
210
0.0
220
0.0
230
1.0
 70
     8
 71
     2
 72
     6
 73
     3
 74
     0
 42
0.0000000001
 43
0.0000000001
 40
0.0
 40
0.0
 40
0.0
 40
1.0
 40
1.0
 40
1.0
 10
1.400055620571315
 20
0.4750554586080044
 30
0.0
 10
1.396228374194504
 20
0.4719145890427871
 30
0.0
 10
1.396228374194504
 20
0.4675122702022073
 30
0.0
  0
SPLINE
  5
167
330
A
100
AcDbEntity
  8
0
  6
solid
 62
     7
100
AcDbSpline
210
0.0
220
0.0
230
1.0
 70
     8
 71
     2
 72
     6
 73
     3
 74
     0
 42
0.0000000001
 43
0.0000000001
 40
0.0
 40
0.0
 40
0.0
 40
1.0
 40
1.0
 40
1.0
 10
1.396228374194504
 20
0.4675122702022073
 30
0.0
 10
1.396228374194504
 20
0.4627453136804682
 30
0.0
 10
1.399925765498852
 20
0.4600618354195986
 30
0.0
  0
SPLINE
  5
168
330
A
100
AcDbEntity
  8
0
  6
solid
 62
     7
100
AcDbSpline
210
0.0
220
0.0
230
1.0
 70
     8
 71
     2
 72
     9
 73
     6
 74
     0
 42
0.0000000001
 43
0.0000000001
 40
0.0
 40
0.0
 40
0.0
 40
1.0
 40
2.0
 40
3.0
 40
4.0
 40
4.0
 40
4.0
 10
1.399925765498852
 20
0.4600618354195986
 30
0.0
 10
1.404272432165518
 20
0.4555916904920624
 30
0.0
 10
1.440726924919141
 20
0.4475847339703232
 30
0.0
 10
1.458453301730736
 20
0.4384525600572797
 30
0.0
 10
1.468692142310446
 20
0.422426473100758
 30
0.0
 10
1.468692142310446
 20
0.4110374875935116
 30
0.0
  0
SPLINE
  5
169
330
A
100
AcDbEntity
  8
0
  6
solid
 62
     7
100
AcDbSpline
210
0.0
220
0.0
230
1.0
 70
     8
 71
     2
 72
     8
 73
     5
 74
     0
 42
0.0000000001
 43
0.0000000001
 40
0.0
 40
0.0
 40
0.0
 40
1.0
 40
2.0
 40
3.0
 40
3.0
 40
3.0
 10
1.468692142310446
 20
0.4110374875935116
 30
0.0
 10
1.468692142310446
 20
0.4003534296224971
 30
0.0
 10
1.456511852455373
 20
0.3813719803471348
 30
0.0
 10
1.434735620571315
 20
0.3729754586080043
 30
0.0
 10
1.418468374194504
 20
0.3729754586080043
 30
0.0
  0
SPLINE
  5
16A
330
A
100
AcDbEntity
  8
0
  6
solid
 62
     7
100
AcDbSpline
210
0.0
220
0.0
230
1.0
 70
     8
 71
     2
 72
     7
 73
     4
 74
     0
 42
0.0000000001
 43
0.0000000001
 40
0.0
 40
0.0
 40
0.0
 40
1.0
 40
2.0
 40
2.0
 40
2.0
 10
1.418468374194504
 20
0.3729754586080043
 30
0.0
 10
1.394843446658272
 20
0.3729754586080043
 30
0.0
 10
1.369481127817692
 20
0.3950299513616275
 30
0.0
 10
1.367242866948127
 20
0.4164537194775697
 30
0.0
  0
LINE
  5
1C8
330
A
100
AcDbEntity
  8
1
  6
solid
 62
     7
370
     0
100
AcDbLine
 10
-1.972318410873413
 20
0.2145398580003066
 30
0.0
 11
-1.972318410873413
 21
0.0013942723289078
 31
0.0
  0
LINE
  5
1C9
330
A
100
AcDbEntity
  8
1
  6
solid
 62
     7
370
     0
100
AcDbLine
 10
-0.5973183512687683
 20
0.2145398580003066
 30
0.0
 11
-0.5973183512687683
 21
0.0013942723289078
 31
0.0
  0
LINE
  5
1CA
330
A
100
AcDbEntity
  8
1
  6
solid
 62
     7
370
     0
100
AcDbLine
 10
-1.972318410873413
 20
0.0638942723289078
 30
0.0
 11
-1.633116897995103
 21
0.0638942723289078
 31
0.0
  0
LINE
  5
1CB
330
A
100
AcDbEntity
  8
1
  6
solid
 62
     7
370
     0
100
AcDbLine
 10
-0.5973183512687683
 20
0.0638942723289078
 30
0.0
 11
-0.9099155859431853
 21
0.0638942723289078
 31
0.0
  0
MTEXT
  5
1CC
330
A
100
AcDbEntity
  8
1
  6
solid
 62
     7
370
     0
100
AcDbMText
 10
-1.28481838107109
 20
0.0638942723289078
 30
0.0
 40
0.125
 41
0.0
 71
     5
 72
     1
  1
{\H0.125000;1 3/8}
 73
     1
 44
1.0
  0
SOLID
  5
1CD
330
A
100
AcDbEntity
  8
1
  6
solid
 62
     7
370
     0
100
AcDbTrace
 10
-1.930688410873413
 20
0.0847067723289078
 30
0.0
 11
-1.930688410873413
 21
0.0430817723289078
 31
0.0
 12
-1.972318410873413
 22
0.0638942723289078
 32
0.0
 13
-1.972318410873413
 23
0.0638942723289078
 33
0.0
  0
SOLID
  5
1CE
330
A
100
AcDbEntity
  8
1
  6
solid
 62
     7
370
     0
100
AcDbTrace
 10
-0.6389483512687684
 20
0.0430817723289078
 30
0.0
 11
-0.6389483512687684
 21
0.0847067723289078
 31
0.0
 12
-0.5973183512687683
 22
0.0638942723289078
 32
0.0
 13
-0.5973183512687683
 23
0.0638942723289078
 33
0.0
  0
LINE
  5
1D8
330
A
100
AcDbEntity
  8
1
  6
solid
 62
     7
370
     0
100
AcDbLine
 10
-0.5483149396537037
 20
0.2590519189834594
 30
0.0
 11
-0.3554510917693318
 21
0.2590519189834594
 31
0.0
  0
LINE
  5
1D9
330
A
100
AcDbEntity
  8
1
  6
solid
 62
     7
370
     0
100
AcDbLine
 10
-1.534818410873413
 20
1.634551882743835
 30
0.0
 11
-0.3554510917693308
 21
1.634551882743834
 31
0.0
  0
LINE
  5
1DA
330
A
100
AcDbEntity
  8
1
  6
solid
 62
     7
370
     0
100
AcDbLine
 10
-0.4179510917693319
 20
0.2590519189834594
 30
0.0
 11
-0.4179510917693314
 21
0.7869293047098011
 31
0.0
  0
LINE
  5
1DB
330
A
100
AcDbEntity
  8
1
  6
solid
 62
     7
370
     0
100
AcDbLine
 10
-0.4179510917693309
 20
1.634551882743834
 30
0.0
 11
-0.4179510917693312
 21
1.106674497017493
 31
0.0
  0
MTEXT
  5
1DC
330
A
100
AcDbEntity
  8
1
  6
solid
 62
     7
370
     0
100
AcDbMText
 10
-0.4179510917693313
 20
0.9468019008636472
 30
0.0
 40
0.125
 41
0.0
 71
     5
 72
     1
  1
{\H0.125000;1 3/8}
 73
     1
 44
1.0
  0
SOLID
  5
1DD
330
A
100
AcDbEntity
  8
1
  6
solid
 62
     7
370
     0
100
AcDbTrace
 10
-0.4387635917693319
 20
0.3006819189834594
 30
0.0
 11
-0.3971385917693318
 21
0.3006819189834593
 31
0.0
 12
-0.4179510917693319
 22
0.2590519189834594
 32
0.0
 13
-0.4179510917693319
 23
0.2590519189834594
 33
0.0
  0
SOLID
  5
1DE
330
A
100
AcDbEntity
  8
1
  6
solid
 62
     7
370
     0
100
AcDbTrace
 10
-0.3971385917693309
 20
1.592921882743834
 30
0.0
 11
-0.438763591769331
 21
1.592921882743834
 31
0.0
 12
-0.4179510917693309
 22
1.634551882743834
 32
0.0
 13
-0.4179510917693309
 23
1.634551882743834
 33
0.0
  0
VIEWPORT
  5
188
330
B
100
AcDbEntity
 67
     1
  8
0
  6
Continuous
370
     0
100
AcDbViewport
 10
5.142532739495663
 20
4.284568688967056
 30
0.0
 40
15.44381760046977
 41
8.171417004822366
 68
     1
 69
     1
 12
5.142532739495663
 22
4.284568688967056
 13
0.0
 23
0.0
 14
0.5
 24
0.5
 15
0.5
 25
0.5
 16
0.0
 26
0.0
 36
1.0
 17
0.0
 27
0.0
 37
0.0
 42
50.0
 43
0.0
 44
0.0
 45
8.171417004822366
 50
0.0
 51
0.0
 72
   100
 90
   819232
  1

281
     0
 71
     1
 74
     0
110
0.0
120
0.0
130
0.0
111
1.0
121
0.0
131
0.0
112
0.0
122
1.0
132
0.0
 79
     0
146
0.0
170
     0
  0
VIEWPORT
  5
18B
330
B
100
AcDbEntity
 67
     1
  8
0
  6
Continuous
370
     0
100
AcDbViewport
 10
5.14291353572149
 20
4.284707182047359
 30
0.0
 40
10.39563158007531
 41
8.076066470983541
 68
     2
 69
     2
 12
0.0779208130069732
 22
0.8822077901881533
 13
0.0
 23
0.0
 14
0.5
 24
0.5
 15
0.5
 25
0.5
 16
0.0
 26
0.0
 36
1.0
 17
0.0
 27
0.0
 37
0.0
 42
50.0
 43
0.0
 44
0.0
 45
4.100779591683313
 50
0.0
 51
0.0
 72
   100
 90
   819232
  1

281
     0
 71
     1
 74
     0
110
0.0
120
0.0
130
0.0
111
1.0
121
0.0
131
0.0
112
0.0
122
1.0
132
0.0
 79
     0
146
0.0
170
     0
  0
ENDSEC
  0
SECTION
  2
OBJECTS
  0
DICTIONARY
  5
19
330
0
100
AcDbDictionary
281
     1
  3
ACAD_COLOR
350
181
  3
ACAD_GROUP
350
1A
  3
ACAD_LAYOUT
350
1E
  3
ACAD_MATERIAL
350
16C
  3
ACAD_MLEADERSTYLE
350
1B1
  3
ACAD_MLINESTYLE
350
1B
  3
ACAD_PLOTSETTINGS
350
22
  3
ACAD_PLOTSTYLENAME
350
1F
  3
ACAD_SCALELIST
350
18F
  3
ACAD_TABLESTYLE
350
182
  3
ACAD_VISUALSTYLE
350
170
  3
ACAD_WIPEOUT_VARS
350
23
  3
ACDB_RECOMPOSE_DATA
350
1F5
  3
AcDbVariableDictionary
350
18C
  0
DICTIONARY
  5
1BA
330
14
100
AcDbDictionary
280
     1
281
     1
  3
ADSK_XREC_LAYER_RECONCILED
360
1BB
  0
DICTIONARY
  5
1BC
330
27
100
AcDbDictionary
280
     1
281
     1
  3
ADSK_XREC_LAYER_RECONCILED
360
1BD
  0
DICTIONARY
  5
1BE
330
12E
100
AcDbDictionary
280
     1
281
     1
  3
ADSK_XREC_LAYER_RECONCILED
360
1BF
  0
DICTIONARY
  5
1CF
330
A
100
AcDbDictionary
280
     1
281
     1
  3
ACAD_SORTENTS
360
1D0
  0
DICTIONARY
  5
181
102
{ACAD_REACTORS
330
19
102
}
330
19
100
AcDbDictionary
281
     1
  0
DICTIONARY
  5
1A
102
{ACAD_REACTORS
330
19
102
}
330
19
100
AcDbDictionary
281
     1
  0
DICTIONARY
  5
1E
102
{ACAD_REACTORS
330
19
102
}
330
19
100
AcDbDictionary
281
     1
  3
Layout1
350
21
  3
Model
350
20
  0
DICTIONARY
  5
16C
102
{ACAD_REACTORS
330
19
102
}
330
19
100
AcDbDictionary
281
     1
  3
ByBlock
350
16E
  3
ByLayer
350
16D
  3
Global
350
16F
  0
DICTIONARY
  5
1B1
102
{ACAD_REACTORS
330
19
102
}
330
19
100
AcDbDictionary
281
     1
  3
Standard
350
1B2
  0
DICTIONARY
  5
1B
102
{ACAD_REACTORS
330
19
102
}
330
19
100
AcDbDictionary
281
     1
  3
Standard
350
1C
  0
DICTIONARY
  5
22
102
{ACAD_REACTORS
330
19
102
}
330
19
100
AcDbDictionary
281
     1
  0
ACDBDICTIONARYWDFLT
  5
1F
102
{ACAD_REACTORS
330
19
102
}
330
19
100
AcDbDictionary
281
     1
  3
Normal
350
1D
100
AcDbDictionaryWithDefault
340
1D
  0
DICTIONARY
  5
18F
102
{ACAD_REACTORS
330
19
102
}
330
19
100
AcDbDictionary
281
     1
  3
A0
350
190
  3
A1
350
191
  3
A2
350
192
  3
A3
350
193
  3
A4
350
194
  3
A5
350
195
  3
A6
350
196
  3
A7
350
197
  3
A8
350
198
  3
A9
350
199
  3
B0
350
19A
  3
B1
350
19B
  3
B2
350
19C
  3
B3
350
19D
  3
B4
350
19E
  3
B5
350
19F
  3
B6
350
1A0
  3
B7
350
1A1
  3
B8
350
1A2
  3
B9
350
1A3
  3
C0
350
1A4
  3
C1
350
1A5
  3
C2
350
1A6
  3
C3
350
1A7
  3
C4
350
1A8
  3
C5
350
1A9
  3
C6
350
1AA
  3
C7
350
1AB
  3
C8
350
1AC
  3
C9
350
1AD
  3
D0
350
1AE
  3
D1
350
1AF
  3
D2
350
1B0
  0
DICTIONARY
  5
182
102
{ACAD_REACTORS
330
19
102
}
330
19
100
AcDbDictionary
281
     1
  3
Standard
350
183
  0
DICTIONARY
  5
170
102
{ACAD_REACTORS
330
19
102
}
330
19
100
AcDbDictionary
281
     1
  3
2dWireframe
350
176
  3
3D Hidden
350
178
  3
3dWireframe
350
177
  3
Basic
350
175
  3
Brighten
350
17C
  3
ColorChange
350
180
  3
Conceptual
350
179
  3
Dim
350
17B
  3
Facepattern
350
17F
  3
Flat
350
171
  3
FlatWithEdges
350
172
  3
Gouraud
350
173
  3
GouraudWithEdges
350
174
  3
Linepattern
350
17E
  3
Realistic
350
17A
  3
Thicken
350
17D
  0
WIPEOUTVARIABLES
  5
23
330
19
100
AcDbWipeoutVariables
 70
     1
  0
XRECORD
  5
1F5
102
{ACAD_REACTORS
330
19
102
}
330
19
100
AcDbXrecord
280
     1
 90
        1
330
183
  0
DICTIONARY
  5
18C
102
{ACAD_REACTORS
330
19
102
}
330
19
100
AcDbDictionary
281
     1
  3
CANNOSCALE
350
1F2
  3
CMLEADERSTYLE
350
1F1
  3
CTABLESTYLE
350
18D
  0
XRECORD
  5
1BB
102
{ACAD_REACTORS
330
1BA
102
}
330
1BA
100
AcDbXrecord
280
     1
290
     1
  0
XRECORD
  5
1BD
102
{ACAD_REACTORS
330
1BC
102
}
330
1BC
100
AcDbXrecord
280
     1
290
     1
  0
XRECORD
  5
1BF
102
{ACAD_REACTORS
330
1BE
102
}
330
1BE
100
AcDbXrecord
280
     1
290
     1
  0
SORTENTSTABLE
  5
1D0
102
{ACAD_REACTORS
330
1CF
102
}
330
1CF
100
AcDbSortentsTable
330
A
331
B9
  5
C7
331
117
  5
125
331
F5
  5
103
331
DB
  5
E9
331
1CA
  5
57
331
15B
  5
169
331
139
  5
147
331
CA
  5
D8
331
A8
  5
B6
331
86
  5
94
331
128
  5
137
331
106
  5
114
331
EC
  5
FA
331
1DB
  5
60
331
6C
  5
7A
331
14A
  5
158
331
97
  5
A5
331
5B
  5
69
331
39
  5
39
331
28
  5
28
331
159
  5
167
331
137
  5
145
331
115
  5
123
331
F3
  5
101
331
D9
  5
E7
331
C8
  5
D6
331
A6
  5
B4
331
84
  5
92
331
6A
  5
78
331
1C8
  5
55
331
126
  5
135
331
104
  5
112
331
EA
  5
F8
331
1D9
  5
5E
331
148
  5
156
331
B7
  5
C5
331
95
  5
A3
331
59
  5
67
331
37
  5
37
331
157
  5
165
331
135
  5
143
331
113
  5
121
331
F1
  5
FF
331
124
  5
133
331
102
  5
110
331
E8
  5
F6
331
C6
  5
D4
331
A4
  5
B2
331
82
  5
90
331
68
  5
76
331
146
  5
154
331
D7
  5
E5
331
B5
  5
C3
331
93
  5
A1
331
57
  5
65
331
35
  5
35
331
155
  5
163
331
133
  5
141
331
111
  5
11F
331
122
  5
131
331
100
  5
10E
331
E6
  5
F4
331
C4
  5
D2
331
A2
  5
B0
331
80
  5
8E
331
66
  5
74
331
144
  5
152
331
166
  5
1DA
331
D5
  5
E3
331
B3
  5
C1
331
91
  5
9F
331
77
  5
85
331
33
  5
33
331
153
  5
161
331
131
  5
13F
331
120
  5
12F
331
FE
  5
10C
331
E4
  5
F2
331
C2
  5
D0
331
A0
  5
AE
331
7E
  5
8C
331
64
  5
72
331
164
  5
1D8
331
142
  5
150
331
10F
  5
11D
331
D3
  5
E1
331
B1
  5
BF
331
8F
  5
9D
331
75
  5
83
331
31
  5
31
331
151
  5
15F
331
11E
  5
12C
331
FC
  5
10A
331
E2
  5
F0
331
C0
  5
CE
331
9E
  5
AC
331
7C
  5
8A
331
62
  5
70
331
162
  5
1CD
331
140
  5
14E
331
12F
  5
13D
331
10D
  5
11B
331
D1
  5
DF
331
AF
  5
BD
331
8D
  5
9B
331
73
  5
81
331
2F
  5
2F
331
169
  5
1DD
331
60
  5
6E
331
11C
  5
12A
331
FA
  5
108
331
E0
  5
EE
331
BE
  5
CC
331
9C
  5
AA
331
7A
  5
88
331
160
  5
1CB
331
13E
  5
14C
331
12D
  5
13C
331
10B
  5
119
331
CF
  5
DD
331
AD
  5
BB
331
8B
  5
99
331
71
  5
7F
331
14F
  5
15D
331
3E
  5
3E
331
2D
  5
2D
331
BC
  5
CA
331
9A
  5
A8
331
78
  5
86
331
11A
  5
128
331
F8
  5
106
331
DE
  5
EC
331
1CD
  5
5A
331
15E
  5
1C9
331
13C
  5
14A
331
CD
  5
DB
331
AB
  5
B9
331
89
  5
97
331
6F
  5
7D
331
12B
  5
13A
331
109
  5
117
331
EF
  5
FD
331
1DE
  5
63
331
14D
  5
15B
331
5E
  5
6C
331
3C
  5
3C
331
2B
  5
2B
331
BA
  5
C8
331
98
  5
A6
331
118
  5
126
331
F6
  5
104
331
DC
  5
EA
331
1CB
  5
58
331
15C
  5
16A
331
13A
  5
148
331
CB
  5
D9
331
A9
  5
B7
331
87
  5
95
331
6D
  5
7B
331
129
  5
138
331
107
  5
115
331
ED
  5
FB
331
1DC
  5
61
331
14B
  5
159
331
5C
  5
6A
331
3A
  5
3A
331
29
  5
29
331
B8
  5
C6
331
15A
  5
168
331
138
  5
146
331
116
  5
124
331
F4
  5
102
331
DA
  5
E8
331
C9
  5
D7
331
A7
  5
B5
331
85
  5
93
331
6B
  5
79
331
1C9
  5
56
331
127
  5
136
331
105
  5
113
331
EB
  5
F9
331
1DA
  5
5F
331
149
  5
157
331
96
  5
A4
331
5A
  5
68
331
38
  5
38
331
158
  5
166
331
136
  5
144
331
114
  5
122
331
F2
  5
100
331
D8
  5
E6
331
C7
  5
D5
331
A5
  5
B3
331
83
  5
91
331
69
  5
77
331
125
  5
134
331
103
  5
111
331
E9
  5
F7
331
1D8
  5
5D
331
147
  5
155
331
B6
  5
C4
331
94
  5
A2
331
58
  5
66
331
36
  5
36
331
156
  5
164
331
134
  5
142
331
112
  5
120
331
F0
  5
FE
331
123
  5
132
331
101
  5
10F
331
E7
  5
F5
331
C5
  5
D3
331
A3
  5
B1
331
81
  5
8F
331
67
  5
75
331
145
  5
153
331
167
  5
1DB
331
56
  5
64
331
D6
  5
E4
331
B4
  5
C2
331
92
  5
A0
331
34
  5
34
331
154
  5
162
331
132
  5
140
331
110
  5
11E
331
121
  5
130
331
FF
  5
10D
331
E5
  5
F3
331
C3
  5
D1
331
A1
  5
AF
331
7F
  5
8D
331
65
  5
73
331
165
  5
1D9
331
143
  5
151
331
D4
  5
E2
331
B2
  5
C0
331
90
  5
9E
331
76
  5
84
331
32
  5
32
331
152
  5
160
331
130
  5
13E
331
11F
  5
12D
331
FD
  5
10B
331
E3
  5
F1
331
C1
  5
CF
331
9F
  5
AD
331
7D
  5
8B
331
63
  5
71
331
163
  5
1CE
331
141
  5
14F
331
10E
  5
11C
331
D2
  5
E0
331
B0
  5
BE
331
8E
  5
9C
331
74
  5
82
331
30
  5
30
331
150
  5
15E
331
16A
  5
1DE
331
61
  5
6F
331
11D
  5
12B
331
FB
  5
109
331
E1
  5
EF
331
BF
  5
CD
331
9D
  5
AB
331
7B
  5
89
331
161
  5
1CC
331
13F
  5
14D
331
10C
  5
11A
331
D0
  5
DE
331
AE
  5
BC
331
8C
  5
9A
331
72
  5
80
331
3F
  5
3F
331
2E
  5
2E
331
168
  5
1DC
331
BD
  5
CB
331
9B
  5
A9
331
79
  5
87
331
11B
  5
129
331
F9
  5
107
331
DF
  5
ED
331
1CE
  5
5B
331
15F
  5
1CA
331
13D
  5
14B
331
12C
  5
13B
331
10A
  5
118
331
CE
  5
DC
331
AC
  5
BA
331
8A
  5
98
331
70
  5
7E
331
14E
  5
15C
331
5F
  5
6D
331
3D
  5
3D
331
2C
  5
2C
331
BB
  5
C9
331
99
  5
A7
331
119
  5
127
331
F7
  5
105
331
DD
  5
EB
331
1CC
  5
59
331
15D
  5
1C8
331
13B
  5
149
331
CC
  5
DA
331
AA
  5
B8
331
88
  5
96
331
6E
  5
7C
331
12A
  5
139
331
108
  5
116
331
EE
  5
FC
331
1DD
  5
62
331
14C
  5
15A
331
5D
  5
6B
331
3B
  5
3B
331
2A
  5
2A
  0
LAYOUT
  5
21
102
{ACAD_REACTORS
330
1E
102
}
330
1E
100
AcDbPlotSettings
  1

  2
Foxit PDF Printer
  4
Letter
  6

 40
3.174999952316284
 41
3.174999952316284
 42
3.17498779296875
 43
3.175003051757812
 44
279.3999938964844
 45
215.8999938964844
 46
31.47715384821894
 47
15.43161420455043
 48
0.0
 49
0.0
140
0.0
141
0.0
142
1.0
143
1.0
 70
     4
 72
     0
 73
     0
 74
     1
  7

 75
     0
147
1.0
 76
     0
 77
     2
 78
   300
148
-26.25461124795212
149
-20.16000981431432
100
AcDbLayout
  1
Layout1
 70
     0
 71
     1
 10
-0.3306119115190196
 20
0.0611573093483306
 11
10.66938784818509
 21
8.561157069052439
 12
0.0
 22
0.0
 32
0.0
 14
-0.0556788165195279
 24
0.2463684249560032
 34
-0.0015258207003583
 15
10.34074429551085
 25
8.322768952978108
 35
0.0000000349246037
146
0.0
 13
0.0
 23
0.0
 33
0.0
 16
1.0
 26
0.0
 36
0.0
 17
0.0
 27
1.0
 37
0.0
 76
     0
330
B
331
188
1001
ACAD_PSEXT
1000
Foxit PDF Printer
1000
Foxit PDF Printer Driver
1000
FOXIT_PDF
1000

1070
     0
  0
LAYOUT
  5
20
102
{ACAD_REACTORS
330
1E
102
}
330
1E
100
AcDbPlotSettings
  1

  2

  4

  6

 40
0.0
 41
0.0
 42
0.0
 43
0.0
 44
0.0
 45
0.0
 46
0.0
 47
0.0
 48
0.0
 49
0.0
140
0.0
141
0.0
142
1.0
143
1.0
 70
  1024
 72
     0
 73
     0
 74
     0
  7

 75
     0
147
1.0
 76
     0
 77
     2
 78
   300
148
0.0
149
0.0
100
AcDbLayout
  1
Model
 70
     0
 71
     0
 10
0.0
 20
0.0
 11
0.0
 21
0.0
 12
0.0
 22
0.0
 32
0.0
 14
0.0
 24
0.0
 34
0.0
 15
0.0
 25
0.0
 35
0.0
146
0.0
 13
0.0
 23
0.0
 33
0.0
 16
0.0
 26
0.0
 36
0.0
 17
0.0
 27
0.0
 37
0.0
 76
     0
330
A
  0
MATERIAL
  5
16E
102
{ACAD_XDICTIONARY
360
1F8
102
}
102
{ACAD_REACTORS
330
16C
102
}
330
16C
100
AcDbMaterial
  1
ByBlock
 73
     1
 78
     1
172
     1
176
     1
270
     1
274
     1
  0
MATERIAL
  5
16D
102
{ACAD_XDICTIONARY
360
1F6
102
}
102
{ACAD_REACTORS
330
16C
102
}
330
16C
100
AcDbMaterial
  1
ByLayer
 73
     1
 78
     1
172
     1
176
     1
270
     1
274
     1
  0
MATERIAL
  5
16F
102
{ACAD_XDICTIONARY
360
1FA
102
}
102
{ACAD_REACTORS
330
16C
102
}
330
16C
100
AcDbMaterial
  1
Global
 73
     1
 78
     1
172
     1
176
     1
270
     1
274
     1
  0
MLEADERSTYLE
  5
1B2
102
{ACAD_REACTORS
330
1B1
102
}
330
1B1
100
AcDbMLeaderStyle
170
     2
171
     1
172
     0
 90
        2
 40
0.0
 41
0.0
173
     1
 91
-1056964608
340
11
 92
       -2
290
     1
 42
0.09
291
     1
 43
0.36
  3
Standard
 44
0.18
300

342
17
174
     1
178
     6
175
     1
176
     0
 93
-1056964608
 45
0.18
292
     0
297
     0
 46
0.18
 94
-1056964608
 47
1.0
 49
1.0
140
1.0
293
     1
141
0.0
294
     1
177
     0
142
1.0
295
     0
296
     0
143
0.125
1001
ACAD_MLEADERVER
1070
     2
  0
MLINESTYLE
  5
1C
102
{ACAD_REACTORS
330
1B
102
}
330
1B
100
AcDbMlineStyle
  2
STANDARD
 70
     0
  3

 62
     0
 51
90.0
 52
90.0
 71
     2
 49
0.5
 62
   256
  6
BYLAYER
 49
-0.5
 62
   256
  6
BYLAYER
  0
ACDBPLACEHOLDER
  5
1D
102
{ACAD_REACTORS
330
1F
102
}
330
1F
  0
SCALE
  5
190
102
{ACAD_REACTORS
330
18F
102
}
330
18F
100
AcDbScale
 70
     0
300
1:1
140
1.0
141
1.0
290
     1
  0
SCALE
  5
191
102
{ACAD_REACTORS
330
18F
102
}
330
18F
100
AcDbScale
 70
     0
300
1:2
140
1.0
141
2.0
290
     0
  0
SCALE
  5
192
102
{ACAD_REACTORS
330
18F
102
}
330
18F
100
AcDbScale
 70
     0
300
1:4
140
1.0
141
4.0
290
     0
  0
SCALE
  5
193
102
{ACAD_REACTORS
330
18F
102
}
330
18F
100
AcDbScale
 70
     0
300
1:5
140
1.0
141
5.0
290
     0
  0
SCALE
  5
194
102
{ACAD_REACTORS
330
18F
102
}
330
18F
100
AcDbScale
 70
     0
300
1:8
140
1.0
141
8.0
290
     0
  0
SCALE
  5
195
102
{ACAD_REACTORS
330
18F
102
}
330
18F
100
AcDbScale
 70
     0
300
1:10
140
1.0
141
10.0
290
     0
  0
SCALE
  5
196
102
{ACAD_REACTORS
330
18F
102
}
330
18F
100
AcDbScale
 70
     0
300
1:16
140
1.0
141
16.0
290
     0
  0
SCALE
  5
197
102
{ACAD_REACTORS
330
18F
102
}
330
18F
100
AcDbScale
 70
     0
300
1:20
140
1.0
141
20.0
290
     0
  0
SCALE
  5
198
102
{ACAD_REACTORS
330
18F
102
}
330
18F
100
AcDbScale
 70
     0
300
1:30
140
1.0
141
30.0
290
     0
  0
SCALE
  5
199
102
{ACAD_REACTORS
330
18F
102
}
330
18F
100
AcDbScale
 70
     0
300
1:40
140
1.0
141
40.0
290
     0
  0
SCALE
  5
19A
102
{ACAD_REACTORS
330
18F
102
}
330
18F
100
AcDbScale
 70
     0
300
1:50
140
1.0
141
50.0
290
     0
  0
SCALE
  5
19B
102
{ACAD_REACTORS
330
18F
102
}
330
18F
100
AcDbScale
 70
     0
300
1:100
140
1.0
141
100.0
290
     0
  0
SCALE
  5
19C
102
{ACAD_REACTORS
330
18F
102
}
330
18F
100
AcDbScale
 70
     0
300
2:1
140
2.0
141
1.0
290
     0
  0
SCALE
  5
19D
102
{ACAD_REACTORS
330
18F
102
}
330
18F
100
AcDbScale
 70
     0
300
4:1
140
4.0
141
1.0
290
     0
  0
SCALE
  5
19E
102
{ACAD_REACTORS
330
18F
102
}
330
18F
100
AcDbScale
 70
     0
300
8:1
140
8.0
141
1.0
290
     0
  0
SCALE
  5
19F
102
{ACAD_REACTORS
330
18F
102
}
330
18F
100
AcDbScale
 70
     0
300
10:1
140
10.0
141
1.0
290
     0
  0
SCALE
  5
1A0
102
{ACAD_REACTORS
330
18F
102
}
330
18F
100
AcDbScale
 70
     0
300
100:1
140
100.0
141
1.0
290
     0
  0
SCALE
  5
1A1
102
{ACAD_REACTORS
330
18F
102
}
330
18F
100
AcDbScale
 70
     0
300
1/128" = 1'-0"
140
0.0078125
141
12.0
290
     0
  0
SCALE
  5
1A2
102
{ACAD_REACTORS
330
18F
102
}
330
18F
100
AcDbScale
 70
     0
300
1/64" = 1'-0"
140
0.015625
141
12.0
290
     0
  0
SCALE
  5
1A3
102
{ACAD_REACTORS
330
18F
102
}
330
18F
100
AcDbScale
 70
     0
300
1/32" = 1'-0"
140
0.03125
141
12.0
290
     0
  0
SCALE
  5
1A4
102
{ACAD_REACTORS
330
18F
102
}
330
18F
100
AcDbScale
 70
     0
300
1/16" = 1'-0"
140
0.0625
141
12.0
290
     0
  0
SCALE
  5
1A5
102
{ACAD_REACTORS
330
18F
102
}
330
18F
100
AcDbScale
 70
     0
300
3/32" = 1'-0"
140
0.09375
141
12.0
290
     0
  0
SCALE
  5
1A6
102
{ACAD_REACTORS
330
18F
102
}
330
18F
100
AcDbScale
 70
     0
300
1/8" = 1'-0"
140
0.125
141
12.0
290
     0
  0
SCALE
  5
1A7
102
{ACAD_REACTORS
330
18F
102
}
330
18F
100
AcDbScale
 70
     0
300
3/16" = 1'-0"
140
0.1875
141
12.0
290
     0
  0
SCALE
  5
1A8
102
{ACAD_REACTORS
330
18F
102
}
330
18F
100
AcDbScale
 70
     0
300
1/4" = 1'-0"
140
0.25
141
12.0
290
     0
  0
SCALE
  5
1A9
102
{ACAD_REACTORS
330
18F
102
}
330
18F
100
AcDbScale
 70
     0
300
3/8" = 1'-0"
140
0.375
141
12.0
290
     0
  0
SCALE
  5
1AA
102
{ACAD_REACTORS
330
18F
102
}
330
18F
100
AcDbScale
 70
     0
300
1/2" = 1'-0"
140
0.5
141
12.0
290
     0
  0
SCALE
  5
1AB
102
{ACAD_REACTORS
330
18F
102
}
330
18F
100
AcDbScale
 70
     0
300
3/4" = 1'-0"
140
0.75
141
12.0
290
     0
  0
SCALE
  5
1AC
102
{ACAD_REACTORS
330
18F
102
}
330
18F
100
AcDbScale
 70
     0
300
1" = 1'-0"
140
1.0
141
12.0
290
     0
  0
SCALE
  5
1AD
102
{ACAD_REACTORS
330
18F
102
}
330
18F
100
AcDbScale
 70
     0
300
1-1/2" = 1'-0"
140
1.5
141
12.0
290
     0
  0
SCALE
  5
1AE
102
{ACAD_REACTORS
330
18F
102
}
330
18F
100
AcDbScale
 70
     0
300
3" = 1'-0"
140
3.0
141
12.0
290
     0
  0
SCALE
  5
1AF
102
{ACAD_REACTORS
330
18F
102
}
330
18F
100
AcDbScale
 70
     0
300
6" = 1'-0"
140
6.0
141
12.0
290
     0
  0
SCALE
  5
1B0
102
{ACAD_REACTORS
330
18F
102
}
330
18F
100
AcDbScale
 70
     0
300
1'-0" = 1'-0"
140
12.0
141
12.0
290
     0
  0
TABLESTYLE
  5
183
102
{ACAD_XDICTIONARY
360
1F3
102
}
102
{ACAD_REACTORS
330
182
102
}
330
182
100
AcDbTableStyle
  3
Standard
 70
     0
 71
     0
 40
0.06
 41
0.06
280
     0
281
     0
  7
Standard
140
0.18
170
     2
 62
     0
 63
     7
283
     0
274
    -2
284
     1
 64
     0
275
    -2
285
     1
 65
     0
276
    -2
286
     1
 66
     0
277
    -2
287
     1
 67
     0
278
    -2
288
     1
 68
     0
279
    -2
289
     1
 69
     0
  7
Standard
140
0.25
170
     5
 62
     0
 63
     7
283
     0
274
    -2
284
     1
 64
     0
275
    -2
285
     1
 65
     0
276
    -2
286
     1
 66
     0
277
    -2
287
     1
 67
     0
278
    -2
288
     1
 68
     0
279
    -2
289
     1
 69
     0
  7
Standard
140
0.18
170
     5
 62
     0
 63
     7
283
     0
274
    -2
284
     1
 64
     0
275
    -2
285
     1
 65
     0
276
    -2
286
     1
 66
     0
277
    -2
287
     1
 67
     0
278
    -2
288
     1
 68
     0
279
    -2
289
     1
 69
     0
  0
VISUALSTYLE
  5
176
102
{ACAD_REACTORS
330
170
102
}
330
170
100
AcDbVisualStyle
  2
2dWireframe
 70
     4
 71
     0
 72
     2
 73
     0
 90
        0
 40
-0.6
 41
-30.0
 62
     5
 63
     7
421
 16777215
 74
     1
 91
        4
 64
     7
 65
   257
 75
     1
175
     1
 42
1.0
 92
        0
 66
   257
 43
1.0
 76
     1
 77
     6
 78
     2
 67
     7
 79
     5
170
     0
171
     0
290
     0
174
     0
 93
        1
 44
0.0
173
     0
291
     0
 45
0.0
1001
ACAD
1000
AcDbSavedByObjectVersion
1070
     0
  0
VISUALSTYLE
  5
178
102
{ACAD_REACTORS
330
170
102
}
330
170
100
AcDbVisualStyle
  2
3D Hidden
 70
     6
 71
     1
 72
     2
 73
     2
 90
        0
 40
-0.6
 41
-30.0
 62
     5
 63
     7
421
 16777215
 74
     2
 91
        2
 64
     7
 65
   257
 75
     2
175
     1
 42
40.0
 92
        0
 66
   257
 43
1.0
 76
     1
 77
     6
 78
     2
 67
     7
 79
     3
170
     0
171
     0
290
     0
174
     0
 93
        1
 44
0.0
173
     0
291
     0
 45
0.0
1001
ACAD
1000
AcDbSavedByObjectVersion
1070
     0
  0
VISUALSTYLE
  5
177
102
{ACAD_REACTORS
330
170
102
}
330
170
100
AcDbVisualStyle
  2
3dWireframe
 70
     5
 71
     0
 72
     2
 73
     0
 90
        0
 40
-0.6
 41
-30.0
 62
     5
 63
     7
421
 16777215
 74
     1
 91
        4
 64
     7
 65
   257
 75
     1
175
     1
 42
1.0
 92
        0
 66
   257
 43
1.0
 76
     1
 77
     6
 78
     2
 67
     7
 79
     5
170
     0
171
     0
290
     0
174
     0
 93
        1
 44
0.0
173
     0
291
     0
 45
0.0
1001
ACAD
1000
AcDbSavedByObjectVersion
1070
     0
  0
VISUALSTYLE
  5
175
102
{ACAD_REACTORS
330
170
102
}
330
170
100
AcDbVisualStyle
  2
Basic
 70
     7
 71
     1
 72
     0
 73
     1
 90
        0
 40
-0.6
 41
-30.0
 62
     5
 63
     7
421
 16777215
 74
     0
 91
        4
 64
     7
 65
   257
 75
     1
175
     1
 42
1.0
 92
        8
 66
     7
 43
1.0
 76
     1
 77
     6
 78
     2
 67
     7
 79
     5
170
     0
171
     0
290
     0
174
     0
 93
        1
 44
0.0
173
     0
291
     1
 45
0.0
1001
ACAD
1000
AcDbSavedByObjectVersion
1070
     0
  0
VISUALSTYLE
  5
17C
102
{ACAD_REACTORS
330
170
102
}
330
170
100
AcDbVisualStyle
  2
Brighten
 70
    12
 71
     2
 72
     2
 73
     0
 90
        0
 40
-0.6
 41
-30.0
 62
     5
 63
     7
421
 16777215
 74
     1
 91
        4
 64
     7
 65
   257
 75
     1
175
     1
 42
1.0
 92
        8
 66
     7
 43
1.0
 76
     1
 77
     6
 78
     2
 67
     7
 79
     5
170
     0
171
     0
290
     0
174
     0
 93
        1
 44
50.0
173
     0
291
     1
 45
0.0
1001
ACAD
1000
AcDbSavedByObjectVersion
1070
     0
  0
VISUALSTYLE
  5
180
102
{ACAD_REACTORS
330
170
102
}
330
170
100
AcDbVisualStyle
  2
ColorChange
 70
    16
 71
     2
 72
     2
 73
     3
 90
        0
 40
-0.6
 41
-30.0
 62
     5
 63
     8
421
  8421504
 74
     1
 91
        4
 64
     7
 65
   257
 75
     1
175
     1
 42
1.0
 92
        8
 66
     8
424
  8421504
 43
1.0
 76
     1
 77
     6
 78
     2
 67
     7
 79
     5
170
     0
171
     0
290
     0
174
     0
 93
        1
 44
0.0
173
     0
291
     1
 45
0.0
1001
ACAD
1000
AcDbSavedByObjectVersion
1070
     0
  0
VISUALSTYLE
  5
179
102
{ACAD_REACTORS
330
170
102
}
330
170
100
AcDbVisualStyle
  2
Conceptual
 70
     9
 71
     3
 72
     2
 73
     0
 90
        0
 40
-0.6
 41
-30.0
 62
     5
 63
     7
421
 16777215
 74
     2
 91
        2
 64
     7
 65
   257
 75
     1
175
     1
 42
40.0
 92
        8
 66
     7
 43
1.0
 76
     1
 77
     6
 78
     2
 67
     7
 79
     3
170
     0
171
     0
290
     0
174
     0
 93
        1
 44
0.0
173
     0
291
     0
 45
0.0
1001
ACAD
1000
AcDbSavedByObjectVersion
1070
     0
  0
VISUALSTYLE
  5
17B
102
{ACAD_REACTORS
330
170
102
}
330
170
100
AcDbVisualStyle
  2
Dim
 70
    11
 71
     2
 72
     2
 73
     0
 90
        0
 40
-0.6
 41
-30.0
 62
     5
 63
     7
421
 16777215
 74
     1
 91
        4
 64
     7
 65
   257
 75
     1
175
     1
 42
1.0
 92
        8
 66
     7
 43
1.0
 76
     1
 77
     6
 78
     2
 67
     7
 79
     5
170
     0
171
     0
290
     0
174
     0
 93
        1
 44
-50.0
173
     0
291
     1
 45
0.0
1001
ACAD
1000
AcDbSavedByObjectVersion
1070
     0
  0
VISUALSTYLE
  5
17F
102
{ACAD_REACTORS
330
170
102
}
330
170
100
AcDbVisualStyle
  2
Facepattern
 70
    15
 71
     2
 72
     2
 73
     0
 90
        0
 40
-0.6
 41
-30.0
 62
     5
 63
     7
421
 16777215
 74
     1
 91
        4
 64
     7
 65
   257
 75
     1
175
     1
 42
1.0
 92
        8
 66
     7
 43
1.0
 76
     1
 77
     6
 78
     2
 67
     7
 79
     5
170
     0
171
     0
290
     0
174
     0
 93
        1
 44
0.0
173
     0
291
     1
 45
0.0
1001
ACAD
1000
AcDbSavedByObjectVersion
1070
     0
  0
VISUALSTYLE
  5
171
102
{ACAD_REACTORS
330
170
102
}
330
170
100
AcDbVisualStyle
  2
Flat
 70
     0
 71
     2
 72
     1
 73
     1
 90
        2
 40
-0.6
 41
30.0
 62
     5
 63
     7
421
 16777215
 74
     0
 91
        4
 64
     7
 65
   257
 75
     1
175
     1
 42
1.0
 92
        8
 66
     7
 43
1.0
 76
     1
 77
     6
 78
     2
 67
     7
 79
     5
170
     0
171
     0
290
     0
174
     0
 93
       13
 44
0.0
173
     0
291
     1
 45
0.0
1001
ACAD
1000
AcDbSavedByObjectVersion
1070
     0
  0
VISUALSTYLE
  5
172
102
{ACAD_REACTORS
330
170
102
}
330
170
100
AcDbVisualStyle
  2
FlatWithEdges
 70
     1
 71
     2
 72
     1
 73
     1
 90
        2
 40
-0.6
 41
30.0
 62
     5
 63
     7
421
 16777215
 74
     1
 91
        4
 64
     7
 65
   257
 75
     1
175
     1
 42
1.0
 92
        0
 66
   257
 43
1.0
 76
     1
 77
     6
 78
     2
 67
     7
 79
     5
170
     0
171
     0
290
     0
174
     0
 93
       13
 44
0.0
173
     0
291
     1
 45
0.0
1001
ACAD
1000
AcDbSavedByObjectVersion
1070
     0
  0
VISUALSTYLE
  5
173
102
{ACAD_REACTORS
330
170
102
}
330
170
100
AcDbVisualStyle
  2
Gouraud
 70
     2
 71
     2
 72
     2
 73
     1
 90
        2
 40
-0.6
 41
30.0
 62
     5
 63
     7
421
 16777215
 74
     0
 91
        4
 64
     7
 65
   257
 75
     1
175
     1
 42
1.0
 92
        0
 66
     7
 43
1.0
 76
     1
 77
     6
 78
     2
 67
     7
 79
     5
170
     0
171
     0
290
     0
174
     0
 93
       13
 44
0.0
173
     0
291
     1
 45
0.0
1001
ACAD
1000
AcDbSavedByObjectVersion
1070
     0
  0
VISUALSTYLE
  5
174
102
{ACAD_REACTORS
330
170
102
}
330
170
100
AcDbVisualStyle
  2
GouraudWithEdges
 70
     3
 71
     2
 72
     2
 73
     1
 90
        2
 40
-0.6
 41
30.0
 62
     5
 63
     7
421
 16777215
 74
     1
 91
        4
 64
     7
 65
   257
 75
     1
175
     1
 42
1.0
 92
        0
 66
   257
 43
1.0
 76
     1
 77
     6
 78
     2
 67
     7
 79
     5
170
     0
171
     0
290
     0
174
     0
 93
       13
 44
0.0
173
     0
291
     1
 45
0.0
1001
ACAD
1000
AcDbSavedByObjectVersion
1070
     0
  0
VISUALSTYLE
  5
17E
102
{ACAD_REACTORS
330
170
102
}
330
170
100
AcDbVisualStyle
  2
Linepattern
 70
    14
 71
     2
 72
     2
 73
     0
 90
        0
 40
-0.6
 41
-30.0
 62
     5
 63
     7
421
 16777215
 74
     1
 91
        4
 64
     7
 65
   257
 75
     7
175
     7
 42
1.0
 92
        8
 66
     7
 43
1.0
 76
     1
 77
     6
 78
     2
 67
     7
 79
     5
170
     0
171
     0
290
     0
174
     0
 93
        1
 44
0.0
173
     0
291
     1
 45
0.0
1001
ACAD
1000
AcDbSavedByObjectVersion
1070
     0
  0
VISUALSTYLE
  5
17A
102
{ACAD_REACTORS
330
170
102
}
330
170
100
AcDbVisualStyle
  2
Realistic
 70
     8
 71
     2
 72
     2
 73
     0
 90
        0
 40
-0.6
 41
-30.0
 62
     5
 63
     7
421
 16777215
 74
     1
 91
        0
 64
     7
 65
   257
 75
     1
175
     1
 42
1.0
 92
        8
 66
     8
424
  7895160
 43
1.0
 76
     1
 77
     6
 78
     2
 67
     7
 79
     5
170
     0
171
     0
290
     0
174
     0
 93
       13
 44
0.0
173
     0
291
     0
 45
0.0
1001
ACAD
1000
AcDbSavedByObjectVersion
1070
     0
  0
VISUALSTYLE
  5
17D
102
{ACAD_REACTORS
330
170
102
}
330
170
100
AcDbVisualStyle
  2
Thicken
 70
    13
 71
     2
 72
     2
 73
     0
 90
        0
 40
-0.6
 41
-30.0
 62
     5
 63
     7
421
 16777215
 74
     1
 91
        4
 64
     7
 65
   257
 75
     1
175
     1
 42
1.0
 92
       12
 66
     7
 43
1.0
 76
     1
 77
     6
 78
     2
 67
     7
 79
     5
170
     0
171
     0
290
     0
174
     0
 93
        1
 44
0.0
173
     0
291
     1
 45
0.0
1001
ACAD
1000
AcDbSavedByObjectVersion
1070
     0
  0
DICTIONARYVAR
  5
1F2
102
{ACAD_REACTORS
330
18C
102
}
330
18C
100
DictionaryVariables
280
     0
  1
1:1
  0
DICTIONARYVAR
  5
1F1
102
{ACAD_REACTORS
330
18C
102
}
330
18C
100
DictionaryVariables
280
     0
  1
STANDARD
  0
DICTIONARYVAR
  5
18D
102
{ACAD_REACTORS
330
18C
102
}
330
18C
100
DictionaryVariables
280
     0
  1
STANDARD
  0
DICTIONARY
  5
1F8
330
16E
100
AcDbDictionary
280
     1
281
     1
  3
ACAD_XREC_ROUNDTRIP
360
1F9
  0
DICTIONARY
  5
1F6
330
16D
100
AcDbDictionary
280
     1
281
     1
  3
ACAD_XREC_ROUNDTRIP
360
1F7
  0
DICTIONARY
  5
1FA
330
16F
100
AcDbDictionary
280
     1
281
     1
  3
ACAD_XREC_ROUNDTRIP
360
1FB
  0
DICTIONARY
  5
1F3
330
183
100
AcDbDictionary
280
     1
281
     1
  3
ACAD_ROUNDTRIP_2008_TABLESTYLE_CELLSTYLEMAP
360
1F4
  3
ACAD_XREC_ROUNDTRIP
360
1FC
  0
XRECORD
  5
1F9
102
{ACAD_REACTORS
330
1F8
102
}
330
1F8
100
AcDbXrecord
280
     1
102
MATERIAL
148
0.0
149
0.0
149
0.0
 93
        0
 94
       63
282
     0
 72
     1
 77
     1
171
     1
175
     1
179
     1
273
     0
  0
XRECORD
  5
1F7
102
{ACAD_REACTORS
330
1F6
102
}
330
1F6
100
AcDbXrecord
280
     1
102
MATERIAL
148
0.0
149
0.0
149
0.0
 93
        0
 94
       63
282
     0
 72
     1
 77
     1
171
     1
175
     1
179
     1
273
     0
  0
XRECORD
  5
1FB
102
{ACAD_REACTORS
330
1FA
102
}
330
1FA
100
AcDbXrecord
280
     1
102
MATERIAL
148
0.0
149
0.0
149
0.0
 93
        0
 94
       63
282
     0
 72
     1
 77
     1
171
     1
175
     1
179
     1
273
     0
  0
CELLSTYLEMAP
  5
1F4
102
{ACAD_REACTORS
330
1F3
102
}
330
1F3
100
AcDbCellStyleMap
 90
        3
300
CELLSTYLE
  1
TABLEFORMAT_BEGIN
 90
        5
170
     1
 91
        0
 92
    32768
 62
   257
 93
        1
300
CONTENTFORMAT
  1
CONTENTFORMAT_BEGIN
 90
        0
 91
        0
 92
      512
 93
        0
300

 40
0.0
140
1.0
 94
        5
 62
     0
340
17
144
0.25
309
CONTENTFORMAT_END
171
     0
 94
        6
 95
        1
302
GRIDFORMAT
  1
GRIDFORMAT_BEGIN
 90
        0
 91
        1
 62
     0
 92
       -2
340
0
 93
        0
 40
0.045
309
GRIDFORMAT_END
 95
        2
302
GRIDFORMAT
  1
GRIDFORMAT_BEGIN
 90
        0
 91
        1
 62
     0
 92
       -2
340
0
 93
        0
 40
0.045
309
GRIDFORMAT_END
 95
        4
302
GRIDFORMAT
  1
GRIDFORMAT_BEGIN
 90
        0
 91
        1
 62
     0
 92
       -2
340
0
 93
        0
 40
0.045
309
GRIDFORMAT_END
 95
        8
302
GRIDFORMAT
  1
GRIDFORMAT_BEGIN
 90
        0
 91
        1
 62
     0
 92
       -2
340
0
 93
        0
 40
0.045
309
GRIDFORMAT_END
 95
       16
302
GRIDFORMAT
  1
GRIDFORMAT_BEGIN
 90
        0
 91
        1
 62
     0
 92
       -2
340
0
 93
        0
 40
0.045
309
GRIDFORMAT_END
 95
       32
302
GRIDFORMAT
  1
GRIDFORMAT_BEGIN
 90
        0
 91
        1
 62
     0
 92
       -2
340
0
 93
        0
 40
0.045
309
GRIDFORMAT_END
309
TABLEFORMAT_END
  1
CELLSTYLE_BEGIN
 90
        1
 91
        1
300
_TITLE
309
CELLSTYLE_END
300
CELLSTYLE
  1
TABLEFORMAT_BEGIN
 90
        5
170
     1
 91
        0
 92
        0
 62
   257
 93
        1
300
CONTENTFORMAT
  1
CONTENTFORMAT_BEGIN
 90
        0
 91
        0
 92
      512
 93
        0
300

 40
0.0
140
1.0
 94
        5
 62
     0
340
17
144
0.18
309
CONTENTFORMAT_END
171
     0
 94
        6
 95
        1
302
GRIDFORMAT
  1
GRIDFORMAT_BEGIN
 90
        0
 91
        1
 62
     0
 92
       -2
340
0
 93
        0
 40
0.045
309
GRIDFORMAT_END
 95
        2
302
GRIDFORMAT
  1
GRIDFORMAT_BEGIN
 90
        0
 91
        1
 62
     0
 92
       -2
340
0
 93
        0
 40
0.045
309
GRIDFORMAT_END
 95
        4
302
GRIDFORMAT
  1
GRIDFORMAT_BEGIN
 90
        0
 91
        1
 62
     0
 92
       -2
340
0
 93
        0
 40
0.045
309
GRIDFORMAT_END
 95
        8
302
GRIDFORMAT
  1
GRIDFORMAT_BEGIN
 90
        0
 91
        1
 62
     0
 92
       -2
340
0
 93
        0
 40
0.045
309
GRIDFORMAT_END
 95
       16
302
GRIDFORMAT
  1
GRIDFORMAT_BEGIN
 90
        0
 91
        1
 62
     0
 92
       -2
340
0
 93
        0
 40
0.045
309
GRIDFORMAT_END
 95
       32
302
GRIDFORMAT
  1
GRIDFORMAT_BEGIN
 90
        0
 91
        1
 62
     0
 92
       -2
340
0
 93
        0
 40
0.045
309
GRIDFORMAT_END
309
TABLEFORMAT_END
  1
CELLSTYLE_BEGIN
 90
        2
 91
        1
300
_HEADER
309
CELLSTYLE_END
300
CELLSTYLE
  1
TABLEFORMAT_BEGIN
 90
        5
170
     1
 91
        0
 92
        0
 62
   257
 93
        1
300
CONTENTFORMAT
  1
CONTENTFORMAT_BEGIN
 90
        0
 91
        0
 92
      512
 93
        0
300

 40
0.0
140
1.0
 94
        2
 62
     0
340
17
144
0.18
309
CONTENTFORMAT_END
171
     0
 94
        6
 95
        1
302
GRIDFORMAT
  1
GRIDFORMAT_BEGIN
 90
        0
 91
        1
 62
     0
 92
       -2
340
0
 93
        0
 40
0.045
309
GRIDFORMAT_END
 95
        2
302
GRIDFORMAT
  1
GRIDFORMAT_BEGIN
 90
        0
 91
        1
 62
     0
 92
       -2
340
0
 93
        0
 40
0.045
309
GRIDFORMAT_END
 95
        4
302
GRIDFORMAT
  1
GRIDFORMAT_BEGIN
 90
        0
 91
        1
 62
     0
 92
       -2
340
0
 93
        0
 40
0.045
309
GRIDFORMAT_END
 95
        8
302
GRIDFORMAT
  1
GRIDFORMAT_BEGIN
 90
        0
 91
        1
 62
     0
 92
       -2
340
0
 93
        0
 40
0.045
309
GRIDFORMAT_END
 95
       16
302
GRIDFORMAT
  1
GRIDFORMAT_BEGIN
 90
        0
 91
        1
 62
     0
 92
       -2
340
0
 93
        0
 40
0.045
309
GRIDFORMAT_END
 95
       32
302
GRIDFORMAT
  1
GRIDFORMAT_BEGIN
 90
        0
 91
        1
 62
     0
 92
       -2
340
0
 93
        0
 40
0.045
309
GRIDFORMAT_END
309
TABLEFORMAT_END
  1
CELLSTYLE_BEGIN
 90
        3
 91
        2
300
_DATA
309
CELLSTYLE_END
  0
XRECORD
  5
1FC
102
{ACAD_REACTORS
330
1F3
102
}
330
1F3
100
AcDbXrecord
280
     1
102
ACAD_ROUNDTRIP_PRE2007_TABLESTYLE
 90
      512
 91
        0
  1

 92
      512
 93
        0
  2

 94
      512
 95
        0
  3

  0
ENDSEC
  0
EOF
