  0
SECTION
  2
HEADER
  9
$ACADVER
  1
AC1018
  9
$ACADMAINTVER
 70
   104
  9
$DWGCODEPAGE
  3
ANSI_1252
  9
$LASTSAVEDBY
  1
EARL
  9
$INSBASE
 10
0.0
 20
0.0
 30
0.0
  9
$EXTMIN
 10
-10.75432922902181
 20
-0.8368215116969999
 30
0.0
  9
$EXTMAX
 10
8.029402539230204
 20
2.530157559586107
 30
0.0
  9
$LIMMIN
 10
0.0
 20
0.0
  9
$LIMMAX
 10
0.0
 20
0.0
  9
$ORTHOMODE
 70
     0
  9
$REGENMODE
 70
     1
  9
$FILLMODE
 70
     1
  9
$QTEXTMODE
 70
     0
  9
$MIRRTEXT
 70
     1
  9
$LTSCALE
 40
1.0
  9
$ATTMODE
 70
     1
  9
$TEXTSIZE
 40
0.0
  9
$TRACEWID
 40
0.05
  9
$TEXTSTYLE
  7
Standard
  9
$CLAYER
  8
0
  9
$CELTYPE
  6
Continuous
  9
$CECOLOR
 62
   256
  9
$CELTSCALE
 40
1.0
  9
$DISPSILH
 70
     0
  9
$DIMSCALE
 40
1.0
  9
$DIMASZ
 40
0.18
  9
$DIMEXO
 40
0.0625
  9
$DIMDLI
 40
0.38
  9
$DIMRND
 40
0.0
  9
$DIMDLE
 40
0.0
  9
$DIMEXE
 40
0.18
  9
$DIMTP
 40
0.0
  9
$DIMTM
 40
0.0
  9
$DIMTXT
 40
0.18
  9
$DIMCEN
 40
0.09
  9
$DIMTSZ
 40
0.0
  9
$DIMTOL
 70
     0
  9
$DIMLIM
 70
     0
  9
$DIMTIH
 70
     1
  9
$DIMTOH
 70
     1
  9
$DIMSE1
 70
     0
  9
$DIMSE2
 70
     0
  9
$DIMTAD
 70
     0
  9
$DIMZIN
 70
     0
  9
$DIMBLK
  1

  9
$DIMASO
 70
     1
  9
$DIMSHO
 70
     1
  9
$DIMPOST
  1

  9
$DIMAPOST
  1

  9
$DIMALT
 70
     0
  9
$DIMALTD
 70
     2
  9
$DIMALTF
 40
25.4
  9
$DIMLFAC
 40
1.0
  9
$DIMTOFL
 70
     0
  9
$DIMTVP
 40
0.0
  9
$DIMTIX
 70
     0
  9
$DIMSOXD
 70
     0
  9
$DIMSAH
 70
     0
  9
$DIMBLK1
  1

  9
$DIMBLK2
  1

  9
$DIMSTYLE
  2
Standard
  9
$DIMCLRD
 70
     0
  9
$DIMCLRE
 70
     0
  9
$DIMCLRT
 70
     0
  9
$DIMTFAC
 40
1.0
  9
$DIMGAP
 40
0.09
  9
$DIMJUST
 70
     0
  9
$DIMSD1
 70
     0
  9
$DIMSD2
 70
     0
  9
$DIMTOLJ
 70
     1
  9
$DIMTZIN
 70
     0
  9
$DIMALTZ
 70
     0
  9
$DIMALTTZ
 70
     0
  9
$DIMUPT
 70
     0
  9
$DIMDEC
 70
     4
  9
$DIMTDEC
 70
     4
  9
$DIMALTU
 70
     2
  9
$DIMALTTD
 70
     2
  9
$DIMTXSTY
  7
Standard
  9
$DIMAUNIT
 70
     0
  9
$DIMADEC
 70
     0
  9
$DIMALTRND
 40
0.0
  9
$DIMAZIN
 70
     0
  9
$DIMDSEP
 70
    46
  9
$DIMATFIT
 70
     0
  9
$DIMFRAC
 70
     0
  9
$DIMLDRBLK
  1

  9
$DIMLUNIT
 70
     2
  9
$DIMLWD
 70
    -2
  9
$DIMLWE
 70
    -2
  9
$DIMTMOVE
 70
     0
  9
$LUNITS
 70
     2
  9
$LUPREC
 70
     4
  9
$SKETCHINC
 40
0.1
  9
$FILLETRAD
 40
0.0
  9
$AUNITS
 70
     0
  9
$AUPREC
 70
     0
  9
$MENU
  1
acad
  9
$ELEVATION
 40
0.0
  9
$PELEVATION
 40
0.0
  9
$THICKNESS
 40
0.0
  9
$LIMCHECK
 70
     0
  9
$CHAMFERA
 40
0.0
  9
$CHAMFERB
 40
0.0
  9
$CHAMFERC
 40
0.0
  9
$CHAMFERD
 40
0.0
  9
$SKPOLY
 70
     0
  9
$TDCREATE
 40
2455006.778356481
  9
$TDUCREATE
 40
2455006.945023149
  9
$TDUPDATE
 40
2455104.583123553
  9
$TDUUPDATE
 40
2455104.749790220
  9
$TDINDWG
 40
0.0025767130
  9
$TDUSRTIMER
 40
0.0025767130
  9
$USRTIMER
 70
     1
  9
$ANGBASE
 50
0.0
  9
$ANGDIR
 70
     0
  9
$PDMODE
 70
     0
  9
$PDSIZE
 40
0.0
  9
$PLINEWID
 40
0.0
  9
$SPLFRAME
 70
     0
  9
$SPLINETYPE
 70
     6
  9
$SPLINESEGS
 70
     8
  9
$HANDSEED
  5
290
  9
$SURFTAB1
 70
     6
  9
$SURFTAB2
 70
     6
  9
$SURFTYPE
 70
     6
  9
$SURFU
 70
     6
  9
$SURFV
 70
     6
  9
$UCSBASE
  2

  9
$UCSNAME
  2

  9
$UCSORG
 10
0.0
 20
0.0
 30
0.0
  9
$UCSXDIR
 10
1.0
 20
0.0
 30
0.0
  9
$UCSYDIR
 10
0.0
 20
1.0
 30
0.0
  9
$UCSORTHOREF
  2

  9
$UCSORTHOVIEW
 70
     0
  9
$UCSORGTOP
 10
0.0
 20
0.0
 30
0.0
  9
$UCSORGBOTTOM
 10
0.0
 20
0.0
 30
0.0
  9
$UCSORGLEFT
 10
0.0
 20
0.0
 30
0.0
  9
$UCSORGRIGHT
 10
0.0
 20
0.0
 30
0.0
  9
$UCSORGFRONT
 10
0.0
 20
0.0
 30
0.0
  9
$UCSORGBACK
 10
0.0
 20
0.0
 30
0.0
  9
$PUCSBASE
  2

  9
$PUCSNAME
  2

  9
$PUCSORG
 10
0.0
 20
0.0
 30
0.0
  9
$PUCSXDIR
 10
1.0
 20
0.0
 30
0.0
  9
$PUCSYDIR
 10
0.0
 20
1.0
 30
0.0
  9
$PUCSORTHOREF
  2

  9
$PUCSORTHOVIEW
 70
     0
  9
$PUCSORGTOP
 10
0.0
 20
0.0
 30
0.0
  9
$PUCSORGBOTTOM
 10
0.0
 20
0.0
 30
0.0
  9
$PUCSORGLEFT
 10
0.0
 20
0.0
 30
0.0
  9
$PUCSORGRIGHT
 10
0.0
 20
0.0
 30
0.0
  9
$PUCSORGFRONT
 10
0.0
 20
0.0
 30
0.0
  9
$PUCSORGBACK
 10
0.0
 20
0.0
 30
0.0
  9
$USERI1
 70
     0
  9
$USERI2
 70
     0
  9
$USERI3
 70
     0
  9
$USERI4
 70
     0
  9
$USERI5
 70
     0
  9
$USERR1
 40
0.0
  9
$USERR2
 40
0.0
  9
$USERR3
 40
0.0
  9
$USERR4
 40
0.0
  9
$USERR5
 40
0.0
  9
$WORLDVIEW
 70
     1
  9
$SHADEDGE
 70
     3
  9
$SHADEDIF
 70
    70
  9
$TILEMODE
 70
     0
  9
$MAXACTVP
 70
    16
  9
$PINSBASE
 10
0.0
 20
0.0
 30
0.0
  9
$PLIMCHECK
 70
     0
  9
$PEXTMIN
 10
-0.1790461235384875
 20
0.0271759260146105
 30
-0.0015258207003583
  9
$PEXTMAX
 10
10.37683133089736
 20
8.016029154163678
 30
0.0000000349246037
  9
$PLIMMIN
 10
-0.3306119115190196
 20
-0.2812499079328949
  9
$PLIMMAX
 10
10.66938784818509
 20
8.218749851771214
  9
$UNITMODE
 70
     0
  9
$VISRETAIN
 70
     0
  9
$PLINEGEN
 70
     1
  9
$PSLTSCALE
 70
     0
  9
$TREEDEPTH
 70
  3020
  9
$CMLSTYLE
  2
Standard
  9
$CMLJUST
 70
     0
  9
$CMLSCALE
 40
1.0
  9
$PROXYGRAPHICS
 70
     0
  9
$MEASUREMENT
 70
     0
  9
$CELWEIGHT
370
     0
  9
$ENDCAPS
280
     0
  9
$JOINSTYLE
280
     0
  9
$LWDISPLAY
290
     0
  9
$INSUNITS
 70
     0
  9
$HYPERLINKBASE
  1

  9
$STYLESHEET
  1

  9
$XEDIT
290
     1
  9
$CEPSNTYPE
380
     0
  9
$PSTYLEMODE
290
     1
  9
$FINGERPRINTGUID
  2

  9
$VERSIONGUID
  2
{79FD4901-F282-4DAA-A041-EE9840AFE380}
  9
$EXTNAMES
290
     1
  9
$PSVPSCALE
 40
0.0
  9
$OLESTARTUP
290
     0
  9
$SORTENTS
280
   127
  9
$INDEXCTL
280
     0
  9
$HIDETEXT
280
     0
  9
$XCLIPFRAME
290
     0
  9
$HALOGAP
280
     0
  9
$OBSCOLOR
 70
   257
  9
$OBSLTYPE
280
     0
  9
$INTERSECTIONDISPLAY
280
     0
  9
$INTERSECTIONCOLOR
 70
   257
  9
$DIMASSOC
280
     1
  9
$PROJECTNAME
  1

  0
ENDSEC
  0
SECTION
  2
CLASSES
  0
CLASS
  1
IMAGE
  2
AcDbRasterImage
  3
ISM
 90
     2175
 91
        0
280
     0
281
     1
  0
CLASS
  1
DICTIONARYVAR
  2
AcDbDictionaryVar
  3
ObjectDBX Classes
 90
        0
 91
        5
280
     0
281
     0
  0
CLASS
  1
RASTERVARIABLES
  2
AcDbRasterVariables
  3
ISM
 90
        0
 91
        0
280
     0
281
     0
  0
CLASS
  1
IMAGEDEF
  2
AcDbRasterImageDef
  3
ISM
 90
        0
 91
        0
280
     0
281
     0
  0
CLASS
  1
IMAGEDEF_REACTOR
  2
AcDbRasterImageDefReactor
  3
ISM
 90
        1
 91
        0
280
     0
281
     0
  0
CLASS
  1
IDBUFFER
  2
AcDbIdBuffer
  3
ObjectDBX Classes
 90
        0
 91
        0
280
     0
281
     0
  0
CLASS
  1
SPATIAL_FILTER
  2
AcDbSpatialFilter
  3
ObjectDBX Classes
 90
        0
 91
        0
280
     0
281
     0
  0
CLASS
  1
SORTENTSTABLE
  2
AcDbSortentsTable
  3
ObjectDBX Classes
 90
        0
 91
        1
280
     0
281
     0
  0
CLASS
  1
LAYER_INDEX
  2
AcDbLayerIndex
  3
ObjectDBX Classes
 90
        0
 91
        0
280
     0
281
     0
  0
CLASS
  1
SPATIAL_INDEX
  2
AcDbSpatialIndex
  3
ObjectDBX Classes
 90
        0
 91
        0
280
     0
281
     0
  0
CLASS
  1
OBJECT_PTR
  2
CAseDLPNTableRecord
  3
ASE-LPNTableRecord
 90
        1
 91
        0
280
     0
281
     0
  0
CLASS
  1
PLOTSETTINGS
  2
AcDbPlotSettings
  3
ObjectDBX Classes
 90
        0
 91
        0
280
     0
281
     0
  0
CLASS
  1
ACDBDICTIONARYWDFLT
  2
AcDbDictionaryWithDefault
  3
ObjectDBX Classes
 90
        0
 91
        1
280
     0
281
     0
  0
CLASS
  1
WIPEOUT
  2
AcDbWipeout
  3
"WipeOut|Product Desc: Object Enabler for WipeOut entity                        |Company: Autodesk, Inc.                        |WEB Address: www.autodesk.com"
 90
     2175
 91
        0
280
     0
281
     1
  0
CLASS
  1
WIPEOUTVARIABLES
  2
AcDbWipeoutVariables
  3
"WipeOut|Product Desc:     WipeOut Dbx Application|Company:          Autodesk, Inc.|WEB Address:      www.autodesk.com"
 90
        0
 91
        1
280
     0
281
     0
  0
CLASS
  1
RTEXT
  2
RText
  3
RText|AutoCAD Express Tool|expresstools@autodesk.com
 90
        0
 91
        0
280
     0
281
     1
  0
CLASS
  1
ARCALIGNEDTEXT
  2
AcDbArcAlignedText
  3
ATEXT|AutoCAD Express Tool|expresstools@autodesk.com
 90
        0
 91
        0
280
     0
281
     1
  0
CLASS
  1
MATERIAL
  2
AcDbMaterial
  3
ObjectDBX Classes
 90
     1153
 91
        3
280
     0
281
     0
  0
CLASS
  1
VISUALSTYLE
  2
AcDbVisualStyle
  3
ObjectDBX Classes
 90
     4095
 91
       16
280
     0
281
     0
  0
CLASS
  1
TABLESTYLE
  2
AcDbTableStyle
  3
ObjectDBX Classes
 90
     4095
 91
        1
280
     0
281
     0
  0
CLASS
  1
SCALE
  2
AcDbScale
  3
ObjectDBX Classes
 90
     1153
 91
       33
280
     0
281
     0
  0
CLASS
  1
MLEADERSTYLE
  2
AcDbMLeaderStyle
  3
ACDB_MLEADERSTYLE_CLASS
 90
     4095
 91
        1
280
     0
281
     0
  0
CLASS
  1
CELLSTYLEMAP
  2
AcDbCellStyleMap
  3
ObjectDBX Classes
 90
     1152
 91
        2
280
     0
281
     0
  0
ENDSEC
  0
SECTION
  2
TABLES
  0
TABLE
  2
VPORT
  5
7
330
0
100
AcDbSymbolTable
 70
     1
  0
VPORT
  5
15
330
7
100
AcDbSymbolTableRecord
100
AcDbViewportTableRecord
  2
*ACTIVE
 70
     0
 10
0.0
 20
0.0
 11
1.0
 21
1.0
 12
12.11780667605996
 22
4.579183999999999
 13
0.0
 23
0.0
 14
1.0
 24
1.0
 15
0.0
 25
0.0
 16
0.0
 26
0.0
 36
1.0
 17
0.0
 27
0.0
 37
0.0
 40
9.158369
 41
1.895442359249329
 42
50.0
 43
0.0
 44
0.0
 50
0.0
 51
0.0
 71
     0
 72
   100
 73
     1
 74
     1
 75
     0
 76
     0
 77
     0
 78
     0
281
     0
 65
     0
110
0.0
120
0.0
130
0.0
111
1.0
121
0.0
131
0.0
112
0.0
122
1.0
132
0.0
 79
     0
146
0.0
  0
ENDTAB
  0
TABLE
  2
LTYPE
  5
4
330
0
100
AcDbSymbolTable
 70
     6
  0
LTYPE
  5
11
330
4
100
AcDbSymbolTableRecord
100
AcDbLinetypeTableRecord
  2
ByBlock
 70
     0
  3

 72
    65
 73
     0
 40
0.0
  0
LTYPE
  5
12
330
4
100
AcDbSymbolTableRecord
100
AcDbLinetypeTableRecord
  2
ByLayer
 70
     0
  3

 72
    65
 73
     0
 40
0.0
  0
LTYPE
  5
13
330
4
100
AcDbSymbolTableRecord
100
AcDbLinetypeTableRecord
  2
Continuous
 70
     0
  3
Solid line
 72
    65
 73
     0
 40
0.0
  0
LTYPE
  5
24
330
4
100
AcDbSymbolTableRecord
100
AcDbLinetypeTableRecord
  2
solid
 70
     0
  3

 72
    65
 73
     0
 40
0.0
  0
LTYPE
  5
25
330
4
100
AcDbSymbolTableRecord
100
AcDbLinetypeTableRecord
  2
dashed
 70
     0
  3

 72
    65
 73
     0
 40
0.0
  0
LTYPE
  5
26
330
4
100
AcDbSymbolTableRecord
100
AcDbLinetypeTableRecord
  2
center
 70
     0
  3

 72
    65
 73
     0
 40
0.0
  0
ENDTAB
  0
TABLE
  2
LAYER
  5
2
330
0
100
AcDbSymbolTable
 70
     3
  0
LAYER
  5
14
102
{ACAD_XDICTIONARY
360
238
102
}
330
2
100
AcDbSymbolTableRecord
100
AcDbLayerTableRecord
  2
0
 70
     0
 62
     7
  6
Continuous
370
    -3
390
1D
  0
LAYER
  5
27
102
{ACAD_XDICTIONARY
360
23A
102
}
330
2
100
AcDbSymbolTableRecord
100
AcDbLayerTableRecord
  2
1
 70
     0
 62
     1
  6
solid
370
    -3
390
1D
  0
LAYER
  5
1BB
102
{ACAD_XDICTIONARY
360
23C
102
}
330
2
100
AcDbSymbolTableRecord
100
AcDbLayerTableRecord
  2
0
 70
     0
 62
     1
  6
solid
370
    -3
390
1D
  0
ENDTAB
  0
TABLE
  2
STYLE
  5
3
330
0
100
AcDbSymbolTable
 70
     2
  0
STYLE
  5
17
330
3
100
AcDbSymbolTableRecord
100
AcDbTextStyleTableRecord
  2
Standard
 70
     0
 40
0.0
 41
1.0
 50
0.0
 71
     0
 42
0.0
  3
txt
  4

  0
ENDTAB
  0
TABLE
  2
VIEW
  5
5
330
0
100
AcDbSymbolTable
 70
     0
  0
ENDTAB
  0
TABLE
  2
UCS
  5
6
330
0
100
AcDbSymbolTable
 70
     0
  0
ENDTAB
  0
TABLE
  2
APPID
  5
8
330
0
100
AcDbSymbolTable
 70
     5
  0
APPID
  5
16
330
8
100
AcDbSymbolTableRecord
100
AcDbRegAppTableRecord
  2
ACAD
 70
     0
  0
APPID
  5
207
330
8
100
AcDbSymbolTableRecord
100
AcDbRegAppTableRecord
  2
ACAD_PSEXT
 70
     0
  0
APPID
  5
231
330
8
100
AcDbSymbolTableRecord
100
AcDbRegAppTableRecord
  2
ACAD_MLEADERVER
 70
     0
  0
APPID
  5
26C
330
8
100
AcDbSymbolTableRecord
100
AcDbRegAppTableRecord
  2
ACAD_EXEMPT_FROM_CAD_STANDARDS
 70
     0
  0
APPID
  5
270
330
8
100
AcDbSymbolTableRecord
100
AcDbRegAppTableRecord
  2
DCO15
 70
     0
  0
ENDTAB
  0
TABLE
  2
DIMSTYLE
  5
9
330
0
100
AcDbSymbolTable
 70
     3
100
AcDbDimStyleTable
 71
     1
340
18
  0
DIMSTYLE
105
18
330
9
100
AcDbSymbolTableRecord
100
AcDbDimStyleTableRecord
  2
Standard
 70
     0
289
     0
340
17
  0
ENDTAB
  0
TABLE
  2
BLOCK_RECORD
  5
1
330
0
100
AcDbSymbolTable
 70
     5
  0
BLOCK_RECORD
  5
A
102
{ACAD_XDICTIONARY
360
256
102
}
330
1
100
AcDbSymbolTableRecord
100
AcDbBlockTableRecord
  2
*MODEL_SPACE
340
20
  0
BLOCK_RECORD
  5
B
330
1
100
AcDbSymbolTableRecord
100
AcDbBlockTableRecord
  2
*PAPER_SPACE
340
21
  0
BLOCK_RECORD
  5
49
330
1
100
AcDbSymbolTableRecord
100
AcDbBlockTableRecord
  2
*D0
340
0
  0
BLOCK_RECORD
  5
54
330
1
100
AcDbSymbolTableRecord
100
AcDbBlockTableRecord
  2
*D1
340
0
  0
BLOCK_RECORD
  5
1B0
330
1
100
AcDbSymbolTableRecord
100
AcDbBlockTableRecord
  2
*D2
340
0
  0
ENDTAB
  0
ENDSEC
  0
SECTION
  2
BLOCKS
  0
BLOCK
  5
D
330
A
100
AcDbEntity
  8
0
100
AcDbBlockBegin
  2
*MODEL_SPACE
 70
     0
 10
0.0
 20
0.0
 30
0.0
  3
*MODEL_SPACE
  1

  0
ENDBLK
  5
E
330
A
100
AcDbEntity
  8
0
100
AcDbBlockEnd
  0
BLOCK
  5
F
330
B
100
AcDbEntity
 67
     1
  8
0
100
AcDbBlockBegin
  2
*PAPER_SPACE
 70
     0
 10
0.0
 20
0.0
 30
0.0
  3
*PAPER_SPACE
  1

  0
ENDBLK
  5
10
330
B
100
AcDbEntity
 67
     1
  8
0
100
AcDbBlockEnd
  0
BLOCK
  5
4A
330
49
100
AcDbEntity
  8
1
  6
solid
 62
     7
100
AcDbBlockBegin
  2
*D0
 70
     0
 10
0.0
 20
0.0
 30
0.0
  3
*D0
  1

  0
LINE
  5
4B
330
49
100
AcDbEntity
  8
1
  6
solid
 62
     7
100
AcDbLine
 10
6.625
 20
0.0
 30
0.0
 11
7.466902539230204
 21
0.0
 31
0.0
  0
LINE
  5
4C
330
49
100
AcDbEntity
  8
1
  6
solid
 62
     7
100
AcDbLine
 10
6.875
 20
1.499999999999999
 30
0.0
 11
7.466902539230206
 21
1.499999999999998
 31
0.0
  0
LINE
  5
4D
330
49
100
AcDbEntity
  8
1
  6
solid
 62
     7
100
AcDbLine
 10
7.279402539230204
 20
0.0
 30
0.0
 11
7.279402539230205
 21
0.2703822115384606
 31
0.0
  0
LINE
  5
4E
330
49
100
AcDbEntity
  8
1
  6
solid
 62
     7
100
AcDbLine
 10
7.279402539230206
 20
1.499999999999998
 30
0.0
 11
7.279402539230205
 21
1.229617788461538
 31
0.0
  0
MTEXT
  5
4F
330
49
100
AcDbEntity
  8
1
  6
solid
 62
     7
100
AcDbMText
 10
7.279402539230205
 20
0.7499999999999996
 30
0.0
 40
0.375
 41
0.0
 71
     5
 72
     1
  1
{\H0.375000;1 1/2}
 73
     1
 44
1.0
  0
SOLID
  5
50
330
49
100
AcDbEntity
  8
1
  6
solid
 62
     7
100
AcDbTrace
 10
7.216965039230204
 20
0.3750000000000001
 30
0.0
 11
7.341840039230205
 21
0.375
 31
0.0
 12
7.279402539230204
 22
0.0
 32
0.0
 13
7.279402539230204
 23
0.0
 33
0.0
  0
SOLID
  5
51
330
49
100
AcDbEntity
  8
1
  6
solid
 62
     7
100
AcDbTrace
 10
7.341840039230207
 20
1.124999999999998
 30
0.0
 11
7.216965039230205
 21
1.124999999999998
 31
0.0
 12
7.279402539230206
 22
1.499999999999998
 32
0.0
 13
7.279402539230206
 23
1.499999999999998
 33
0.0
  0
ENDBLK
  5
52
330
49
100
AcDbEntity
  8
1
  6
solid
 62
     7
100
AcDbBlockEnd
  0
BLOCK
  5
55
330
54
100
AcDbEntity
  8
1
  6
solid
 62
     7
100
AcDbBlockBegin
  2
*D1
 70
     0
 10
0.0
 20
0.0
 30
0.0
  3
*D1
  1

  0
LINE
  5
56
330
54
100
AcDbEntity
  8
1
  6
solid
 62
     7
100
AcDbLine
 10
6.158411284069115
 20
2.023394757851781
 30
0.0
 11
6.258366345539449
 21
2.298019083247912
 31
0.0
  0
LINE
  5
57
330
54
100
AcDbEntity
  8
1
  6
solid
 62
     7
100
AcDbLine
 10
6.628257532695823
 20
1.852384740456761
 30
0.0
 11
6.728212594166157
 21
2.127009065852892
 31
0.0
  0
LINE
  5
58
330
54
100
AcDbEntity
  8
1
  6
solid
 62
     7
100
AcDbLine
 10
6.194237579191536
 20
2.121826713019531
 30
0.0
 11
5.489468098278012
 21
2.37834177841118
 31
0.0
  0
LINE
  5
59
330
54
100
AcDbEntity
  8
1
  6
solid
 62
     7
100
AcDbLine
 10
6.664083827818244
 20
1.950816695624511
 30
0.0
 11
7.368853308731768
 21
1.694301630232862
 31
0.0
  0
MTEXT
  5
5A
330
54
100
AcDbEntity
  8
1
  6
solid
 62
     7
100
AcDbMText
 10
6.429160703504891
 20
2.036321704322021
 30
0.0
 40
0.375
 41
0.0
 71
     5
 72
     1
  1
{\H0.375000;1/2}
 73
     1
 44
1.0
  0
SOLID
  5
5B
330
54
100
AcDbEntity
  8
1
  6
solid
 62
     7
100
AcDbTrace
 10
5.820497959540919
 20
2.191412186429306
 30
0.0
 11
5.863207717928629
 21
2.308756305001407
 31
0.0
 12
6.194237579191536
 22
2.121826713019531
 32
0.0
 13
6.194237579191536
 23
2.121826713019531
 33
0.0
  0
SOLID
  5
5C
330
54
100
AcDbEntity
  8
1
  6
solid
 62
     7
100
AcDbTrace
 10
7.037823447468862
 20
1.881231222214737
 30
0.0
 11
6.995113689081152
 21
1.763887103642636
 31
0.0
 12
6.664083827818244
 22
1.950816695624511
 32
0.0
 13
6.664083827818244
 23
1.950816695624511
 33
0.0
  0
ENDBLK
  5
5D
330
54
100
AcDbEntity
  8
1
  6
solid
 62
     7
100
AcDbBlockEnd
  0
BLOCK
  5
1B1
330
1B0
100
AcDbEntity
  8
1
  6
solid
 62
     7
100
AcDbBlockBegin
  2
*D2
 70
     0
 10
0.0
 20
0.0
 30
0.0
  3
*D2
  1

  0
LINE
  5
1B2
330
1B0
100
AcDbEntity
  8
1
  6
solid
 62
     7
100
AcDbLine
 10
-2.33563943724194
 20
0.0
 30
0.0
 11
-1.493736898011736
 21
0.0
 31
0.0
  0
LINE
  5
1B3
330
1B0
100
AcDbEntity
  8
1
  6
solid
 62
     7
100
AcDbLine
 10
-2.08563943724194
 20
1.499999999999999
 30
0.0
 11
-1.493736898011734
 21
1.499999999999998
 31
0.0
  0
LINE
  5
1B4
330
1B0
100
AcDbEntity
  8
1
  6
solid
 62
     7
100
AcDbLine
 10
-1.681236898011736
 20
0.0
 30
0.0
 11
-1.681236898011735
 21
0.2703822115384606
 31
0.0
  0
LINE
  5
1B5
330
1B0
100
AcDbEntity
  8
1
  6
solid
 62
     7
100
AcDbLine
 10
-1.681236898011734
 20
1.499999999999998
 30
0.0
 11
-1.681236898011735
 21
1.229617788461538
 31
0.0
  0
MTEXT
  5
1B6
330
1B0
100
AcDbEntity
  8
1
  6
solid
 62
     7
100
AcDbMText
 10
-1.681236898011735
 20
0.7499999999999996
 30
0.0
 40
0.375
 41
0.0
 71
     5
 72
     1
  1
{\H0.375000;1 1/2}
 73
     1
 44
1.0
  0
SOLID
  5
1B7
330
1B0
100
AcDbEntity
  8
1
  6
solid
 62
     7
100
AcDbTrace
 10
-1.743674398011734
 20
0.3750000000000003
 30
0.0
 11
-1.618799398011734
 21
0.3749999999999997
 31
0.0
 12
-1.681236898011736
 22
0.0
 32
0.0
 13
-1.681236898011736
 23
0.0
 33
0.0
  0
SOLID
  5
1B8
330
1B0
100
AcDbEntity
  8
1
  6
solid
 62
     7
100
AcDbTrace
 10
-1.618799398011735
 20
1.124999999999998
 30
0.0
 11
-1.743674398011735
 21
1.124999999999998
 31
0.0
 12
-1.681236898011734
 22
1.499999999999998
 32
0.0
 13
-1.681236898011734
 23
1.499999999999998
 33
0.0
  0
ENDBLK
  5
1B9
330
1B0
100
AcDbEntity
  8
1
  6
solid
 62
     7
100
AcDbBlockEnd
  0
ENDSEC
  0
SECTION
  2
ENTITIES
  0
LINE
  5
28
330
A
100
AcDbEntity
  8
1
  6
solid
 62
     7
100
AcDbLine
 10
0.0
 20
0.0
 30
0.0
 11
0.0
 21
0.59375
 31
0.0
  0
LINE
  5
29
330
A
100
AcDbEntity
  8
1
  6
solid
 62
     7
100
AcDbLine
 10
1.0
 20
0.0
 30
0.0
 11
1.0
 21
0.59375
 31
0.0
  0
LINE
  5
2A
330
A
100
AcDbEntity
  8
1
  6
solid
 62
     7
100
AcDbLine
 10
1.75
 20
0.0
 30
0.0
 11
1.75
 21
0.59375
 31
0.0
  0
LINE
  5
2B
330
A
100
AcDbEntity
  8
1
  6
solid
 62
     7
100
AcDbLine
 10
2.75
 20
0.0
 30
0.0
 11
2.75
 21
0.59375
 31
0.0
  0
LINE
  5
2C
330
A
100
AcDbEntity
  8
1
  6
solid
 62
     7
100
AcDbLine
 10
3.5
 20
0.0
 30
0.0
 11
3.5
 21
0.59375
 31
0.0
  0
LINE
  5
2D
330
A
100
AcDbEntity
  8
1
  6
solid
 62
     7
100
AcDbLine
 10
4.5
 20
0.0
 30
0.0
 11
4.5
 21
0.59375
 31
0.0
  0
LINE
  5
2E
330
A
100
AcDbEntity
  8
1
  6
solid
 62
     7
100
AcDbLine
 10
5.25
 20
0.0
 30
0.0
 11
5.25
 21
0.59375
 31
0.0
  0
LINE
  5
2F
330
A
100
AcDbEntity
  8
1
  6
solid
 62
     7
100
AcDbLine
 10
-0.25
 20
1.5
 30
0.0
 11
-0.25
 21
0.59375
 31
0.0
  0
LINE
  5
30
330
A
100
AcDbEntity
  8
1
  6
solid
 62
     7
100
AcDbLine
 10
-0.25
 20
0.59375
 30
0.0
 11
0.0
 21
0.59375
 31
0.0
  0
LINE
  5
31
330
A
100
AcDbEntity
  8
1
  6
solid
 62
     7
100
AcDbLine
 10
0.0
 20
0.0
 30
0.0
 11
1.0
 21
0.0
 31
0.0
  0
LINE
  5
32
330
A
100
AcDbEntity
  8
1
  6
solid
 62
     7
100
AcDbLine
 10
1.0
 20
0.59375
 30
0.0
 11
1.75
 21
0.59375
 31
0.0
  0
LINE
  5
33
330
A
100
AcDbEntity
  8
1
  6
solid
 62
     7
100
AcDbLine
 10
1.75
 20
0.0
 30
0.0
 11
2.75
 21
0.0
 31
0.0
  0
LINE
  5
34
330
A
100
AcDbEntity
  8
1
  6
solid
 62
     7
100
AcDbLine
 10
2.75
 20
0.59375
 30
0.0
 11
3.5
 21
0.59375
 31
0.0
  0
LINE
  5
35
330
A
100
AcDbEntity
  8
1
  6
solid
 62
     7
100
AcDbLine
 10
3.5
 20
0.0
 30
0.0
 11
4.5
 21
0.0
 31
0.0
  0
LINE
  5
36
330
A
100
AcDbEntity
  8
1
  6
solid
 62
     7
100
AcDbLine
 10
4.5
 20
0.59375
 30
0.0
 11
5.25
 21
0.59375
 31
0.0
  0
LINE
  5
37
330
A
100
AcDbEntity
  8
1
  6
solid
 62
     7
100
AcDbLine
 10
5.25
 20
0.0
 30
0.0
 11
6.25
 21
0.0
 31
0.0
  0
LINE
  5
38
330
A
100
AcDbEntity
  8
1
  6
solid
 62
     7
100
AcDbLine
 10
6.25
 20
0.0
 30
0.0
 11
6.25
 21
0.59375
 31
0.0
  0
LINE
  5
39
330
A
100
AcDbEntity
  8
1
  6
solid
 62
     7
100
AcDbLine
 10
6.25
 20
0.59375
 30
0.0
 11
6.5
 21
0.59375
 31
0.0
  0
LINE
  5
3A
330
A
100
AcDbEntity
  8
1
  6
solid
 62
     7
100
AcDbLine
 10
-0.25
 20
1.5
 30
0.0
 11
6.5
 21
1.5
 31
0.0
  0
LINE
  5
3B
330
A
100
AcDbEntity
  8
1
  6
solid
 62
     7
100
AcDbLine
 10
6.5
 20
1.5
 30
0.0
 11
6.5
 21
0.59375
 31
0.0
  0
LINE
  5
3C
330
A
100
AcDbEntity
  8
1
  6
solid
 62
     7
100
AcDbLine
 10
0.0
 20
0.0
 30
0.0
 11
-0.4698463103929543
 21
0.1710100716628343
 31
0.0
  0
LINE
  5
3D
330
A
100
AcDbEntity
  8
1
  6
solid
 62
     7
100
AcDbLine
 10
-0.4698463082313538
 20
0.1710100769996643
 30
0.0
 11
-0.4698463082313538
 21
0.6737675151748205
 31
0.0
  0
LINE
  5
3E
330
A
100
AcDbEntity
  8
1
  6
solid
 62
     7
100
AcDbLine
 10
1.280153691768646
 20
0.1710100769996643
 30
0.0
 11
1.280153691768646
 21
0.59375
 31
0.0
  0
LINE
  5
3F
330
A
100
AcDbEntity
  8
1
  6
solid
 62
     7
100
AcDbLine
 10
3.030153691768646
 20
0.1710100769996643
 30
0.0
 11
3.030153691768646
 21
0.59375
 31
0.0
  0
LINE
  5
40
330
A
100
AcDbEntity
  8
1
  6
solid
 62
     7
100
AcDbLine
 10
4.780153691768646
 20
0.1710100769996643
 30
0.0
 11
4.780153691768646
 21
0.59375
 31
0.0
  0
LINE
  5
41
330
A
100
AcDbEntity
  8
1
  6
solid
 62
     7
100
AcDbLine
 10
-0.7198463082313538
 20
1.671010076999664
 30
0.0
 11
-0.7198463082313538
 21
0.7647600769996643
 31
0.0
  0
LINE
  5
42
330
A
100
AcDbEntity
  8
1
  6
solid
 62
     7
100
AcDbLine
 10
-0.7198463082313538
 20
1.671010076999664
 30
0.0
 11
6.030153691768646
 21
1.671010076999664
 31
0.0
  0
LINE
  5
43
330
A
100
AcDbEntity
  8
1
  6
solid
 62
     7
100
AcDbLine
 10
-0.25
 20
0.59375
 30
0.0
 11
-0.7198463082313538
 21
0.7647600769996643
 31
0.0
  0
LINE
  5
44
330
A
100
AcDbEntity
  8
1
  6
solid
 62
     7
100
AcDbLine
 10
1.75
 20
0.0
 30
0.0
 11
1.280153751373291
 21
0.1710100769996643
 31
0.0
  0
LINE
  5
45
330
A
100
AcDbEntity
  8
1
  6
solid
 62
     7
100
AcDbLine
 10
3.5
 20
0.0
 30
0.0
 11
3.030153751373291
 21
0.1710100769996643
 31
0.0
  0
LINE
  5
46
330
A
100
AcDbEntity
  8
1
  6
solid
 62
     7
100
AcDbLine
 10
5.25
 20
0.0
 30
0.0
 11
4.780153751373291
 21
0.1710100769996643
 31
0.0
  0
LINE
  5
47
330
A
100
AcDbEntity
  8
1
  6
solid
 62
     7
100
AcDbLine
 10
-0.25
 20
1.5
 30
0.0
 11
-0.7198463082313538
 21
1.671010017395019
 31
0.0
  0
LINE
  5
48
330
A
100
AcDbEntity
  8
1
  6
solid
 62
     7
100
AcDbLine
 10
6.5
 20
1.5
 30
0.0
 11
6.030153751373291
 21
1.671010017395019
 31
0.0
  0
LINE
  5
5F
330
A
100
AcDbEntity
  8
1
  6
solid
 62
     7
100
AcDbLine
 10
1.587666065452106
 20
-0.8368215116969999
 30
0.0
 11
1.587666065452106
 21
-0.8043695886200769
 31
0.0
  0
LINE
  5
60
330
A
100
AcDbEntity
  8
1
  6
solid
 62
     7
100
AcDbLine
 10
1.587666065452106
 20
-0.8043695886200769
 30
0.0
 11
1.614626849765832
 21
-0.8043695886200769
 31
0.0
  0
LINE
  5
61
330
A
100
AcDbEntity
  8
1
  6
solid
 62
     7
100
AcDbLine
 10
1.614626849765832
 20
-0.8043695886200769
 30
0.0
 11
1.614626849765832
 21
-0.6192734347739231
 31
0.0
  0
LINE
  5
62
330
A
100
AcDbEntity
  8
1
  6
solid
 62
     7
100
AcDbLine
 10
1.614626849765832
 20
-0.6192734347739231
 30
0.0
 11
1.586195477216812
 21
-0.6192734347739231
 31
0.0
  0
LINE
  5
63
330
A
100
AcDbEntity
  8
1
  6
solid
 62
     7
100
AcDbLine
 10
1.586195477216812
 20
-0.6192734347739231
 30
0.0
 11
1.586195477216812
 21
-0.586821511697
 31
0.0
  0
LINE
  5
64
330
A
100
AcDbEntity
  8
1
  6
solid
 62
     7
100
AcDbLine
 10
1.586195477216812
 20
-0.586821511697
 30
0.0
 11
1.649920967412891
 21
-0.586821511697
 31
0.0
  0
LINE
  5
65
330
A
100
AcDbEntity
  8
1
  6
solid
 62
     7
100
AcDbLine
 10
1.649920967412891
 20
-0.586821511697
 30
0.0
 11
1.649920967412891
 21
-0.8043695886200769
 31
0.0
  0
LINE
  5
66
330
A
100
AcDbEntity
  8
1
  6
solid
 62
     7
100
AcDbLine
 10
1.649920967412891
 20
-0.8043695886200769
 30
0.0
 11
1.679822928197205
 21
-0.8043695886200769
 31
0.0
  0
LINE
  5
67
330
A
100
AcDbEntity
  8
1
  6
solid
 62
     7
100
AcDbLine
 10
1.679822928197205
 20
-0.8043695886200769
 30
0.0
 11
1.679822928197205
 21
-0.8368215116969999
 31
0.0
  0
LINE
  5
68
330
A
100
AcDbEntity
  8
1
  6
solid
 62
     7
100
AcDbLine
 10
1.679822928197205
 20
-0.8368215116969999
 30
0.0
 11
1.587666065452106
 21
-0.8368215116969999
 31
0.0
  0
LINE
  5
69
330
A
100
AcDbEntity
  8
1
  6
solid
 62
     7
100
AcDbLine
 10
1.845509202707008
 20
-0.586821511697
 30
0.0
 11
1.739626849765832
 21
-0.8368215116969999
 31
0.0
  0
LINE
  5
6A
330
A
100
AcDbEntity
  8
1
  6
solid
 62
     7
100
AcDbLine
 10
1.739626849765832
 20
-0.8368215116969999
 30
0.0
 11
1.720509202707008
 21
-0.8368215116969999
 31
0.0
  0
LINE
  5
6B
330
A
100
AcDbEntity
  8
1
  6
solid
 62
     7
100
AcDbLine
 10
1.720509202707008
 20
-0.8368215116969999
 30
0.0
 11
1.826391555648185
 21
-0.586821511697
 31
0.0
  0
LINE
  5
6C
330
A
100
AcDbEntity
  8
1
  6
solid
 62
     7
100
AcDbLine
 10
1.826391555648185
 20
-0.586821511697
 30
0.0
 11
1.845509202707008
 21
-0.586821511697
 31
0.0
  0
LINE
  5
6D
330
A
100
AcDbEntity
  8
1
  6
solid
 62
     7
100
AcDbLine
 10
1.875901359569754
 20
-0.8368215116969999
 30
0.0
 11
1.875901359569754
 21
-0.8043695886200769
 31
0.0
  0
LINE
  5
6E
330
A
100
AcDbEntity
  8
1
  6
solid
 62
     7
100
AcDbLine
 10
1.875901359569754
 20
-0.8043695886200769
 30
0.0
 11
1.951391555648185
 21
-0.6986003578508461
 31
0.0
  0
LINE
  5
6F
330
A
100
AcDbEntity
  8
1
  6
solid
 62
     7
100
AcDbLine
 10
1.951391555648185
 20
-0.6986003578508461
 30
0.0
 11
1.958254300746224
 21
-0.6865811270816154
 31
0.0
  0
LINE
  5
70
330
A
100
AcDbEntity
  8
1
  6
solid
 62
     7
100
AcDbLine
 10
1.958254300746224
 20
-0.6865811270816154
 30
0.0
 11
1.961195477216812
 21
-0.6793695886200768
 31
0.0
  0
LINE
  5
71
330
A
100
AcDbEntity
  8
1
  6
solid
 62
     7
100
AcDbLine
 10
1.961195477216812
 20
-0.6793695886200768
 30
0.0
 11
1.9641366536874
 21
-0.6661484347739231
 31
0.0
  0
LINE
  5
72
330
A
100
AcDbEntity
  8
1
  6
solid
 62
     7
100
AcDbLine
 10
1.9641366536874
 20
-0.6661484347739231
 30
0.0
 11
1.9641366536874
 21
-0.6565330501585384
 31
0.0
  0
LINE
  5
73
330
A
100
AcDbEntity
  8
1
  6
solid
 62
     7
100
AcDbLine
 10
1.9641366536874
 20
-0.6565330501585384
 30
0.0
 11
1.961195477216812
 21
-0.6457157424662307
 31
0.0
  0
LINE
  5
74
330
A
100
AcDbEntity
  8
1
  6
solid
 62
     7
100
AcDbLine
 10
1.961195477216812
 20
-0.6457157424662307
 30
0.0
 11
1.958254300746224
 21
-0.6361003578508461
 31
0.0
  0
LINE
  5
75
330
A
100
AcDbEntity
  8
1
  6
solid
 62
     7
100
AcDbLine
 10
1.958254300746224
 20
-0.6361003578508461
 30
0.0
 11
1.952862143883479
 21
-0.6288888193893076
 31
0.0
  0
LINE
  5
76
330
A
100
AcDbEntity
  8
1
  6
solid
 62
     7
100
AcDbLine
 10
1.952862143883479
 20
-0.6288888193893076
 30
0.0
 11
1.947469987020734
 21
-0.6240811270816154
 31
0.0
  0
LINE
  5
77
330
A
100
AcDbEntity
  8
1
  6
solid
 62
     7
100
AcDbLine
 10
1.947469987020734
 20
-0.6240811270816154
 30
0.0
 11
1.942077830157989
 21
-0.6204753578508461
 31
0.0
  0
LINE
  5
78
330
A
100
AcDbEntity
  8
1
  6
solid
 62
     7
100
AcDbLine
 10
1.942077830157989
 20
-0.6204753578508461
 30
0.0
 11
1.933744496824655
 21
-0.6168695886200768
 31
0.0
  0
LINE
  5
79
330
A
100
AcDbEntity
  8
1
  6
solid
 62
     7
100
AcDbLine
 10
1.933744496824655
 20
-0.6168695886200768
 30
0.0
 11
1.923940575256028
 21
-0.6168695886200768
 31
0.0
  0
LINE
  5
7A
330
A
100
AcDbEntity
  8
1
  6
solid
 62
     7
100
AcDbLine
 10
1.923940575256028
 20
-0.6168695886200768
 30
0.0
 11
1.915607241922695
 21
-0.6204753578508461
 31
0.0
  0
LINE
  5
7B
330
A
100
AcDbEntity
  8
1
  6
solid
 62
     7
100
AcDbLine
 10
1.915607241922695
 20
-0.6204753578508461
 30
0.0
 11
1.908744496824656
 21
-0.6252830501585384
 31
0.0
  0
LINE
  5
7C
330
A
100
AcDbEntity
  8
1
  6
solid
 62
     7
100
AcDbLine
 10
1.908744496824656
 20
-0.6252830501585384
 30
0.0
 11
1.904822928197204
 21
-0.6312926655431538
 31
0.0
  0
LINE
  5
7D
330
A
100
AcDbEntity
  8
1
  6
solid
 62
     7
100
AcDbLine
 10
1.904822928197204
 20
-0.6312926655431538
 30
0.0
 11
1.900901359569753
 21
-0.6361003578508461
 31
0.0
  0
LINE
  5
7E
330
A
100
AcDbEntity
  8
1
  6
solid
 62
     7
100
AcDbLine
 10
1.900901359569753
 20
-0.6361003578508461
 30
0.0
 11
1.896489594863871
 21
-0.6469176655431538
 31
0.0
  0
LINE
  5
7F
330
A
100
AcDbEntity
  8
1
  6
solid
 62
     7
100
AcDbLine
 10
1.896489594863871
 20
-0.6469176655431538
 30
0.0
 11
1.894038614471714
 21
-0.6625426655431538
 31
0.0
  0
LINE
  5
80
330
A
100
AcDbEntity
  8
1
  6
solid
 62
     7
100
AcDbLine
 10
1.894038614471714
 20
-0.6625426655431538
 30
0.0
 11
1.870509202707008
 21
-0.6625426655431538
 31
0.0
  0
LINE
  5
81
330
A
100
AcDbEntity
  8
1
  6
solid
 62
     7
100
AcDbLine
 10
1.870509202707008
 20
-0.6625426655431538
 30
0.0
 11
1.871979790942303
 21
-0.6469176655431538
 31
0.0
  0
LINE
  5
82
330
A
100
AcDbEntity
  8
1
  6
solid
 62
     7
100
AcDbLine
 10
1.871979790942303
 20
-0.6469176655431538
 30
0.0
 11
1.875901359569754
 21
-0.6312926655431538
 31
0.0
  0
LINE
  5
83
330
A
100
AcDbEntity
  8
1
  6
solid
 62
     7
100
AcDbLine
 10
1.875901359569754
 20
-0.6312926655431538
 30
0.0
 11
1.881293516432499
 21
-0.6192734347739231
 31
0.0
  0
LINE
  5
84
330
A
100
AcDbEntity
  8
1
  6
solid
 62
     7
100
AcDbLine
 10
1.881293516432499
 20
-0.6192734347739231
 30
0.0
 11
1.888156261530538
 21
-0.6084561270816154
 31
0.0
  0
LINE
  5
85
330
A
100
AcDbEntity
  8
1
  6
solid
 62
     7
100
AcDbLine
 10
1.888156261530538
 20
-0.6084561270816154
 30
0.0
 11
1.896489594863871
 21
-0.5988407424662307
 31
0.0
  0
LINE
  5
86
330
A
100
AcDbEntity
  8
1
  6
solid
 62
     7
100
AcDbLine
 10
1.896489594863871
 20
-0.5988407424662307
 30
0.0
 11
1.904822928197204
 21
-0.5940330501585384
 31
0.0
  0
LINE
  5
87
330
A
100
AcDbEntity
  8
1
  6
solid
 62
     7
100
AcDbLine
 10
1.904822928197204
 20
-0.5940330501585384
 30
0.0
 11
1.917077830157989
 21
-0.5880234347739231
 31
0.0
  0
LINE
  5
88
330
A
100
AcDbEntity
  8
1
  6
solid
 62
     7
100
AcDbLine
 10
1.917077830157989
 20
-0.5880234347739231
 30
0.0
 11
1.925411163491322
 21
-0.586821511697
 31
0.0
  0
LINE
  5
89
330
A
100
AcDbEntity
  8
1
  6
solid
 62
     7
100
AcDbLine
 10
1.925411163491322
 20
-0.586821511697
 30
0.0
 11
1.933744496824655
 21
-0.586821511697
 31
0.0
  0
LINE
  5
8A
330
A
100
AcDbEntity
  8
1
  6
solid
 62
     7
100
AcDbLine
 10
1.933744496824655
 20
-0.586821511697
 30
0.0
 11
1.94599939878544
 21
-0.5904272809277691
 31
0.0
  0
LINE
  5
8B
330
A
100
AcDbEntity
  8
1
  6
solid
 62
     7
100
AcDbLine
 10
1.94599939878544
 20
-0.5904272809277691
 30
0.0
 11
1.955803320354067
 21
-0.5952349732354615
 31
0.0
  0
LINE
  5
8C
330
A
100
AcDbEntity
  8
1
  6
solid
 62
     7
100
AcDbLine
 10
1.955803320354067
 20
-0.5952349732354615
 30
0.0
 11
1.965117045844263
 21
-0.602446511697
 31
0.0
  0
LINE
  5
8D
330
A
100
AcDbEntity
  8
1
  6
solid
 62
     7
100
AcDbLine
 10
1.965117045844263
 20
-0.602446511697
 30
0.0
 11
1.973450379177597
 21
-0.6132638193893076
 31
0.0
  0
LINE
  5
8E
330
A
100
AcDbEntity
  8
1
  6
solid
 62
     7
100
AcDbLine
 10
1.973450379177597
 20
-0.6132638193893076
 30
0.0
 11
1.980313124275636
 21
-0.6252830501585384
 31
0.0
  0
LINE
  5
8F
330
A
100
AcDbEntity
  8
1
  6
solid
 62
     7
100
AcDbLine
 10
1.980313124275636
 20
-0.6252830501585384
 30
0.0
 11
1.985705281138381
 21
-0.6421099732354615
 31
0.0
  0
LINE
  5
90
330
A
100
AcDbEntity
  8
1
  6
solid
 62
     7
100
AcDbLine
 10
1.985705281138381
 20
-0.6421099732354615
 30
0.0
 11
1.988646457608969
 21
-0.6577349732354615
 31
0.0
  0
LINE
  5
91
330
A
100
AcDbEntity
  8
1
  6
solid
 62
     7
100
AcDbLine
 10
1.988646457608969
 20
-0.6577349732354615
 30
0.0
 11
1.988646457608969
 21
-0.6697542040046923
 31
0.0
  0
LINE
  5
92
330
A
100
AcDbEntity
  8
1
  6
solid
 62
     7
100
AcDbLine
 10
1.988646457608969
 20
-0.6697542040046923
 30
0.0
 11
1.985705281138381
 21
-0.6829753578508461
 31
0.0
  0
LINE
  5
93
330
A
100
AcDbEntity
  8
1
  6
solid
 62
     7
100
AcDbLine
 10
1.985705281138381
 20
-0.6829753578508461
 30
0.0
 11
1.98178371251093
 21
-0.6949945886200768
 31
0.0
  0
LINE
  5
94
330
A
100
AcDbEntity
  8
1
  6
solid
 62
     7
100
AcDbLine
 10
1.98178371251093
 20
-0.6949945886200768
 30
0.0
 11
1.976391555648185
 21
-0.7070138193893076
 31
0.0
  0
LINE
  5
95
330
A
100
AcDbEntity
  8
1
  6
solid
 62
     7
100
AcDbLine
 10
1.976391555648185
 20
-0.7070138193893076
 30
0.0
 11
1.908744496824656
 21
-0.8043695886200769
 31
0.0
  0
LINE
  5
96
330
A
100
AcDbEntity
  8
1
  6
solid
 62
     7
100
AcDbLine
 10
1.908744496824656
 20
-0.8043695886200769
 30
0.0
 11
1.97099939878544
 21
-0.8043695886200769
 31
0.0
  0
LINE
  5
97
330
A
100
AcDbEntity
  8
1
  6
solid
 62
     7
100
AcDbLine
 10
1.97099939878544
 20
-0.8043695886200769
 30
0.0
 11
1.97099939878544
 21
-0.7611003578508461
 31
0.0
  0
LINE
  5
98
330
A
100
AcDbEntity
  8
1
  6
solid
 62
     7
100
AcDbLine
 10
1.97099939878544
 20
-0.7611003578508461
 30
0.0
 11
1.995509202707008
 21
-0.7611003578508461
 31
0.0
  0
LINE
  5
99
330
A
100
AcDbEntity
  8
1
  6
solid
 62
     7
100
AcDbLine
 10
1.995509202707008
 20
-0.7611003578508461
 30
0.0
 11
1.995509202707008
 21
-0.8368215116969999
 31
0.0
  0
LINE
  5
9A
330
A
100
AcDbEntity
  8
1
  6
solid
 62
     7
100
AcDbLine
 10
1.995509202707008
 20
-0.8368215116969999
 30
0.0
 11
1.875901359569754
 21
-0.8368215116969999
 31
0.0
  0
LINE
  5
9B
330
A
100
AcDbEntity
  8
1
  6
solid
 62
     7
100
AcDbLine
 10
2.172469987020734
 20
-0.586821511697
 30
0.0
 11
2.172469987020734
 21
-0.6192734347739231
 31
0.0
  0
LINE
  5
9C
330
A
100
AcDbEntity
  8
1
  6
solid
 62
     7
100
AcDbLine
 10
2.172469987020734
 20
-0.6192734347739231
 30
0.0
 11
2.190117045844263
 21
-0.6192734347739231
 31
0.0
  0
LINE
  5
9D
330
A
100
AcDbEntity
  8
1
  6
solid
 62
     7
100
AcDbLine
 10
2.190117045844263
 20
-0.6192734347739231
 30
0.0
 11
2.222960183099165
 21
-0.7094176655431538
 31
0.0
  0
LINE
  5
9E
330
A
100
AcDbEntity
  8
1
  6
solid
 62
     7
100
AcDbLine
 10
2.222960183099165
 20
-0.7094176655431538
 30
0.0
 11
2.186685673295244
 21
-0.8043695886200769
 31
0.0
  0
LINE
  5
9F
330
A
100
AcDbEntity
  8
1
  6
solid
 62
     7
100
AcDbLine
 10
2.186685673295244
 20
-0.8043695886200769
 30
0.0
 11
2.170509202707008
 21
-0.8043695886200769
 31
0.0
  0
LINE
  5
A0
330
A
100
AcDbEntity
  8
1
  6
solid
 62
     7
100
AcDbLine
 10
2.170509202707008
 20
-0.8043695886200769
 30
0.0
 11
2.170509202707008
 21
-0.8368215116969999
 31
0.0
  0
LINE
  5
A1
330
A
100
AcDbEntity
  8
1
  6
solid
 62
     7
100
AcDbLine
 10
2.170509202707008
 20
-0.8368215116969999
 30
0.0
 11
2.222960183099165
 21
-0.8368215116969999
 31
0.0
  0
LINE
  5
A2
330
A
100
AcDbEntity
  8
1
  6
solid
 62
     7
100
AcDbLine
 10
2.222960183099165
 20
-0.8368215116969999
 30
0.0
 11
2.222960183099165
 21
-0.8043695886200769
 31
0.0
  0
LINE
  5
A3
330
A
100
AcDbEntity
  8
1
  6
solid
 62
     7
100
AcDbLine
 10
2.222960183099165
 20
-0.8043695886200769
 30
0.0
 11
2.209234692903087
 21
-0.8043695886200769
 31
0.0
  0
LINE
  5
A4
330
A
100
AcDbEntity
  8
1
  6
solid
 62
     7
100
AcDbLine
 10
2.209234692903087
 20
-0.8043695886200769
 30
0.0
 11
2.233254300746224
 21
-0.7382638193893076
 31
0.0
  0
LINE
  5
A5
330
A
100
AcDbEntity
  8
1
  6
solid
 62
     7
100
AcDbLine
 10
2.233254300746224
 20
-0.7382638193893076
 30
0.0
 11
2.25678371251093
 21
-0.8043695886200769
 31
0.0
  0
LINE
  5
A6
330
A
100
AcDbEntity
  8
1
  6
solid
 62
     7
100
AcDbLine
 10
2.25678371251093
 20
-0.8043695886200769
 30
0.0
 11
2.244038614471714
 21
-0.8043695886200769
 31
0.0
  0
LINE
  5
A7
330
A
100
AcDbEntity
  8
1
  6
solid
 62
     7
100
AcDbLine
 10
2.244038614471714
 20
-0.8043695886200769
 30
0.0
 11
2.244038614471714
 21
-0.8368215116969999
 31
0.0
  0
LINE
  5
A8
330
A
100
AcDbEntity
  8
1
  6
solid
 62
     7
100
AcDbLine
 10
2.244038614471714
 20
-0.8368215116969999
 30
0.0
 11
2.295509202707008
 21
-0.8368215116969999
 31
0.0
  0
LINE
  5
A9
330
A
100
AcDbEntity
  8
1
  6
solid
 62
     7
100
AcDbLine
 10
2.295509202707008
 20
-0.8368215116969999
 30
0.0
 11
2.295509202707008
 21
-0.8043695886200769
 31
0.0
  0
LINE
  5
AA
330
A
100
AcDbEntity
  8
1
  6
solid
 62
     7
100
AcDbLine
 10
2.295509202707008
 20
-0.8043695886200769
 30
0.0
 11
2.279332732118773
 21
-0.8043695886200769
 31
0.0
  0
LINE
  5
AB
330
A
100
AcDbEntity
  8
1
  6
solid
 62
     7
100
AcDbLine
 10
2.279332732118773
 20
-0.8043695886200769
 30
0.0
 11
2.244038614471714
 21
-0.7094176655431538
 31
0.0
  0
LINE
  5
AC
330
A
100
AcDbEntity
  8
1
  6
solid
 62
     7
100
AcDbLine
 10
2.244038614471714
 20
-0.7094176655431538
 30
0.0
 11
2.275901359569753
 21
-0.6192734347739231
 31
0.0
  0
LINE
  5
AD
330
A
100
AcDbEntity
  8
1
  6
solid
 62
     7
100
AcDbLine
 10
2.275901359569753
 20
-0.6192734347739231
 30
0.0
 11
2.293548418393283
 21
-0.6192734347739231
 31
0.0
  0
LINE
  5
AE
330
A
100
AcDbEntity
  8
1
  6
solid
 62
     7
100
AcDbLine
 10
2.293548418393283
 20
-0.6192734347739231
 30
0.0
 11
2.293548418393283
 21
-0.586821511697
 31
0.0
  0
LINE
  5
AF
330
A
100
AcDbEntity
  8
1
  6
solid
 62
     7
100
AcDbLine
 10
2.293548418393283
 20
-0.586821511697
 30
0.0
 11
2.241097438001126
 21
-0.586821511697
 31
0.0
  0
LINE
  5
B0
330
A
100
AcDbEntity
  8
1
  6
solid
 62
     7
100
AcDbLine
 10
2.241097438001126
 20
-0.586821511697
 30
0.0
 11
2.241097438001126
 21
-0.6192734347739231
 31
0.0
  0
LINE
  5
B1
330
A
100
AcDbEntity
  8
1
  6
solid
 62
     7
100
AcDbLine
 10
2.241097438001126
 20
-0.6192734347739231
 30
0.0
 11
2.254332732118773
 21
-0.6192734347739231
 31
0.0
  0
LINE
  5
B2
330
A
100
AcDbEntity
  8
1
  6
solid
 62
     7
100
AcDbLine
 10
2.254332732118773
 20
-0.6192734347739231
 30
0.0
 11
2.233254300746224
 21
-0.6781676655431538
 31
0.0
  0
LINE
  5
B3
330
A
100
AcDbEntity
  8
1
  6
solid
 62
     7
100
AcDbLine
 10
2.233254300746224
 20
-0.6781676655431538
 30
0.0
 11
2.211685673295244
 21
-0.6192734347739231
 31
0.0
  0
LINE
  5
B4
330
A
100
AcDbEntity
  8
1
  6
solid
 62
     7
100
AcDbLine
 10
2.211685673295244
 20
-0.6192734347739231
 30
0.0
 11
2.224920967412891
 21
-0.6192734347739231
 31
0.0
  0
LINE
  5
B5
330
A
100
AcDbEntity
  8
1
  6
solid
 62
     7
100
AcDbLine
 10
2.224920967412891
 20
-0.6192734347739231
 30
0.0
 11
2.224920967412891
 21
-0.586821511697
 31
0.0
  0
LINE
  5
B6
330
A
100
AcDbEntity
  8
1
  6
solid
 62
     7
100
AcDbLine
 10
2.224920967412891
 20
-0.586821511697
 30
0.0
 11
2.172469987020734
 21
-0.586821511697
 31
0.0
  0
LINE
  5
B7
330
A
100
AcDbEntity
  8
1
  6
solid
 62
     7
100
AcDbLine
 10
2.487666065452106
 20
-0.8368215116969999
 30
0.0
 11
2.487666065452106
 21
-0.8043695886200769
 31
0.0
  0
LINE
  5
B8
330
A
100
AcDbEntity
  8
1
  6
solid
 62
     7
100
AcDbLine
 10
2.487666065452106
 20
-0.8043695886200769
 30
0.0
 11
2.514626849765832
 21
-0.8043695886200769
 31
0.0
  0
LINE
  5
B9
330
A
100
AcDbEntity
  8
1
  6
solid
 62
     7
100
AcDbLine
 10
2.514626849765832
 20
-0.8043695886200769
 30
0.0
 11
2.514626849765832
 21
-0.6192734347739231
 31
0.0
  0
LINE
  5
BA
330
A
100
AcDbEntity
  8
1
  6
solid
 62
     7
100
AcDbLine
 10
2.514626849765832
 20
-0.6192734347739231
 30
0.0
 11
2.486195477216813
 21
-0.6192734347739231
 31
0.0
  0
LINE
  5
BB
330
A
100
AcDbEntity
  8
1
  6
solid
 62
     7
100
AcDbLine
 10
2.486195477216813
 20
-0.6192734347739231
 30
0.0
 11
2.486195477216813
 21
-0.586821511697
 31
0.0
  0
LINE
  5
BC
330
A
100
AcDbEntity
  8
1
  6
solid
 62
     7
100
AcDbLine
 10
2.486195477216813
 20
-0.586821511697
 30
0.0
 11
2.549920967412891
 21
-0.586821511697
 31
0.0
  0
LINE
  5
BD
330
A
100
AcDbEntity
  8
1
  6
solid
 62
     7
100
AcDbLine
 10
2.549920967412891
 20
-0.586821511697
 30
0.0
 11
2.549920967412891
 21
-0.8043695886200769
 31
0.0
  0
LINE
  5
BE
330
A
100
AcDbEntity
  8
1
  6
solid
 62
     7
100
AcDbLine
 10
2.549920967412891
 20
-0.8043695886200769
 30
0.0
 11
2.579822928197204
 21
-0.8043695886200769
 31
0.0
  0
LINE
  5
BF
330
A
100
AcDbEntity
  8
1
  6
solid
 62
     7
100
AcDbLine
 10
2.579822928197204
 20
-0.8043695886200769
 30
0.0
 11
2.579822928197204
 21
-0.8368215116969999
 31
0.0
  0
LINE
  5
C0
330
A
100
AcDbEntity
  8
1
  6
solid
 62
     7
100
AcDbLine
 10
2.579822928197204
 20
-0.8368215116969999
 30
0.0
 11
2.487666065452106
 21
-0.8368215116969999
 31
0.0
  0
LINE
  5
C1
330
A
100
AcDbEntity
  8
1
  6
solid
 62
     7
100
AcDbLine
 10
2.620509202707008
 20
-0.7815330501585384
 30
0.0
 11
2.745509202707008
 21
-0.7815330501585384
 31
0.0
  0
LINE
  5
C2
330
A
100
AcDbEntity
  8
1
  6
solid
 62
     7
100
AcDbLine
 10
2.745509202707008
 20
-0.7815330501585384
 30
0.0
 11
2.745509202707008
 21
-0.7286484347739231
 31
0.0
  0
LINE
  5
C3
330
A
100
AcDbEntity
  8
1
  6
solid
 62
     7
100
AcDbLine
 10
2.745509202707008
 20
-0.7286484347739231
 30
0.0
 11
2.620509202707008
 21
-0.7286484347739231
 31
0.0
  0
LINE
  5
C4
330
A
100
AcDbEntity
  8
1
  6
solid
 62
     7
100
AcDbLine
 10
2.620509202707008
 20
-0.7286484347739231
 30
0.0
 11
2.620509202707008
 21
-0.7815330501585384
 31
0.0
  0
LINE
  5
C5
330
A
100
AcDbEntity
  8
1
  6
solid
 62
     7
100
AcDbLine
 10
2.787666065452106
 20
-0.8368215116969999
 30
0.0
 11
2.787666065452106
 21
-0.8043695886200769
 31
0.0
  0
LINE
  5
C6
330
A
100
AcDbEntity
  8
1
  6
solid
 62
     7
100
AcDbLine
 10
2.787666065452106
 20
-0.8043695886200769
 30
0.0
 11
2.814626849765832
 21
-0.8043695886200769
 31
0.0
  0
LINE
  5
C7
330
A
100
AcDbEntity
  8
1
  6
solid
 62
     7
100
AcDbLine
 10
2.814626849765832
 20
-0.8043695886200769
 30
0.0
 11
2.814626849765832
 21
-0.6192734347739231
 31
0.0
  0
LINE
  5
C8
330
A
100
AcDbEntity
  8
1
  6
solid
 62
     7
100
AcDbLine
 10
2.814626849765832
 20
-0.6192734347739231
 30
0.0
 11
2.786195477216812
 21
-0.6192734347739231
 31
0.0
  0
LINE
  5
C9
330
A
100
AcDbEntity
  8
1
  6
solid
 62
     7
100
AcDbLine
 10
2.786195477216812
 20
-0.6192734347739231
 30
0.0
 11
2.786195477216812
 21
-0.586821511697
 31
0.0
  0
LINE
  5
CA
330
A
100
AcDbEntity
  8
1
  6
solid
 62
     7
100
AcDbLine
 10
2.786195477216812
 20
-0.586821511697
 30
0.0
 11
2.849920967412891
 21
-0.586821511697
 31
0.0
  0
LINE
  5
CB
330
A
100
AcDbEntity
  8
1
  6
solid
 62
     7
100
AcDbLine
 10
2.849920967412891
 20
-0.586821511697
 30
0.0
 11
2.849920967412891
 21
-0.8043695886200769
 31
0.0
  0
LINE
  5
CC
330
A
100
AcDbEntity
  8
1
  6
solid
 62
     7
100
AcDbLine
 10
2.849920967412891
 20
-0.8043695886200769
 30
0.0
 11
2.879822928197205
 21
-0.8043695886200769
 31
0.0
  0
LINE
  5
CD
330
A
100
AcDbEntity
  8
1
  6
solid
 62
     7
100
AcDbLine
 10
2.879822928197205
 20
-0.8043695886200769
 30
0.0
 11
2.879822928197205
 21
-0.8368215116969999
 31
0.0
  0
LINE
  5
CE
330
A
100
AcDbEntity
  8
1
  6
solid
 62
     7
100
AcDbLine
 10
2.879822928197205
 20
-0.8368215116969999
 30
0.0
 11
2.787666065452106
 21
-0.8368215116969999
 31
0.0
  0
LINE
  5
CF
330
A
100
AcDbEntity
  8
1
  6
solid
 62
     7
100
AcDbLine
 10
3.045509202707008
 20
-0.586821511697
 30
0.0
 11
2.939626849765832
 21
-0.8368215116969999
 31
0.0
  0
LINE
  5
D0
330
A
100
AcDbEntity
  8
1
  6
solid
 62
     7
100
AcDbLine
 10
2.939626849765832
 20
-0.8368215116969999
 30
0.0
 11
2.920509202707008
 21
-0.8368215116969999
 31
0.0
  0
LINE
  5
D1
330
A
100
AcDbEntity
  8
1
  6
solid
 62
     7
100
AcDbLine
 10
2.920509202707008
 20
-0.8368215116969999
 30
0.0
 11
3.026391555648185
 21
-0.586821511697
 31
0.0
  0
LINE
  5
D2
330
A
100
AcDbEntity
  8
1
  6
solid
 62
     7
100
AcDbLine
 10
3.026391555648185
 20
-0.586821511697
 30
0.0
 11
3.045509202707008
 21
-0.586821511697
 31
0.0
  0
LINE
  5
D3
330
A
100
AcDbEntity
  8
1
  6
solid
 62
     7
100
AcDbLine
 10
3.075901359569753
 20
-0.8368215116969999
 30
0.0
 11
3.075901359569753
 21
-0.8043695886200769
 31
0.0
  0
LINE
  5
D4
330
A
100
AcDbEntity
  8
1
  6
solid
 62
     7
100
AcDbLine
 10
3.075901359569753
 20
-0.8043695886200769
 30
0.0
 11
3.151391555648185
 21
-0.6986003578508461
 31
0.0
  0
LINE
  5
D5
330
A
100
AcDbEntity
  8
1
  6
solid
 62
     7
100
AcDbLine
 10
3.151391555648185
 20
-0.6986003578508461
 30
0.0
 11
3.158254300746224
 21
-0.6865811270816154
 31
0.0
  0
LINE
  5
D6
330
A
100
AcDbEntity
  8
1
  6
solid
 62
     7
100
AcDbLine
 10
3.158254300746224
 20
-0.6865811270816154
 30
0.0
 11
3.161195477216812
 21
-0.6793695886200768
 31
0.0
  0
LINE
  5
D7
330
A
100
AcDbEntity
  8
1
  6
solid
 62
     7
100
AcDbLine
 10
3.161195477216812
 20
-0.6793695886200768
 30
0.0
 11
3.1641366536874
 21
-0.6661484347739231
 31
0.0
  0
LINE
  5
D8
330
A
100
AcDbEntity
  8
1
  6
solid
 62
     7
100
AcDbLine
 10
3.1641366536874
 20
-0.6661484347739231
 30
0.0
 11
3.1641366536874
 21
-0.6565330501585384
 31
0.0
  0
LINE
  5
D9
330
A
100
AcDbEntity
  8
1
  6
solid
 62
     7
100
AcDbLine
 10
3.1641366536874
 20
-0.6565330501585384
 30
0.0
 11
3.161195477216812
 21
-0.6457157424662307
 31
0.0
  0
LINE
  5
DA
330
A
100
AcDbEntity
  8
1
  6
solid
 62
     7
100
AcDbLine
 10
3.161195477216812
 20
-0.6457157424662307
 30
0.0
 11
3.158254300746224
 21
-0.6361003578508461
 31
0.0
  0
LINE
  5
DB
330
A
100
AcDbEntity
  8
1
  6
solid
 62
     7
100
AcDbLine
 10
3.158254300746224
 20
-0.6361003578508461
 30
0.0
 11
3.152862143883479
 21
-0.6288888193893076
 31
0.0
  0
LINE
  5
DC
330
A
100
AcDbEntity
  8
1
  6
solid
 62
     7
100
AcDbLine
 10
3.152862143883479
 20
-0.6288888193893076
 30
0.0
 11
3.147469987020734
 21
-0.6240811270816154
 31
0.0
  0
LINE
  5
DD
330
A
100
AcDbEntity
  8
1
  6
solid
 62
     7
100
AcDbLine
 10
3.147469987020734
 20
-0.6240811270816154
 30
0.0
 11
3.142077830157989
 21
-0.6204753578508461
 31
0.0
  0
LINE
  5
DE
330
A
100
AcDbEntity
  8
1
  6
solid
 62
     7
100
AcDbLine
 10
3.142077830157989
 20
-0.6204753578508461
 30
0.0
 11
3.133744496824655
 21
-0.6168695886200768
 31
0.0
  0
LINE
  5
DF
330
A
100
AcDbEntity
  8
1
  6
solid
 62
     7
100
AcDbLine
 10
3.133744496824655
 20
-0.6168695886200768
 30
0.0
 11
3.123940575256028
 21
-0.6168695886200768
 31
0.0
  0
LINE
  5
E0
330
A
100
AcDbEntity
  8
1
  6
solid
 62
     7
100
AcDbLine
 10
3.123940575256028
 20
-0.6168695886200768
 30
0.0
 11
3.115607241922695
 21
-0.6204753578508461
 31
0.0
  0
LINE
  5
E1
330
A
100
AcDbEntity
  8
1
  6
solid
 62
     7
100
AcDbLine
 10
3.115607241922695
 20
-0.6204753578508461
 30
0.0
 11
3.108744496824655
 21
-0.6252830501585384
 31
0.0
  0
LINE
  5
E2
330
A
100
AcDbEntity
  8
1
  6
solid
 62
     7
100
AcDbLine
 10
3.108744496824655
 20
-0.6252830501585384
 30
0.0
 11
3.104822928197204
 21
-0.6312926655431538
 31
0.0
  0
LINE
  5
E3
330
A
100
AcDbEntity
  8
1
  6
solid
 62
     7
100
AcDbLine
 10
3.104822928197204
 20
-0.6312926655431538
 30
0.0
 11
3.100901359569753
 21
-0.6361003578508461
 31
0.0
  0
LINE
  5
E4
330
A
100
AcDbEntity
  8
1
  6
solid
 62
     7
100
AcDbLine
 10
3.100901359569753
 20
-0.6361003578508461
 30
0.0
 11
3.096489594863871
 21
-0.6469176655431538
 31
0.0
  0
LINE
  5
E5
330
A
100
AcDbEntity
  8
1
  6
solid
 62
     7
100
AcDbLine
 10
3.096489594863871
 20
-0.6469176655431538
 30
0.0
 11
3.094038614471714
 21
-0.6625426655431538
 31
0.0
  0
LINE
  5
E6
330
A
100
AcDbEntity
  8
1
  6
solid
 62
     7
100
AcDbLine
 10
3.094038614471714
 20
-0.6625426655431538
 30
0.0
 11
3.070509202707008
 21
-0.6625426655431538
 31
0.0
  0
LINE
  5
E7
330
A
100
AcDbEntity
  8
1
  6
solid
 62
     7
100
AcDbLine
 10
3.070509202707008
 20
-0.6625426655431538
 30
0.0
 11
3.071979790942302
 21
-0.6469176655431538
 31
0.0
  0
LINE
  5
E8
330
A
100
AcDbEntity
  8
1
  6
solid
 62
     7
100
AcDbLine
 10
3.071979790942302
 20
-0.6469176655431538
 30
0.0
 11
3.075901359569753
 21
-0.6312926655431538
 31
0.0
  0
LINE
  5
E9
330
A
100
AcDbEntity
  8
1
  6
solid
 62
     7
100
AcDbLine
 10
3.075901359569753
 20
-0.6312926655431538
 30
0.0
 11
3.081293516432499
 21
-0.6192734347739231
 31
0.0
  0
LINE
  5
EA
330
A
100
AcDbEntity
  8
1
  6
solid
 62
     7
100
AcDbLine
 10
3.081293516432499
 20
-0.6192734347739231
 30
0.0
 11
3.088156261530538
 21
-0.6084561270816154
 31
0.0
  0
LINE
  5
EB
330
A
100
AcDbEntity
  8
1
  6
solid
 62
     7
100
AcDbLine
 10
3.088156261530538
 20
-0.6084561270816154
 30
0.0
 11
3.096489594863871
 21
-0.5988407424662307
 31
0.0
  0
LINE
  5
EC
330
A
100
AcDbEntity
  8
1
  6
solid
 62
     7
100
AcDbLine
 10
3.096489594863871
 20
-0.5988407424662307
 30
0.0
 11
3.104822928197204
 21
-0.5940330501585384
 31
0.0
  0
LINE
  5
ED
330
A
100
AcDbEntity
  8
1
  6
solid
 62
     7
100
AcDbLine
 10
3.104822928197204
 20
-0.5940330501585384
 30
0.0
 11
3.117077830157989
 21
-0.5880234347739231
 31
0.0
  0
LINE
  5
EE
330
A
100
AcDbEntity
  8
1
  6
solid
 62
     7
100
AcDbLine
 10
3.117077830157989
 20
-0.5880234347739231
 30
0.0
 11
3.125411163491322
 21
-0.586821511697
 31
0.0
  0
LINE
  5
EF
330
A
100
AcDbEntity
  8
1
  6
solid
 62
     7
100
AcDbLine
 10
3.125411163491322
 20
-0.586821511697
 30
0.0
 11
3.133744496824655
 21
-0.586821511697
 31
0.0
  0
LINE
  5
F0
330
A
100
AcDbEntity
  8
1
  6
solid
 62
     7
100
AcDbLine
 10
3.133744496824655
 20
-0.586821511697
 30
0.0
 11
3.145999398785439
 21
-0.5904272809277691
 31
0.0
  0
LINE
  5
F1
330
A
100
AcDbEntity
  8
1
  6
solid
 62
     7
100
AcDbLine
 10
3.145999398785439
 20
-0.5904272809277691
 30
0.0
 11
3.155803320354067
 21
-0.5952349732354615
 31
0.0
  0
LINE
  5
F2
330
A
100
AcDbEntity
  8
1
  6
solid
 62
     7
100
AcDbLine
 10
3.155803320354067
 20
-0.5952349732354615
 30
0.0
 11
3.165117045844263
 21
-0.602446511697
 31
0.0
  0
LINE
  5
F3
330
A
100
AcDbEntity
  8
1
  6
solid
 62
     7
100
AcDbLine
 10
3.165117045844263
 20
-0.602446511697
 30
0.0
 11
3.173450379177596
 21
-0.6132638193893076
 31
0.0
  0
LINE
  5
F4
330
A
100
AcDbEntity
  8
1
  6
solid
 62
     7
100
AcDbLine
 10
3.173450379177596
 20
-0.6132638193893076
 30
0.0
 11
3.180313124275635
 21
-0.6252830501585384
 31
0.0
  0
LINE
  5
F5
330
A
100
AcDbEntity
  8
1
  6
solid
 62
     7
100
AcDbLine
 10
3.180313124275635
 20
-0.6252830501585384
 30
0.0
 11
3.185705281138381
 21
-0.6421099732354615
 31
0.0
  0
LINE
  5
F6
330
A
100
AcDbEntity
  8
1
  6
solid
 62
     7
100
AcDbLine
 10
3.185705281138381
 20
-0.6421099732354615
 30
0.0
 11
3.188646457608969
 21
-0.6577349732354615
 31
0.0
  0
LINE
  5
F7
330
A
100
AcDbEntity
  8
1
  6
solid
 62
     7
100
AcDbLine
 10
3.188646457608969
 20
-0.6577349732354615
 30
0.0
 11
3.188646457608969
 21
-0.6697542040046923
 31
0.0
  0
LINE
  5
F8
330
A
100
AcDbEntity
  8
1
  6
solid
 62
     7
100
AcDbLine
 10
3.188646457608969
 20
-0.6697542040046923
 30
0.0
 11
3.185705281138381
 21
-0.6829753578508461
 31
0.0
  0
LINE
  5
F9
330
A
100
AcDbEntity
  8
1
  6
solid
 62
     7
100
AcDbLine
 10
3.185705281138381
 20
-0.6829753578508461
 30
0.0
 11
3.18178371251093
 21
-0.6949945886200768
 31
0.0
  0
LINE
  5
FA
330
A
100
AcDbEntity
  8
1
  6
solid
 62
     7
100
AcDbLine
 10
3.18178371251093
 20
-0.6949945886200768
 30
0.0
 11
3.176391555648184
 21
-0.7070138193893076
 31
0.0
  0
LINE
  5
FB
330
A
100
AcDbEntity
  8
1
  6
solid
 62
     7
100
AcDbLine
 10
3.176391555648184
 20
-0.7070138193893076
 30
0.0
 11
3.108744496824655
 21
-0.8043695886200769
 31
0.0
  0
LINE
  5
FC
330
A
100
AcDbEntity
  8
1
  6
solid
 62
     7
100
AcDbLine
 10
3.108744496824655
 20
-0.8043695886200769
 30
0.0
 11
3.17099939878544
 21
-0.8043695886200769
 31
0.0
  0
LINE
  5
FD
330
A
100
AcDbEntity
  8
1
  6
solid
 62
     7
100
AcDbLine
 10
3.17099939878544
 20
-0.8043695886200769
 30
0.0
 11
3.17099939878544
 21
-0.7611003578508461
 31
0.0
  0
LINE
  5
FE
330
A
100
AcDbEntity
  8
1
  6
solid
 62
     7
100
AcDbLine
 10
3.17099939878544
 20
-0.7611003578508461
 30
0.0
 11
3.195509202707008
 21
-0.7611003578508461
 31
0.0
  0
LINE
  5
FF
330
A
100
AcDbEntity
  8
1
  6
solid
 62
     7
100
AcDbLine
 10
3.195509202707008
 20
-0.7611003578508461
 30
0.0
 11
3.195509202707008
 21
-0.8368215116969999
 31
0.0
  0
LINE
  5
100
330
A
100
AcDbEntity
  8
1
  6
solid
 62
     7
100
AcDbLine
 10
3.195509202707008
 20
-0.8368215116969999
 30
0.0
 11
3.075901359569753
 21
-0.8368215116969999
 31
0.0
  0
LINE
  5
101
330
A
100
AcDbEntity
  8
1
  6
solid
 62
     7
100
AcDbLine
 10
3.372469987020734
 20
-0.586821511697
 30
0.0
 11
3.372469987020734
 21
-0.6192734347739231
 31
0.0
  0
LINE
  5
102
330
A
100
AcDbEntity
  8
1
  6
solid
 62
     7
100
AcDbLine
 10
3.372469987020734
 20
-0.6192734347739231
 30
0.0
 11
3.390117045844263
 21
-0.6192734347739231
 31
0.0
  0
LINE
  5
103
330
A
100
AcDbEntity
  8
1
  6
solid
 62
     7
100
AcDbLine
 10
3.390117045844263
 20
-0.6192734347739231
 30
0.0
 11
3.422960183099165
 21
-0.7094176655431538
 31
0.0
  0
LINE
  5
104
330
A
100
AcDbEntity
  8
1
  6
solid
 62
     7
100
AcDbLine
 10
3.422960183099165
 20
-0.7094176655431538
 30
0.0
 11
3.386685673295243
 21
-0.8043695886200769
 31
0.0
  0
LINE
  5
105
330
A
100
AcDbEntity
  8
1
  6
solid
 62
     7
100
AcDbLine
 10
3.386685673295243
 20
-0.8043695886200769
 30
0.0
 11
3.370509202707008
 21
-0.8043695886200769
 31
0.0
  0
LINE
  5
106
330
A
100
AcDbEntity
  8
1
  6
solid
 62
     7
100
AcDbLine
 10
3.370509202707008
 20
-0.8043695886200769
 30
0.0
 11
3.370509202707008
 21
-0.8368215116969999
 31
0.0
  0
LINE
  5
107
330
A
100
AcDbEntity
  8
1
  6
solid
 62
     7
100
AcDbLine
 10
3.370509202707008
 20
-0.8368215116969999
 30
0.0
 11
3.422960183099165
 21
-0.8368215116969999
 31
0.0
  0
LINE
  5
108
330
A
100
AcDbEntity
  8
1
  6
solid
 62
     7
100
AcDbLine
 10
3.422960183099165
 20
-0.8368215116969999
 30
0.0
 11
3.422960183099165
 21
-0.8043695886200769
 31
0.0
  0
LINE
  5
109
330
A
100
AcDbEntity
  8
1
  6
solid
 62
     7
100
AcDbLine
 10
3.422960183099165
 20
-0.8043695886200769
 30
0.0
 11
3.409234692903087
 21
-0.8043695886200769
 31
0.0
  0
LINE
  5
10A
330
A
100
AcDbEntity
  8
1
  6
solid
 62
     7
100
AcDbLine
 10
3.409234692903087
 20
-0.8043695886200769
 30
0.0
 11
3.433254300746224
 21
-0.7382638193893076
 31
0.0
  0
LINE
  5
10B
330
A
100
AcDbEntity
  8
1
  6
solid
 62
     7
100
AcDbLine
 10
3.433254300746224
 20
-0.7382638193893076
 30
0.0
 11
3.456783712510929
 21
-0.8043695886200769
 31
0.0
  0
LINE
  5
10C
330
A
100
AcDbEntity
  8
1
  6
solid
 62
     7
100
AcDbLine
 10
3.456783712510929
 20
-0.8043695886200769
 30
0.0
 11
3.444038614471714
 21
-0.8043695886200769
 31
0.0
  0
LINE
  5
10D
330
A
100
AcDbEntity
  8
1
  6
solid
 62
     7
100
AcDbLine
 10
3.444038614471714
 20
-0.8043695886200769
 30
0.0
 11
3.444038614471714
 21
-0.8368215116969999
 31
0.0
  0
LINE
  5
10E
330
A
100
AcDbEntity
  8
1
  6
solid
 62
     7
100
AcDbLine
 10
3.444038614471714
 20
-0.8368215116969999
 30
0.0
 11
3.495509202707008
 21
-0.8368215116969999
 31
0.0
  0
LINE
  5
10F
330
A
100
AcDbEntity
  8
1
  6
solid
 62
     7
100
AcDbLine
 10
3.495509202707008
 20
-0.8368215116969999
 30
0.0
 11
3.495509202707008
 21
-0.8043695886200769
 31
0.0
  0
LINE
  5
110
330
A
100
AcDbEntity
  8
1
  6
solid
 62
     7
100
AcDbLine
 10
3.495509202707008
 20
-0.8043695886200769
 30
0.0
 11
3.479332732118773
 21
-0.8043695886200769
 31
0.0
  0
LINE
  5
111
330
A
100
AcDbEntity
  8
1
  6
solid
 62
     7
100
AcDbLine
 10
3.479332732118773
 20
-0.8043695886200769
 30
0.0
 11
3.444038614471714
 21
-0.7094176655431538
 31
0.0
  0
LINE
  5
112
330
A
100
AcDbEntity
  8
1
  6
solid
 62
     7
100
AcDbLine
 10
3.444038614471714
 20
-0.7094176655431538
 30
0.0
 11
3.475901359569753
 21
-0.6192734347739231
 31
0.0
  0
LINE
  5
113
330
A
100
AcDbEntity
  8
1
  6
solid
 62
     7
100
AcDbLine
 10
3.475901359569753
 20
-0.6192734347739231
 30
0.0
 11
3.493548418393283
 21
-0.6192734347739231
 31
0.0
  0
LINE
  5
114
330
A
100
AcDbEntity
  8
1
  6
solid
 62
     7
100
AcDbLine
 10
3.493548418393283
 20
-0.6192734347739231
 30
0.0
 11
3.493548418393283
 21
-0.586821511697
 31
0.0
  0
LINE
  5
115
330
A
100
AcDbEntity
  8
1
  6
solid
 62
     7
100
AcDbLine
 10
3.493548418393283
 20
-0.586821511697
 30
0.0
 11
3.441097438001126
 21
-0.586821511697
 31
0.0
  0
LINE
  5
116
330
A
100
AcDbEntity
  8
1
  6
solid
 62
     7
100
AcDbLine
 10
3.441097438001126
 20
-0.586821511697
 30
0.0
 11
3.441097438001126
 21
-0.6192734347739231
 31
0.0
  0
LINE
  5
117
330
A
100
AcDbEntity
  8
1
  6
solid
 62
     7
100
AcDbLine
 10
3.441097438001126
 20
-0.6192734347739231
 30
0.0
 11
3.454332732118773
 21
-0.6192734347739231
 31
0.0
  0
LINE
  5
118
330
A
100
AcDbEntity
  8
1
  6
solid
 62
     7
100
AcDbLine
 10
3.454332732118773
 20
-0.6192734347739231
 30
0.0
 11
3.433254300746224
 21
-0.6781676655431538
 31
0.0
  0
LINE
  5
119
330
A
100
AcDbEntity
  8
1
  6
solid
 62
     7
100
AcDbLine
 10
3.433254300746224
 20
-0.6781676655431538
 30
0.0
 11
3.411685673295243
 21
-0.6192734347739231
 31
0.0
  0
LINE
  5
11A
330
A
100
AcDbEntity
  8
1
  6
solid
 62
     7
100
AcDbLine
 10
3.411685673295243
 20
-0.6192734347739231
 30
0.0
 11
3.42492096741289
 21
-0.6192734347739231
 31
0.0
  0
LINE
  5
11B
330
A
100
AcDbEntity
  8
1
  6
solid
 62
     7
100
AcDbLine
 10
3.42492096741289
 20
-0.6192734347739231
 30
0.0
 11
3.42492096741289
 21
-0.586821511697
 31
0.0
  0
LINE
  5
11C
330
A
100
AcDbEntity
  8
1
  6
solid
 62
     7
100
AcDbLine
 10
3.42492096741289
 20
-0.586821511697
 30
0.0
 11
3.372469987020734
 21
-0.586821511697
 31
0.0
  0
LINE
  5
11D
330
A
100
AcDbEntity
  8
1
  6
solid
 62
     7
100
AcDbLine
 10
3.700411163491322
 20
-0.6889849732354615
 30
0.0
 11
3.693548418393282
 21
-0.696196511697
 31
0.0
  0
LINE
  5
11E
330
A
100
AcDbEntity
  8
1
  6
solid
 62
     7
100
AcDbLine
 10
3.693548418393282
 20
-0.696196511697
 30
0.0
 11
3.686685673295243
 21
-0.7046099732354615
 31
0.0
  0
LINE
  5
11F
330
A
100
AcDbEntity
  8
1
  6
solid
 62
     7
100
AcDbLine
 10
3.686685673295243
 20
-0.7046099732354615
 30
0.0
 11
3.681293516432498
 21
-0.7130234347739231
 31
0.0
  0
LINE
  5
120
330
A
100
AcDbEntity
  8
1
  6
solid
 62
     7
100
AcDbLine
 10
3.681293516432498
 20
-0.7130234347739231
 30
0.0
 11
3.677371947805047
 21
-0.7226388193893076
 31
0.0
  0
LINE
  5
121
330
A
100
AcDbEntity
  8
1
  6
solid
 62
     7
100
AcDbLine
 10
3.677371947805047
 20
-0.7226388193893076
 30
0.0
 11
3.674430771334459
 21
-0.7310522809277691
 31
0.0
  0
LINE
  5
122
330
A
100
AcDbEntity
  8
1
  6
solid
 62
     7
100
AcDbLine
 10
3.674430771334459
 20
-0.7310522809277691
 30
0.0
 11
3.671979790942302
 21
-0.743071511697
 31
0.0
  0
LINE
  5
123
330
A
100
AcDbEntity
  8
1
  6
solid
 62
     7
100
AcDbLine
 10
3.671979790942302
 20
-0.743071511697
 30
0.0
 11
3.670509202707008
 21
-0.7514849732354615
 31
0.0
  0
LINE
  5
124
330
A
100
AcDbEntity
  8
1
  6
solid
 62
     7
100
AcDbLine
 10
3.670509202707008
 20
-0.7514849732354615
 30
0.0
 11
3.670509202707008
 21
-0.7574945886200768
 31
0.0
  0
LINE
  5
125
330
A
100
AcDbEntity
  8
1
  6
solid
 62
     7
100
AcDbLine
 10
3.670509202707008
 20
-0.7574945886200768
 30
0.0
 11
3.671979790942302
 21
-0.7671099732354615
 31
0.0
  0
LINE
  5
126
330
A
100
AcDbEntity
  8
1
  6
solid
 62
     7
100
AcDbLine
 10
3.671979790942302
 20
-0.7671099732354615
 30
0.0
 11
3.673450379177596
 21
-0.7779272809277692
 31
0.0
  0
LINE
  5
127
330
A
100
AcDbEntity
  8
1
  6
solid
 62
     7
100
AcDbLine
 10
3.673450379177596
 20
-0.7779272809277692
 30
0.0
 11
3.675901359569753
 21
-0.7887445886200768
 31
0.0
  0
LINE
  5
128
330
A
100
AcDbEntity
  8
1
  6
solid
 62
     7
100
AcDbLine
 10
3.675901359569753
 20
-0.7887445886200768
 30
0.0
 11
3.681293516432498
 21
-0.8019657424662305
 31
0.0
  0
LINE
  5
129
330
A
100
AcDbEntity
  8
1
  6
solid
 62
     7
100
AcDbLine
 10
3.681293516432498
 20
-0.8019657424662305
 30
0.0
 11
3.689626849765831
 21
-0.8127830501585384
 31
0.0
  0
LINE
  5
12A
330
A
100
AcDbEntity
  8
1
  6
solid
 62
     7
100
AcDbLine
 10
3.689626849765831
 20
-0.8127830501585384
 30
0.0
 11
3.696489594863871
 21
-0.8211965116969999
 31
0.0
  0
LINE
  5
12B
330
A
100
AcDbEntity
  8
1
  6
solid
 62
     7
100
AcDbLine
 10
3.696489594863871
 20
-0.8211965116969999
 30
0.0
 11
3.708744496824655
 21
-0.8296099732354614
 31
0.0
  0
LINE
  5
12C
330
A
100
AcDbEntity
  8
1
  6
solid
 62
     7
100
AcDbLine
 10
3.708744496824655
 20
-0.8296099732354614
 30
0.0
 11
3.720999398785439
 21
-0.8356195886200767
 31
0.0
  0
LINE
  5
12D
330
A
100
AcDbEntity
  8
1
  6
solid
 62
     7
100
AcDbLine
 10
3.720999398785439
 20
-0.8356195886200767
 30
0.0
 11
3.730313124275635
 21
-0.8368215116969999
 31
0.0
  0
LINE
  5
12E
330
A
100
AcDbEntity
  8
1
  6
solid
 62
     7
100
AcDbLine
 10
3.730313124275635
 20
-0.8368215116969999
 30
0.0
 11
3.741097438001126
 21
-0.8368215116969999
 31
0.0
  0
LINE
  5
12F
330
A
100
AcDbEntity
  8
1
  6
solid
 62
     7
100
AcDbLine
 10
3.741097438001126
 20
-0.8368215116969999
 30
0.0
 11
3.751881751726616
 21
-0.8332157424662305
 31
0.0
  0
LINE
  5
130
330
A
100
AcDbEntity
  8
1
  6
solid
 62
     7
100
AcDbLine
 10
3.751881751726616
 20
-0.8332157424662305
 30
0.0
 11
3.7641366536874
 21
-0.8248022809277692
 31
0.0
  0
LINE
  5
131
330
A
100
AcDbEntity
  8
1
  6
solid
 62
     7
100
AcDbLine
 10
3.7641366536874
 20
-0.8248022809277692
 30
0.0
 11
3.776391555648185
 21
-0.8139849732354614
 31
0.0
  0
LINE
  5
132
330
A
100
AcDbEntity
  8
1
  6
solid
 62
     7
100
AcDbLine
 10
3.776391555648185
 20
-0.8139849732354614
 30
0.0
 11
3.784724888981518
 21
-0.8007638193893075
 31
0.0
  0
LINE
  5
133
330
A
100
AcDbEntity
  8
1
  6
solid
 62
     7
100
AcDbLine
 10
3.784724888981518
 20
-0.8007638193893075
 30
0.0
 11
3.790117045844263
 21
-0.7863407424662307
 31
0.0
  0
LINE
  5
134
330
A
100
AcDbEntity
  8
1
  6
solid
 62
     7
100
AcDbLine
 10
3.790117045844263
 20
-0.7863407424662307
 30
0.0
 11
3.79256802623642
 21
-0.7791292040046923
 31
0.0
  0
LINE
  5
135
330
A
100
AcDbEntity
  8
1
  6
solid
 62
     7
100
AcDbLine
 10
3.79256802623642
 20
-0.7791292040046923
 30
0.0
 11
3.795509202707008
 21
-0.7635042040046923
 31
0.0
  0
LINE
  5
136
330
A
100
AcDbEntity
  8
1
  6
solid
 62
     7
100
AcDbLine
 10
3.795509202707008
 20
-0.7635042040046923
 30
0.0
 11
3.795509202707008
 21
-0.7502830501585384
 31
0.0
  0
LINE
  5
137
330
A
100
AcDbEntity
  8
1
  6
solid
 62
     7
100
AcDbLine
 10
3.795509202707008
 20
-0.7502830501585384
 30
0.0
 11
3.79256802623642
 21
-0.7346580501585384
 31
0.0
  0
LINE
  5
138
330
A
100
AcDbEntity
  8
1
  6
solid
 62
     7
100
AcDbLine
 10
3.79256802623642
 20
-0.7346580501585384
 30
0.0
 11
3.788646457608969
 21
-0.7226388193893076
 31
0.0
  0
LINE
  5
139
330
A
100
AcDbEntity
  8
1
  6
solid
 62
     7
100
AcDbLine
 10
3.788646457608969
 20
-0.7226388193893076
 30
0.0
 11
3.783254300746224
 21
-0.7082157424662308
 31
0.0
  0
LINE
  5
13A
330
A
100
AcDbEntity
  8
1
  6
solid
 62
     7
100
AcDbLine
 10
3.783254300746224
 20
-0.7082157424662308
 30
0.0
 11
3.776391555648185
 21
-0.6998022809277691
 31
0.0
  0
LINE
  5
13B
330
A
100
AcDbEntity
  8
1
  6
solid
 62
     7
100
AcDbLine
 10
3.776391555648185
 20
-0.6998022809277691
 30
0.0
 11
3.769528810550145
 21
-0.6925907424662307
 31
0.0
  0
LINE
  5
13C
330
A
100
AcDbEntity
  8
1
  6
solid
 62
     7
100
AcDbLine
 10
3.769528810550145
 20
-0.6925907424662307
 30
0.0
 11
3.765607241922694
 21
-0.6889849732354615
 31
0.0
  0
LINE
  5
13D
330
A
100
AcDbEntity
  8
1
  6
solid
 62
     7
100
AcDbLine
 10
3.765607241922694
 20
-0.6889849732354615
 30
0.0
 11
3.772469987020734
 21
-0.680571511697
 31
0.0
  0
LINE
  5
13E
330
A
100
AcDbEntity
  8
1
  6
solid
 62
     7
100
AcDbLine
 10
3.772469987020734
 20
-0.680571511697
 30
0.0
 11
3.776391555648185
 21
-0.6721580501585384
 31
0.0
  0
LINE
  5
13F
330
A
100
AcDbEntity
  8
1
  6
solid
 62
     7
100
AcDbLine
 10
3.776391555648185
 20
-0.6721580501585384
 30
0.0
 11
3.779332732118773
 21
-0.6637445886200768
 31
0.0
  0
LINE
  5
140
330
A
100
AcDbEntity
  8
1
  6
solid
 62
     7
100
AcDbLine
 10
3.779332732118773
 20
-0.6637445886200768
 30
0.0
 11
3.780803320354067
 21
-0.6505234347739231
 31
0.0
  0
LINE
  5
141
330
A
100
AcDbEntity
  8
1
  6
solid
 62
     7
100
AcDbLine
 10
3.780803320354067
 20
-0.6505234347739231
 30
0.0
 11
3.780803320354067
 21
-0.6409080501585384
 31
0.0
  0
LINE
  5
142
330
A
100
AcDbEntity
  8
1
  6
solid
 62
     7
100
AcDbLine
 10
3.780803320354067
 20
-0.6409080501585384
 30
0.0
 11
3.779332732118773
 21
-0.6324945886200768
 31
0.0
  0
LINE
  5
143
330
A
100
AcDbEntity
  8
1
  6
solid
 62
     7
100
AcDbLine
 10
3.779332732118773
 20
-0.6324945886200768
 30
0.0
 11
3.776391555648185
 21
-0.6228792040046923
 31
0.0
  0
LINE
  5
144
330
A
100
AcDbEntity
  8
1
  6
solid
 62
     7
100
AcDbLine
 10
3.776391555648185
 20
-0.6228792040046923
 30
0.0
 11
3.772469987020734
 21
-0.6132638193893076
 31
0.0
  0
LINE
  5
145
330
A
100
AcDbEntity
  8
1
  6
solid
 62
     7
100
AcDbLine
 10
3.772469987020734
 20
-0.6132638193893076
 30
0.0
 11
3.768548418393283
 21
-0.6060522809277691
 31
0.0
  0
LINE
  5
146
330
A
100
AcDbEntity
  8
1
  6
solid
 62
     7
100
AcDbLine
 10
3.768548418393283
 20
-0.6060522809277691
 30
0.0
 11
3.761685673295243
 21
-0.5988407424662307
 31
0.0
  0
LINE
  5
147
330
A
100
AcDbEntity
  8
1
  6
solid
 62
     7
100
AcDbLine
 10
3.761685673295243
 20
-0.5988407424662307
 30
0.0
 11
3.756293516432498
 21
-0.5940330501585384
 31
0.0
  0
LINE
  5
148
330
A
100
AcDbEntity
  8
1
  6
solid
 62
     7
100
AcDbLine
 10
3.756293516432498
 20
-0.5940330501585384
 30
0.0
 11
3.749430771334459
 21
-0.5904272809277691
 31
0.0
  0
LINE
  5
149
330
A
100
AcDbEntity
  8
1
  6
solid
 62
     7
100
AcDbLine
 10
3.749430771334459
 20
-0.5904272809277691
 30
0.0
 11
3.739626849765832
 21
-0.586821511697
 31
0.0
  0
LINE
  5
14A
330
A
100
AcDbEntity
  8
1
  6
solid
 62
     7
100
AcDbLine
 10
3.739626849765832
 20
-0.586821511697
 30
0.0
 11
3.728842536040341
 21
-0.586821511697
 31
0.0
  0
LINE
  5
14B
330
A
100
AcDbEntity
  8
1
  6
solid
 62
     7
100
AcDbLine
 10
3.728842536040341
 20
-0.586821511697
 30
0.0
 11
3.716587634079557
 21
-0.5904272809277691
 31
0.0
  0
LINE
  5
14C
330
A
100
AcDbEntity
  8
1
  6
solid
 62
     7
100
AcDbLine
 10
3.716587634079557
 20
-0.5904272809277691
 30
0.0
 11
3.705803320354067
 21
-0.5976388193893076
 31
0.0
  0
LINE
  5
14D
330
A
100
AcDbEntity
  8
1
  6
solid
 62
     7
100
AcDbLine
 10
3.705803320354067
 20
-0.5976388193893076
 30
0.0
 11
3.698940575256028
 21
-0.6036484347739231
 31
0.0
  0
LINE
  5
14E
330
A
100
AcDbEntity
  8
1
  6
solid
 62
     7
100
AcDbLine
 10
3.698940575256028
 20
-0.6036484347739231
 30
0.0
 11
3.693548418393282
 21
-0.6132638193893076
 31
0.0
  0
LINE
  5
14F
330
A
100
AcDbEntity
  8
1
  6
solid
 62
     7
100
AcDbLine
 10
3.693548418393282
 20
-0.6132638193893076
 30
0.0
 11
3.689626849765831
 21
-0.6228792040046923
 31
0.0
  0
LINE
  5
150
330
A
100
AcDbEntity
  8
1
  6
solid
 62
     7
100
AcDbLine
 10
3.689626849765831
 20
-0.6228792040046923
 30
0.0
 11
3.686685673295243
 21
-0.633696511697
 31
0.0
  0
LINE
  5
151
330
A
100
AcDbEntity
  8
1
  6
solid
 62
     7
100
AcDbLine
 10
3.686685673295243
 20
-0.633696511697
 30
0.0
 11
3.685215085059949
 21
-0.6409080501585384
 31
0.0
  0
LINE
  5
152
330
A
100
AcDbEntity
  8
1
  6
solid
 62
     7
100
AcDbLine
 10
3.685215085059949
 20
-0.6409080501585384
 30
0.0
 11
3.685215085059949
 21
-0.649321511697
 31
0.0
  0
LINE
  5
153
330
A
100
AcDbEntity
  8
1
  6
solid
 62
     7
100
AcDbLine
 10
3.685215085059949
 20
-0.649321511697
 30
0.0
 11
3.686685673295243
 21
-0.6601388193893076
 31
0.0
  0
LINE
  5
154
330
A
100
AcDbEntity
  8
1
  6
solid
 62
     7
100
AcDbLine
 10
3.686685673295243
 20
-0.6601388193893076
 30
0.0
 11
3.689626849765831
 21
-0.6721580501585384
 31
0.0
  0
LINE
  5
155
330
A
100
AcDbEntity
  8
1
  6
solid
 62
     7
100
AcDbLine
 10
3.689626849765831
 20
-0.6721580501585384
 30
0.0
 11
3.693548418393282
 21
-0.680571511697
 31
0.0
  0
LINE
  5
156
330
A
100
AcDbEntity
  8
1
  6
solid
 62
     7
100
AcDbLine
 10
3.693548418393282
 20
-0.680571511697
 30
0.0
 11
3.697469987020733
 21
-0.6853792040046923
 31
0.0
  0
LINE
  5
157
330
A
100
AcDbEntity
  8
1
  6
solid
 62
     7
100
AcDbLine
 10
3.697469987020733
 20
-0.6853792040046923
 30
0.0
 11
3.700411163491322
 21
-0.6889849732354615
 31
0.0
  0
LINE
  5
158
330
A
100
AcDbEntity
  8
1
  6
solid
 62
     7
100
AcDbLine
 10
3.739626849765832
 20
-0.8055715116969999
 30
0.0
 11
3.749430771334459
 21
-0.8019657424662305
 31
0.0
  0
LINE
  5
159
330
A
100
AcDbEntity
  8
1
  6
solid
 62
     7
100
AcDbLine
 10
3.749430771334459
 20
-0.8019657424662305
 30
0.0
 11
3.756293516432498
 21
-0.7971580501585384
 31
0.0
  0
LINE
  5
15A
330
A
100
AcDbEntity
  8
1
  6
solid
 62
     7
100
AcDbLine
 10
3.756293516432498
 20
-0.7971580501585384
 30
0.0
 11
3.762666065452106
 21
-0.789946511697
 31
0.0
  0
LINE
  5
15B
330
A
100
AcDbEntity
  8
1
  6
solid
 62
     7
100
AcDbLine
 10
3.762666065452106
 20
-0.789946511697
 30
0.0
 11
3.768548418393283
 21
-0.7791292040046923
 31
0.0
  0
LINE
  5
15C
330
A
100
AcDbEntity
  8
1
  6
solid
 62
     7
100
AcDbLine
 10
3.768548418393283
 20
-0.7791292040046923
 30
0.0
 11
3.770999398785439
 21
-0.7695138193893076
 31
0.0
  0
LINE
  5
15D
330
A
100
AcDbEntity
  8
1
  6
solid
 62
     7
100
AcDbLine
 10
3.770999398785439
 20
-0.7695138193893076
 30
0.0
 11
3.772469987020734
 21
-0.758696511697
 31
0.0
  0
LINE
  5
15E
330
A
100
AcDbEntity
  8
1
  6
solid
 62
     7
100
AcDbLine
 10
3.772469987020734
 20
-0.758696511697
 30
0.0
 11
3.772469987020734
 21
-0.7514849732354615
 31
0.0
  0
LINE
  5
15F
330
A
100
AcDbEntity
  8
1
  6
solid
 62
     7
100
AcDbLine
 10
3.772469987020734
 20
-0.7514849732354615
 30
0.0
 11
3.768548418393283
 21
-0.7358599732354615
 31
0.0
  0
LINE
  5
160
330
A
100
AcDbEntity
  8
1
  6
solid
 62
     7
100
AcDbLine
 10
3.768548418393283
 20
-0.7358599732354615
 30
0.0
 11
3.7641366536874
 21
-0.727446511697
 31
0.0
  0
LINE
  5
161
330
A
100
AcDbEntity
  8
1
  6
solid
 62
     7
100
AcDbLine
 10
3.7641366536874
 20
-0.727446511697
 30
0.0
 11
3.758744496824655
 21
-0.7202349732354615
 31
0.0
  0
LINE
  5
162
330
A
100
AcDbEntity
  8
1
  6
solid
 62
     7
100
AcDbLine
 10
3.758744496824655
 20
-0.7202349732354615
 30
0.0
 11
3.751881751726616
 21
-0.7130234347739231
 31
0.0
  0
LINE
  5
163
330
A
100
AcDbEntity
  8
1
  6
solid
 62
     7
100
AcDbLine
 10
3.751881751726616
 20
-0.7130234347739231
 30
0.0
 11
3.746489594863871
 21
-0.7106195886200768
 31
0.0
  0
LINE
  5
164
330
A
100
AcDbEntity
  8
1
  6
solid
 62
     7
100
AcDbLine
 10
3.746489594863871
 20
-0.7106195886200768
 30
0.0
 11
3.738646457608969
 21
-0.7082157424662308
 31
0.0
  0
LINE
  5
165
330
A
100
AcDbEntity
  8
1
  6
solid
 62
     7
100
AcDbLine
 10
3.738646457608969
 20
-0.7082157424662308
 30
0.0
 11
3.728842536040341
 21
-0.7082157424662308
 31
0.0
  0
LINE
  5
166
330
A
100
AcDbEntity
  8
1
  6
solid
 62
     7
100
AcDbLine
 10
3.728842536040341
 20
-0.7082157424662308
 30
0.0
 11
3.718058222314851
 21
-0.711821511697
 31
0.0
  0
LINE
  5
167
330
A
100
AcDbEntity
  8
1
  6
solid
 62
     7
100
AcDbLine
 10
3.718058222314851
 20
-0.711821511697
 30
0.0
 11
3.711195477216812
 21
-0.7166292040046923
 31
0.0
  0
LINE
  5
168
330
A
100
AcDbEntity
  8
1
  6
solid
 62
     7
100
AcDbLine
 10
3.711195477216812
 20
-0.7166292040046923
 30
0.0
 11
3.704332732118773
 21
-0.7238407424662307
 31
0.0
  0
LINE
  5
169
330
A
100
AcDbEntity
  8
1
  6
solid
 62
     7
100
AcDbLine
 10
3.704332732118773
 20
-0.7238407424662307
 30
0.0
 11
3.698940575256028
 21
-0.7346580501585384
 31
0.0
  0
LINE
  5
16A
330
A
100
AcDbEntity
  8
1
  6
solid
 62
     7
100
AcDbLine
 10
3.698940575256028
 20
-0.7346580501585384
 30
0.0
 11
3.696489594863871
 21
-0.743071511697
 31
0.0
  0
LINE
  5
16B
330
A
100
AcDbEntity
  8
1
  6
solid
 62
     7
100
AcDbLine
 10
3.696489594863871
 20
-0.743071511697
 30
0.0
 11
3.695019006628577
 21
-0.7514849732354615
 31
0.0
  0
LINE
  5
16C
330
A
100
AcDbEntity
  8
1
  6
solid
 62
     7
100
AcDbLine
 10
3.695019006628577
 20
-0.7514849732354615
 30
0.0
 11
3.695019006628577
 21
-0.7623022809277692
 31
0.0
  0
LINE
  5
16D
330
A
100
AcDbEntity
  8
1
  6
solid
 62
     7
100
AcDbLine
 10
3.695019006628577
 20
-0.7623022809277692
 30
0.0
 11
3.696489594863871
 21
-0.7731195886200768
 31
0.0
  0
LINE
  5
16E
330
A
100
AcDbEntity
  8
1
  6
solid
 62
     7
100
AcDbLine
 10
3.696489594863871
 20
-0.7731195886200768
 30
0.0
 11
3.700411163491322
 21
-0.7851388193893076
 31
0.0
  0
LINE
  5
16F
330
A
100
AcDbEntity
  8
1
  6
solid
 62
     7
100
AcDbLine
 10
3.700411163491322
 20
-0.7851388193893076
 30
0.0
 11
3.707273908589361
 21
-0.7935522809277692
 31
0.0
  0
LINE
  5
170
330
A
100
AcDbEntity
  8
1
  6
solid
 62
     7
100
AcDbLine
 10
3.707273908589361
 20
-0.7935522809277692
 30
0.0
 11
3.7141366536874
 21
-0.8007638193893075
 31
0.0
  0
LINE
  5
171
330
A
100
AcDbEntity
  8
1
  6
solid
 62
     7
100
AcDbLine
 10
3.7141366536874
 20
-0.8007638193893075
 30
0.0
 11
3.723450379177596
 21
-0.8055715116969999
 31
0.0
  0
LINE
  5
172
330
A
100
AcDbEntity
  8
1
  6
solid
 62
     7
100
AcDbLine
 10
3.723450379177596
 20
-0.8055715116969999
 30
0.0
 11
3.739626849765832
 21
-0.8055715116969999
 31
0.0
  0
LINE
  5
173
330
A
100
AcDbEntity
  8
1
  6
solid
 62
     7
100
AcDbLine
 10
3.737175869373675
 20
-0.6769657424662308
 30
0.0
 11
3.74256802623642
 21
-0.6757638193893076
 31
0.0
  0
LINE
  5
174
330
A
100
AcDbEntity
  8
1
  6
solid
 62
     7
100
AcDbLine
 10
3.74256802623642
 20
-0.6757638193893076
 30
0.0
 11
3.749430771334459
 21
-0.6697542040046923
 31
0.0
  0
LINE
  5
175
330
A
100
AcDbEntity
  8
1
  6
solid
 62
     7
100
AcDbLine
 10
3.749430771334459
 20
-0.6697542040046923
 30
0.0
 11
3.75335233996191
 21
-0.6637445886200768
 31
0.0
  0
LINE
  5
176
330
A
100
AcDbEntity
  8
1
  6
solid
 62
     7
100
AcDbLine
 10
3.75335233996191
 20
-0.6637445886200768
 30
0.0
 11
3.756293516432498
 21
-0.6565330501585384
 31
0.0
  0
LINE
  5
177
330
A
100
AcDbEntity
  8
1
  6
solid
 62
     7
100
AcDbLine
 10
3.756293516432498
 20
-0.6565330501585384
 30
0.0
 11
3.757273908589361
 21
-0.649321511697
 31
0.0
  0
LINE
  5
178
330
A
100
AcDbEntity
  8
1
  6
solid
 62
     7
100
AcDbLine
 10
3.757273908589361
 20
-0.649321511697
 30
0.0
 11
3.757273908589361
 21
-0.6445138193893076
 31
0.0
  0
LINE
  5
179
330
A
100
AcDbEntity
  8
1
  6
solid
 62
     7
100
AcDbLine
 10
3.757273908589361
 20
-0.6445138193893076
 30
0.0
 11
3.754822928197204
 21
-0.633696511697
 31
0.0
  0
LINE
  5
17A
330
A
100
AcDbEntity
  8
1
  6
solid
 62
     7
100
AcDbLine
 10
3.754822928197204
 20
-0.633696511697
 30
0.0
 11
3.750901359569753
 21
-0.6264849732354615
 31
0.0
  0
LINE
  5
17B
330
A
100
AcDbEntity
  8
1
  6
solid
 62
     7
100
AcDbLine
 10
3.750901359569753
 20
-0.6264849732354615
 30
0.0
 11
3.746489594863871
 21
-0.6216772809277691
 31
0.0
  0
LINE
  5
17C
330
A
100
AcDbEntity
  8
1
  6
solid
 62
     7
100
AcDbLine
 10
3.746489594863871
 20
-0.6216772809277691
 30
0.0
 11
3.741097438001126
 21
-0.618071511697
 31
0.0
  0
LINE
  5
17D
330
A
100
AcDbEntity
  8
1
  6
solid
 62
     7
100
AcDbLine
 10
3.741097438001126
 20
-0.618071511697
 30
0.0
 11
3.735705281138381
 21
-0.6168695886200768
 31
0.0
  0
LINE
  5
17E
330
A
100
AcDbEntity
  8
1
  6
solid
 62
     7
100
AcDbLine
 10
3.735705281138381
 20
-0.6168695886200768
 30
0.0
 11
3.731783712510929
 21
-0.6168695886200768
 31
0.0
  0
LINE
  5
17F
330
A
100
AcDbEntity
  8
1
  6
solid
 62
     7
100
AcDbLine
 10
3.731783712510929
 20
-0.6168695886200768
 30
0.0
 11
3.72492096741289
 21
-0.618071511697
 31
0.0
  0
LINE
  5
180
330
A
100
AcDbEntity
  8
1
  6
solid
 62
     7
100
AcDbLine
 10
3.72492096741289
 20
-0.618071511697
 30
0.0
 11
3.719528810550145
 21
-0.6216772809277691
 31
0.0
  0
LINE
  5
181
330
A
100
AcDbEntity
  8
1
  6
solid
 62
     7
100
AcDbLine
 10
3.719528810550145
 20
-0.6216772809277691
 30
0.0
 11
3.715117045844263
 21
-0.6264849732354615
 31
0.0
  0
LINE
  5
182
330
A
100
AcDbEntity
  8
1
  6
solid
 62
     7
100
AcDbLine
 10
3.715117045844263
 20
-0.6264849732354615
 30
0.0
 11
3.711195477216812
 21
-0.633696511697
 31
0.0
  0
LINE
  5
183
330
A
100
AcDbEntity
  8
1
  6
solid
 62
     7
100
AcDbLine
 10
3.711195477216812
 20
-0.633696511697
 30
0.0
 11
3.709724888981518
 21
-0.6409080501585384
 31
0.0
  0
LINE
  5
184
330
A
100
AcDbEntity
  8
1
  6
solid
 62
     7
100
AcDbLine
 10
3.709724888981518
 20
-0.6409080501585384
 30
0.0
 11
3.708744496824655
 21
-0.6457157424662307
 31
0.0
  0
LINE
  5
185
330
A
100
AcDbEntity
  8
1
  6
solid
 62
     7
100
AcDbLine
 10
3.708744496824655
 20
-0.6457157424662307
 30
0.0
 11
3.708744496824655
 21
-0.649321511697
 31
0.0
  0
LINE
  5
186
330
A
100
AcDbEntity
  8
1
  6
solid
 62
     7
100
AcDbLine
 10
3.708744496824655
 20
-0.649321511697
 30
0.0
 11
3.711195477216812
 21
-0.6601388193893076
 31
0.0
  0
LINE
  5
187
330
A
100
AcDbEntity
  8
1
  6
solid
 62
     7
100
AcDbLine
 10
3.711195477216812
 20
-0.6601388193893076
 30
0.0
 11
3.7141366536874
 21
-0.664946511697
 31
0.0
  0
LINE
  5
188
330
A
100
AcDbEntity
  8
1
  6
solid
 62
     7
100
AcDbLine
 10
3.7141366536874
 20
-0.664946511697
 30
0.0
 11
3.718058222314851
 21
-0.6721580501585384
 31
0.0
  0
LINE
  5
189
330
A
100
AcDbEntity
  8
1
  6
solid
 62
     7
100
AcDbLine
 10
3.718058222314851
 20
-0.6721580501585384
 30
0.0
 11
3.723450379177596
 21
-0.6757638193893076
 31
0.0
  0
LINE
  5
18A
330
A
100
AcDbEntity
  8
1
  6
solid
 62
     7
100
AcDbLine
 10
3.723450379177596
 20
-0.6757638193893076
 30
0.0
 11
3.730313124275635
 21
-0.6769657424662308
 31
0.0
  0
LINE
  5
18B
330
A
100
AcDbEntity
  8
1
  6
solid
 62
     7
100
AcDbLine
 10
3.730313124275635
 20
-0.6769657424662308
 30
0.0
 11
3.737175869373675
 21
-0.6769657424662308
 31
0.0
  0
LINE
  5
18C
330
A
100
AcDbEntity
  8
1
  6
solid
 62
     7
100
AcDbLine
 10
3.8641366536874
 20
-0.586821511697
 30
0.0
 11
3.8641366536874
 21
-0.6228792040046923
 31
0.0
  0
LINE
  5
18D
330
A
100
AcDbEntity
  8
1
  6
solid
 62
     7
100
AcDbLine
 10
3.8641366536874
 20
-0.6228792040046923
 30
0.0
 11
3.870509202707008
 21
-0.6228792040046923
 31
0.0
  0
LINE
  5
18E
330
A
100
AcDbEntity
  8
1
  6
solid
 62
     7
100
AcDbLine
 10
3.870509202707008
 20
-0.6228792040046923
 30
0.0
 11
3.870509202707008
 21
-0.6613407424662307
 31
0.0
  0
LINE
  5
18F
330
A
100
AcDbEntity
  8
1
  6
solid
 62
     7
100
AcDbLine
 10
3.870509202707008
 20
-0.6613407424662307
 30
0.0
 11
3.895509202707008
 21
-0.6613407424662307
 31
0.0
  0
LINE
  5
190
330
A
100
AcDbEntity
  8
1
  6
solid
 62
     7
100
AcDbLine
 10
3.895509202707008
 20
-0.6613407424662307
 30
0.0
 11
3.895509202707008
 21
-0.6228792040046923
 31
0.0
  0
LINE
  5
191
330
A
100
AcDbEntity
  8
1
  6
solid
 62
     7
100
AcDbLine
 10
3.895509202707008
 20
-0.6228792040046923
 30
0.0
 11
3.901881751726616
 21
-0.6228792040046923
 31
0.0
  0
LINE
  5
192
330
A
100
AcDbEntity
  8
1
  6
solid
 62
     7
100
AcDbLine
 10
3.901881751726616
 20
-0.6228792040046923
 30
0.0
 11
3.901881751726616
 21
-0.586821511697
 31
0.0
  0
LINE
  5
193
330
A
100
AcDbEntity
  8
1
  6
solid
 62
     7
100
AcDbLine
 10
3.901881751726616
 20
-0.586821511697
 30
0.0
 11
3.8641366536874
 21
-0.586821511697
 31
0.0
  0
LINE
  5
194
330
A
100
AcDbEntity
  8
1
  6
solid
 62
     7
100
AcDbLine
 10
-10.50432922902182
 20
0.0062004620167003
 30
0.0
 11
-10.50432922902182
 21
0.5999504620167003
 31
0.0
  0
LINE
  5
195
330
A
100
AcDbEntity
  8
1
  6
solid
 62
     7
100
AcDbLine
 10
-9.504329229021816
 20
0.0062004620167003
 30
0.0
 11
-9.504329229021816
 21
0.5999504620167003
 31
0.0
  0
LINE
  5
196
330
A
100
AcDbEntity
  8
1
  6
solid
 62
     7
100
AcDbLine
 10
-8.754329229021816
 20
0.0062004620167003
 30
0.0
 11
-8.754329229021816
 21
0.5999504620167003
 31
0.0
  0
LINE
  5
197
330
A
100
AcDbEntity
  8
1
  6
solid
 62
     7
100
AcDbLine
 10
-7.754329229021816
 20
0.0062004620167003
 30
0.0
 11
-7.754329229021816
 21
0.5999504620167003
 31
0.0
  0
LINE
  5
198
330
A
100
AcDbEntity
  8
1
  6
solid
 62
     7
100
AcDbLine
 10
-7.004329229021816
 20
0.0062004620167003
 30
0.0
 11
-7.004329229021816
 21
0.5999504620167003
 31
0.0
  0
LINE
  5
199
330
A
100
AcDbEntity
  8
1
  6
solid
 62
     7
100
AcDbLine
 10
-6.004329229021816
 20
0.0062004620167003
 30
0.0
 11
-6.004329229021816
 21
0.5999504620167003
 31
0.0
  0
LINE
  5
19A
330
A
100
AcDbEntity
  8
1
  6
solid
 62
     7
100
AcDbLine
 10
-5.254329229021816
 20
0.0062004620167003
 30
0.0
 11
-5.254329229021816
 21
0.5999504620167003
 31
0.0
  0
LINE
  5
19B
330
A
100
AcDbEntity
  8
1
  6
solid
 62
     7
100
AcDbLine
 10
-10.75432922902181
 20
1.5062004620167
 30
0.0
 11
-10.75432922902181
 21
0.5999504620167003
 31
0.0
  0
LINE
  5
19C
330
A
100
AcDbEntity
  8
1
  6
solid
 62
     7
100
AcDbLine
 10
-10.75432922902181
 20
0.5999504620167003
 30
0.0
 11
-10.50432922902182
 21
0.5999504620167003
 31
0.0
  0
LINE
  5
19D
330
A
100
AcDbEntity
  8
1
  6
solid
 62
     7
100
AcDbLine
 10
-10.50432922902182
 20
0.0062004620167003
 30
0.0
 11
-9.504329229021816
 21
0.0062004620167003
 31
0.0
  0
LINE
  5
19E
330
A
100
AcDbEntity
  8
1
  6
solid
 62
     7
100
AcDbLine
 10
-9.504329229021816
 20
0.5999504620167003
 30
0.0
 11
-8.754329229021816
 21
0.5999504620167003
 31
0.0
  0
LINE
  5
19F
330
A
100
AcDbEntity
  8
1
  6
solid
 62
     7
100
AcDbLine
 10
-8.754329229021816
 20
0.0062004620167003
 30
0.0
 11
-7.754329229021816
 21
0.0062004620167003
 31
0.0
  0
LINE
  5
1A0
330
A
100
AcDbEntity
  8
1
  6
solid
 62
     7
100
AcDbLine
 10
-7.754329229021816
 20
0.5999504620167003
 30
0.0
 11
-7.004329229021816
 21
0.5999504620167003
 31
0.0
  0
LINE
  5
1A1
330
A
100
AcDbEntity
  8
1
  6
solid
 62
     7
100
AcDbLine
 10
-7.004329229021816
 20
0.0062004620167003
 30
0.0
 11
-6.004329229021816
 21
0.0062004620167003
 31
0.0
  0
LINE
  5
1A2
330
A
100
AcDbEntity
  8
1
  6
solid
 62
     7
100
AcDbLine
 10
-6.004329229021816
 20
0.5999504620167003
 30
0.0
 11
-5.254329229021816
 21
0.5999504620167003
 31
0.0
  0
LINE
  5
1A3
330
A
100
AcDbEntity
  8
1
  6
solid
 62
     7
100
AcDbLine
 10
-5.254329229021816
 20
0.0062004620167003
 30
0.0
 11
-4.254329229021816
 21
0.0062004620167003
 31
0.0
  0
LINE
  5
1A4
330
A
100
AcDbEntity
  8
1
  6
solid
 62
     7
100
AcDbLine
 10
-4.254329229021816
 20
0.0062004620167003
 30
0.0
 11
-4.254329229021816
 21
0.5999504620167003
 31
0.0
  0
LINE
  5
1A5
330
A
100
AcDbEntity
  8
1
  6
solid
 62
     7
100
AcDbLine
 10
-4.254329229021816
 20
0.5999504620167003
 30
0.0
 11
-4.004329229021816
 21
0.5999504620167003
 31
0.0
  0
LINE
  5
1A6
330
A
100
AcDbEntity
  8
1
  6
solid
 62
     7
100
AcDbLine
 10
-10.75432922902181
 20
1.5062004620167
 30
0.0
 11
-4.004329229021816
 21
1.5062004620167
 31
0.0
  0
LINE
  5
1A7
330
A
100
AcDbEntity
  8
1
  6
solid
 62
     7
100
AcDbLine
 10
-4.004329229021816
 20
1.5062004620167
 30
0.0
 11
-4.004329229021816
 21
0.5999504620167003
 31
0.0
  0
LINE
  5
1BC
330
A
100
AcDbEntity
  8
0
  6
solid
 62
     7
100
AcDbLine
 10
2.408639267689417
 20
0.9542544639091923
 30
0.0
 11
2.408639267689417
 21
1.204254463909192
 31
0.0
  0
LINE
  5
1BD
330
A
100
AcDbEntity
  8
0
  6
solid
 62
     7
100
AcDbLine
 10
2.408639267689417
 20
1.204254463909192
 30
0.0
 11
2.45574071696478
 21
1.204254463909192
 31
0.0
  0
LINE
  5
1BE
330
A
100
AcDbEntity
  8
0
  6
solid
 62
     7
100
AcDbLine
 10
2.45574071696478
 20
1.204254463909192
 30
0.0
 11
2.45574071696478
 21
0.9977327247787574
 31
0.0
  0
LINE
  5
1BF
330
A
100
AcDbEntity
  8
0
  6
solid
 62
     7
100
AcDbLine
 10
2.45574071696478
 20
0.9977327247787574
 30
0.0
 11
2.586175499573475
 21
0.9977327247787574
 31
0.0
  0
LINE
  5
1C0
330
A
100
AcDbEntity
  8
0
  6
solid
 62
     7
100
AcDbLine
 10
2.586175499573475
 20
0.9977327247787574
 30
0.0
 11
2.586175499573475
 21
0.9542544639091923
 31
0.0
  0
LINE
  5
1C1
330
A
100
AcDbEntity
  8
0
  6
solid
 62
     7
100
AcDbLine
 10
2.408639267689417
 20
0.9542544639091923
 30
0.0
 11
2.586175499573475
 21
0.9542544639091923
 31
0.0
  0
LINE
  5
1C2
330
A
100
AcDbEntity
  8
0
  6
solid
 62
     7
100
AcDbLine
 10
2.740161151747388
 20
0.9542544639091923
 30
0.0
 11
2.693059702472026
 21
0.9542544639091923
 31
0.0
  0
LINE
  5
1C3
330
A
100
AcDbEntity
  8
0
  6
solid
 62
     7
100
AcDbLine
 10
2.693059702472026
 20
0.9542544639091923
 30
0.0
 11
2.693059702472026
 21
1.133831275503395
 31
0.0
  0
SPLINE
  5
1C4
330
A
100
AcDbEntity
  8
0
  6
solid
 62
     7
100
AcDbSpline
210
0.0
220
0.0
230
1.0
 70
     8
 71
     2
 72
     6
 73
     3
 74
     0
 42
0.0000000001
 43
0.0000000001
 40
0.0
 40
0.0
 40
0.0
 40
1.0
 40
1.0
 40
1.0
 10
2.693059702472026
 20
1.133831275503395
 30
0.0
 10
2.665929267689417
 20
1.107652724778757
 30
0.0
 10
2.631465499573475
 20
1.095558811735279
 30
0.0
  0
LINE
  5
1C5
330
A
100
AcDbEntity
  8
0
  6
solid
 62
     7
100
AcDbLine
 10
2.631465499573475
 20
1.095558811735279
 30
0.0
 11
2.631465499573475
 21
1.142660261010641
 31
0.0
  0
SPLINE
  5
1C6
330
A
100
AcDbEntity
  8
0
  6
solid
 62
     7
100
AcDbSpline
210
0.0
220
0.0
230
1.0
 70
     8
 71
     2
 72
     7
 73
     4
 74
     0
 42
0.0000000001
 43
0.0000000001
 40
0.0
 40
0.0
 40
0.0
 40
1.0
 40
2.0
 40
2.0
 40
2.0
 10
2.631465499573475
 20
1.142660261010641
 30
0.0
 10
2.649878253196664
 20
1.147841710286003
 30
0.0
 10
2.693393615515505
 20
1.180932724778757
 30
0.0
 10
2.701196514066229
 20
1.204254463909192
 30
0.0
  0
LINE
  5
1C7
330
A
100
AcDbEntity
  8
0
  6
solid
 62
     7
100
AcDbLine
 10
2.701196514066229
 20
1.204254463909192
 30
0.0
 11
2.740161151747388
 21
1.204254463909192
 31
0.0
  0
LINE
  5
1C8
330
A
100
AcDbEntity
  8
0
  6
solid
 62
     7
100
AcDbLine
 10
2.740161151747388
 20
0.9542544639091923
 30
0.0
 11
2.740161151747388
 21
1.204254463909192
 31
0.0
  0
LINE
  5
1C9
330
A
100
AcDbEntity
  8
0
  6
solid
 62
     7
100
AcDbLine
 10
2.897769992327098
 20
0.9542544639091923
 30
0.0
 11
2.850668543051736
 21
0.9542544639091923
 31
0.0
  0
LINE
  5
1CA
330
A
100
AcDbEntity
  8
0
  6
solid
 62
     7
100
AcDbLine
 10
2.850668543051736
 20
0.9542544639091923
 30
0.0
 11
2.850668543051736
 21
1.133831275503395
 31
0.0
  0
SPLINE
  5
1CB
330
A
100
AcDbEntity
  8
0
  6
solid
 62
     7
100
AcDbSpline
210
0.0
220
0.0
230
1.0
 70
     8
 71
     2
 72
     6
 73
     3
 74
     0
 42
0.0000000001
 43
0.0000000001
 40
0.0
 40
0.0
 40
0.0
 40
1.0
 40
1.0
 40
1.0
 10
2.850668543051736
 20
1.133831275503395
 30
0.0
 10
2.823538108269127
 20
1.107652724778757
 30
0.0
 10
2.789074340153185
 20
1.095558811735279
 30
0.0
  0
LINE
  5
1CC
330
A
100
AcDbEntity
  8
0
  6
solid
 62
     7
100
AcDbLine
 10
2.789074340153185
 20
1.095558811735279
 30
0.0
 11
2.789074340153185
 21
1.142660261010641
 31
0.0
  0
SPLINE
  5
1CD
330
A
100
AcDbEntity
  8
0
  6
solid
 62
     7
100
AcDbSpline
210
0.0
220
0.0
230
1.0
 70
     8
 71
     2
 72
     7
 73
     4
 74
     0
 42
0.0000000001
 43
0.0000000001
 40
0.0
 40
0.0
 40
0.0
 40
1.0
 40
2.0
 40
2.0
 40
2.0
 10
2.789074340153185
 20
1.142660261010641
 30
0.0
 10
2.807487093776374
 20
1.147841710286003
 30
0.0
 10
2.851002456095215
 20
1.180932724778757
 30
0.0
 10
2.858805354645939
 20
1.204254463909192
 30
0.0
  0
LINE
  5
1CE
330
A
100
AcDbEntity
  8
0
  6
solid
 62
     7
100
AcDbLine
 10
2.858805354645939
 20
1.204254463909192
 30
0.0
 11
2.897769992327098
 21
1.204254463909192
 31
0.0
  0
LINE
  5
1CF
330
A
100
AcDbEntity
  8
0
  6
solid
 62
     7
100
AcDbLine
 10
2.897769992327098
 20
0.9542544639091923
 30
0.0
 11
2.897769992327098
 21
1.204254463909192
 31
0.0
  0
LINE
  5
1D0
330
A
100
AcDbEntity
  8
0
  6
solid
 62
     7
100
AcDbLine
 10
3.048132456095214
 20
0.9542544639091923
 30
0.0
 11
3.048132456095214
 21
1.004979101590351
 31
0.0
  0
LINE
  5
1D1
330
A
100
AcDbEntity
  8
0
  6
solid
 62
     7
100
AcDbLine
 10
3.048132456095214
 20
1.004979101590351
 30
0.0
 11
2.950306369138693
 21
1.004979101590351
 31
0.0
  0
LINE
  5
1D2
330
A
100
AcDbEntity
  8
0
  6
solid
 62
     7
100
AcDbLine
 10
2.950306369138693
 20
1.004979101590351
 30
0.0
 11
2.950306369138693
 21
1.047097362459916
 31
0.0
  0
LINE
  5
1D3
330
A
100
AcDbEntity
  8
0
  6
solid
 62
     7
100
AcDbLine
 10
2.950306369138693
 20
1.047097362459916
 30
0.0
 11
3.053462311167678
 21
1.200631275503395
 31
0.0
  0
LINE
  5
1D4
330
A
100
AcDbEntity
  8
0
  6
solid
 62
     7
100
AcDbLine
 10
3.053462311167678
 20
1.200631275503395
 30
0.0
 11
3.095233905370577
 21
1.200631275503395
 31
0.0
  0
LINE
  5
1D5
330
A
100
AcDbEntity
  8
0
  6
solid
 62
     7
100
AcDbLine
 10
3.095233905370577
 20
1.200631275503395
 30
0.0
 11
3.095233905370577
 21
1.048457362459916
 31
0.0
  0
LINE
  5
1D6
330
A
100
AcDbEntity
  8
0
  6
solid
 62
     7
100
AcDbLine
 10
3.095233905370577
 20
1.048457362459916
 30
0.0
 11
3.127842601022751
 21
1.048457362459916
 31
0.0
  0
LINE
  5
1D7
330
A
100
AcDbEntity
  8
0
  6
solid
 62
     7
100
AcDbLine
 10
3.127842601022751
 20
1.048457362459916
 30
0.0
 11
3.127842601022751
 21
1.004979101590351
 31
0.0
  0
LINE
  5
1D8
330
A
100
AcDbEntity
  8
0
  6
solid
 62
     7
100
AcDbLine
 10
3.127842601022751
 20
1.004979101590351
 30
0.0
 11
3.095233905370577
 21
1.004979101590351
 31
0.0
  0
LINE
  5
1D9
330
A
100
AcDbEntity
  8
0
  6
solid
 62
     7
100
AcDbLine
 10
3.095233905370577
 20
1.004979101590351
 30
0.0
 11
3.095233905370577
 21
0.9542544639091923
 31
0.0
  0
LINE
  5
1DA
330
A
100
AcDbEntity
  8
0
  6
solid
 62
     7
100
AcDbLine
 10
3.048132456095214
 20
0.9542544639091923
 30
0.0
 11
3.095233905370577
 21
0.9542544639091923
 31
0.0
  0
LINE
  5
1DB
330
A
100
AcDbEntity
  8
0
  6
solid
 62
     7
100
AcDbLine
 10
3.048132456095214
 20
1.048457362459916
 30
0.0
 11
3.048132456095214
 21
1.12835301463383
 31
0.0
  0
LINE
  5
1DC
330
A
100
AcDbEntity
  8
0
  6
solid
 62
     7
100
AcDbLine
 10
3.048132456095214
 20
1.12835301463383
 30
0.0
 11
2.992350427109707
 21
1.048457362459916
 31
0.0
  0
LINE
  5
1DD
330
A
100
AcDbEntity
  8
0
  6
solid
 62
     7
100
AcDbLine
 10
3.048132456095214
 20
1.048457362459916
 30
0.0
 11
2.992350427109707
 21
1.048457362459916
 31
0.0
  0
LINE
  5
1DE
330
A
100
AcDbEntity
  8
0
  6
solid
 62
     7
100
AcDbLine
 10
3.415886224211156
 20
0.9542544639091923
 30
0.0
 11
3.365643905370577
 21
0.9542544639091923
 31
0.0
  0
LINE
  5
1DF
330
A
100
AcDbEntity
  8
0
  6
solid
 62
     7
100
AcDbLine
 10
3.365643905370577
 20
0.9542544639091923
 30
0.0
 11
3.343756369138692
 21
1.012225478401945
 31
0.0
  0
LINE
  5
1E0
330
A
100
AcDbEntity
  8
0
  6
solid
 62
     7
100
AcDbLine
 10
3.343756369138692
 20
1.012225478401945
 30
0.0
 11
3.244125064790866
 21
1.012225478401945
 31
0.0
  0
LINE
  5
1E1
330
A
100
AcDbEntity
  8
0
  6
solid
 62
     7
100
AcDbLine
 10
3.244125064790866
 20
1.012225478401945
 30
0.0
 11
3.222274630008258
 21
0.9542544639091923
 31
0.0
  0
LINE
  5
1E2
330
A
100
AcDbEntity
  8
0
  6
solid
 62
     7
100
AcDbLine
 10
3.222274630008258
 20
0.9542544639091923
 30
0.0
 11
3.17313260102275
 21
0.9542544639091923
 31
0.0
  0
LINE
  5
1E3
330
A
100
AcDbEntity
  8
0
  6
solid
 62
     7
100
AcDbLine
 10
3.17313260102275
 20
0.9542544639091923
 30
0.0
 11
3.27129260102275
 21
1.204254463909192
 31
0.0
  0
LINE
  5
1E4
330
A
100
AcDbEntity
  8
0
  6
solid
 62
     7
100
AcDbLine
 10
3.27129260102275
 20
1.204254463909192
 30
0.0
 11
3.316292021312606
 21
1.204254463909192
 31
0.0
  0
LINE
  5
1E5
330
A
100
AcDbEntity
  8
0
  6
solid
 62
     7
100
AcDbLine
 10
3.415886224211156
 20
0.9542544639091923
 30
0.0
 11
3.316292021312606
 21
1.204254463909192
 31
0.0
  0
LINE
  5
1E6
330
A
100
AcDbEntity
  8
0
  6
solid
 62
     7
100
AcDbLine
 10
3.326716369138693
 20
1.055703739271511
 30
0.0
 11
3.293885064790866
 21
1.142660261010641
 31
0.0
  0
LINE
  5
1E7
330
A
100
AcDbEntity
  8
0
  6
solid
 62
     7
100
AcDbLine
 10
3.293885064790866
 20
1.142660261010641
 30
0.0
 11
3.261090861892316
 21
1.055703739271511
 31
0.0
  0
LINE
  5
1E8
330
A
100
AcDbEntity
  8
0
  6
solid
 62
     7
100
AcDbLine
 10
3.326716369138693
 20
1.055703739271511
 30
0.0
 11
3.261090861892316
 21
1.055703739271511
 31
0.0
  0
LINE
  5
24F
330
A
100
AcDbEntity
  8
1
  6
solid
 62
     7
370
     0
100
AcDbLine
 10
-4.027907218014419
 20
0.0
 30
0.0
 11
-2.812672998696999
 21
0.0
 31
0.0
  0
LINE
  5
250
330
A
100
AcDbEntity
  8
1
  6
solid
 62
     7
370
     0
100
AcDbLine
 10
-3.758124864824935
 20
1.499999999999999
 30
0.0
 11
-2.812672998696998
 21
1.499999999999998
 31
0.0
  0
LINE
  5
251
330
A
100
AcDbEntity
  8
1
  6
solid
 62
     7
370
     0
100
AcDbLine
 10
-3.000172998696999
 20
0.0
 30
0.0
 11
-3.000172998696998
 21
0.2703822115384606
 31
0.0
  0
LINE
  5
252
330
A
100
AcDbEntity
  8
1
  6
solid
 62
     7
370
     0
100
AcDbLine
 10
-3.000172998696998
 20
1.499999999999998
 30
0.0
 11
-3.000172998696998
 21
1.229617788461538
 31
0.0
  0
MTEXT
  5
253
330
A
100
AcDbEntity
  8
1
  6
solid
 62
     7
370
     0
100
AcDbMText
 10
-3.000172998696998
 20
0.7499999999999996
 30
0.0
 40
0.2
 41
0.0
 71
     5
 72
     1
  1
1 1/2
 73
     1
 44
1.0
  0
SOLID
  5
254
330
A
100
AcDbEntity
  8
1
  6
solid
 62
     7
370
     0
100
AcDbTrace
 10
-3.062610498696998
 20
0.3750000000000003
 30
0.0
 11
-2.937735498696998
 21
0.3749999999999997
 31
0.0
 12
-3.000172998696999
 22
0.0
 32
0.0
 13
-3.000172998696999
 23
0.0
 33
0.0
  0
SOLID
  5
255
330
A
100
AcDbEntity
  8
1
  6
solid
 62
     7
370
     0
100
AcDbTrace
 10
-2.937735498696998
 20
1.124999999999998
 30
0.0
 11
-3.062610498696999
 21
1.124999999999998
 31
0.0
 12
-3.000172998696998
 22
1.499999999999998
 32
0.0
 13
-3.000172998696998
 23
1.499999999999998
 33
0.0
  0
LINE
  5
258
330
A
100
AcDbEntity
  8
1
  6
solid
 62
     7
370
     0
100
AcDbLine
 10
6.625
 20
0.0
 30
0.0
 11
7.466902539230204
 21
0.0
 31
0.0
  0
LINE
  5
259
330
A
100
AcDbEntity
  8
1
  6
solid
 62
     7
370
     0
100
AcDbLine
 10
6.875
 20
1.499999999999999
 30
0.0
 11
7.466902539230206
 21
1.499999999999998
 31
0.0
  0
LINE
  5
25A
330
A
100
AcDbEntity
  8
1
  6
solid
 62
     7
370
     0
100
AcDbLine
 10
7.279402539230204
 20
0.0
 30
0.0
 11
7.279402539230205
 21
0.2703822115384606
 31
0.0
  0
LINE
  5
25B
330
A
100
AcDbEntity
  8
1
  6
solid
 62
     7
370
     0
100
AcDbLine
 10
7.279402539230206
 20
1.499999999999998
 30
0.0
 11
7.279402539230205
 21
1.229617788461538
 31
0.0
  0
MTEXT
  5
25C
330
A
100
AcDbEntity
  8
1
  6
solid
 62
     7
370
     0
100
AcDbMText
 10
7.279402539230205
 20
0.7499999999999996
 30
0.0
 40
0.2
 41
0.0
 71
     5
 72
     1
  1
1 1/2
 73
     1
 44
1.0
  0
SOLID
  5
25D
330
A
100
AcDbEntity
  8
1
  6
solid
 62
     7
370
     0
100
AcDbTrace
 10
7.216965039230204
 20
0.3750000000000001
 30
0.0
 11
7.341840039230205
 21
0.375
 31
0.0
 12
7.279402539230204
 22
0.0
 32
0.0
 13
7.279402539230204
 23
0.0
 33
0.0
  0
SOLID
  5
25E
330
A
100
AcDbEntity
  8
1
  6
solid
 62
     7
370
     0
100
AcDbTrace
 10
7.341840039230207
 20
1.124999999999998
 30
0.0
 11
7.216965039230205
 21
1.124999999999998
 31
0.0
 12
7.279402539230206
 22
1.499999999999998
 32
0.0
 13
7.279402539230206
 23
1.499999999999998
 33
0.0
  0
LINE
  5
25F
330
A
100
AcDbEntity
  8
1
  6
solid
 62
     7
370
     0
100
AcDbLine
 10
5.939622959439582
 20
2.175210539026708
 30
0.0
 11
6.039578020909916
 21
2.449834864422839
 31
0.0
  0
LINE
  5
260
330
A
100
AcDbEntity
  8
1
  6
solid
 62
     7
370
     0
100
AcDbLine
 10
6.628257532695823
 20
1.852384740456761
 30
0.0
 11
6.728212594166157
 21
2.127009065852892
 31
0.0
  0
LINE
  5
261
330
A
100
AcDbEntity
  8
1
  6
solid
 62
     7
370
     0
100
AcDbLine
 10
5.975449254562003
 20
2.273642494194458
 30
0.0
 11
5.270679773648479
 21
2.530157559586107
 31
0.0
  0
LINE
  5
262
330
A
100
AcDbEntity
  8
1
  6
solid
 62
     7
370
     0
100
AcDbLine
 10
6.664083827818244
 20
1.950816695624511
 30
0.0
 11
7.368853308731768
 21
1.694301630232862
 31
0.0
  0
MTEXT
  5
263
330
A
100
AcDbEntity
  8
1
  6
solid
 62
     7
370
     0
100
AcDbMText
 10
6.296667738236294
 20
2.095222983433282
 30
0.0
 40
0.2
 41
0.0
 71
     5
 72
     1
  1
1/2
 73
     1
 44
1.0
  0
SOLID
  5
264
330
A
100
AcDbEntity
  8
1
  6
solid
 62
     7
370
     0
100
AcDbTrace
 10
5.601709634911386
 20
2.343227967604233
 30
0.0
 11
5.644419393299096
 21
2.460572086176334
 31
0.0
 12
5.975449254562003
 22
2.273642494194458
 32
0.0
 13
5.975449254562003
 23
2.273642494194458
 33
0.0
  0
SOLID
  5
265
330
A
100
AcDbEntity
  8
1
  6
solid
 62
     7
370
     0
100
AcDbTrace
 10
7.037823447468862
 20
1.881231222214737
 30
0.0
 11
6.995113689081152
 21
1.763887103642636
 31
0.0
 12
6.664083827818244
 22
1.950816695624511
 32
0.0
 13
6.664083827818244
 23
1.950816695624511
 33
0.0
  0
VIEWPORT
  5
206
330
B
100
AcDbEntity
 67
     1
  8
0
  6
Continuous
370
     0
100
AcDbViewport
 10
5.098892603679434
 20
4.021602540089144
 30
0.0
 40
15.27640830396923
 41
8.082839736715527
 68
     1
 69
     1
 12
5.098892603679434
 22
4.021602540089144
 13
0.0
 23
0.0
 14
0.5
 24
0.5
 15
0.5
 25
0.5
 16
0.0
 26
0.0
 36
1.0
 17
0.0
 27
0.0
 37
0.0
 42
50.0
 43
0.0
 44
0.0
 45
8.082839736715527
 50
0.0
 51
0.0
 72
   100
 90
   819232
  1

281
     0
 71
     1
 74
     0
110
0.0
120
0.0
130
0.0
111
1.0
121
0.0
131
0.0
112
0.0
122
1.0
132
0.0
 79
     0
146
0.0
170
     0
  0
VIEWPORT
  5
209
330
B
100
AcDbEntity
 67
     1
  8
0
  6
Continuous
370
     0
100
AcDbViewport
 10
5.09878946960649
 20
4.021649975710674
 30
0.0
 40
10.55447823396438
 41
7.987899792606672
 68
     2
 69
     2
 12
-0.895433965395938
 22
0.8849432265608772
 13
0.0
 23
0.0
 14
0.5
 24
0.5
 15
0.5
 25
0.5
 16
0.0
 26
0.0
 36
1.0
 17
0.0
 27
0.0
 37
0.0
 42
50.0
 43
0.0
 44
0.0
 45
17.24169553817155
 50
0.0
 51
0.0
 72
   100
 90
   819232
  1

281
     0
 71
     1
 74
     0
110
0.0
120
0.0
130
0.0
111
1.0
121
0.0
131
0.0
112
0.0
122
1.0
132
0.0
 79
     0
146
0.0
170
     0
  0
ENDSEC
  0
SECTION
  2
OBJECTS
  0
DICTIONARY
  5
19
330
0
100
AcDbDictionary
281
     1
  3
ACAD_COLOR
350
1FF
  3
ACAD_GROUP
350
1A
  3
ACAD_LAYOUT
350
1E
  3
ACAD_MATERIAL
350
1EA
  3
ACAD_MLEADERSTYLE
350
22F
  3
ACAD_MLINESTYLE
350
1B
  3
ACAD_PLOTSETTINGS
350
22
  3
ACAD_PLOTSTYLENAME
350
1F
  3
ACAD_SCALELIST
350
20D
  3
ACAD_TABLESTYLE
350
200
  3
ACAD_VISUALSTYLE
350
1EE
  3
ACAD_WIPEOUT_VARS
350
23
  3
ACDB_RECOMPOSE_DATA
350
288
  3
AcDbVariableDictionary
350
20A
  3
ASE_INDEX_DICTIONARY
350
26F
  0
DICTIONARY
  5
238
330
14
100
AcDbDictionary
280
     1
281
     1
  3
ADSK_XREC_LAYER_RECONCILED
360
239
  0
DICTIONARY
  5
23A
330
27
100
AcDbDictionary
280
     1
281
     1
  3
ADSK_XREC_LAYER_RECONCILED
360
23B
  0
DICTIONARY
  5
23C
330
1BB
100
AcDbDictionary
280
     1
281
     1
  3
ADSK_XREC_LAYER_RECONCILED
360
23D
  0
DICTIONARY
  5
256
330
A
100
AcDbDictionary
280
     1
281
     1
  3
ACAD_SORTENTS
360
257
  0
DICTIONARY
  5
1FF
102
{ACAD_REACTORS
330
19
102
}
330
19
100
AcDbDictionary
281
     1
  0
DICTIONARY
  5
1A
102
{ACAD_REACTORS
330
19
102
}
330
19
100
AcDbDictionary
281
     1
  0
DICTIONARY
  5
1E
102
{ACAD_REACTORS
330
19
102
}
330
19
100
AcDbDictionary
281
     1
  3
Layout1
350
21
  3
Model
350
20
  0
DICTIONARY
  5
1EA
102
{ACAD_REACTORS
330
19
102
}
330
19
100
AcDbDictionary
281
     1
  3
ByBlock
350
1EC
  3
ByLayer
350
1EB
  3
Global
350
1ED
  0
DICTIONARY
  5
22F
102
{ACAD_REACTORS
330
19
102
}
330
19
100
AcDbDictionary
281
     1
  3
Standard
350
230
  0
DICTIONARY
  5
1B
102
{ACAD_REACTORS
330
19
102
}
330
19
100
AcDbDictionary
281
     1
  3
Standard
350
1C
  0
DICTIONARY
  5
22
102
{ACAD_REACTORS
330
19
102
}
330
19
100
AcDbDictionary
281
     1
  0
ACDBDICTIONARYWDFLT
  5
1F
102
{ACAD_REACTORS
330
19
102
}
330
19
100
AcDbDictionary
281
     1
  3
Normal
350
1D
100
AcDbDictionaryWithDefault
340
1D
  0
DICTIONARY
  5
20D
102
{ACAD_REACTORS
330
19
102
}
330
19
100
AcDbDictionary
281
     1
  3
A0
350
20E
  3
A1
350
20F
  3
A2
350
210
  3
A3
350
211
  3
A4
350
212
  3
A5
350
213
  3
A6
350
214
  3
A7
350
215
  3
A8
350
216
  3
A9
350
217
  3
B0
350
218
  3
B1
350
219
  3
B2
350
21A
  3
B3
350
21B
  3
B4
350
21C
  3
B5
350
21D
  3
B6
350
21E
  3
B7
350
21F
  3
B8
350
220
  3
B9
350
221
  3
C0
350
222
  3
C1
350
223
  3
C2
350
224
  3
C3
350
225
  3
C4
350
226
  3
C5
350
227
  3
C6
350
228
  3
C7
350
229
  3
C8
350
22A
  3
C9
350
22B
  3
D0
350
22C
  3
D1
350
22D
  3
D2
350
22E
  0
DICTIONARY
  5
200
102
{ACAD_REACTORS
330
19
102
}
330
19
100
AcDbDictionary
281
     1
  3
Standard
350
201
  0
DICTIONARY
  5
1EE
102
{ACAD_REACTORS
330
19
102
}
330
19
100
AcDbDictionary
281
     1
  3
2dWireframe
350
1F4
  3
3D Hidden
350
1F6
  3
3dWireframe
350
1F5
  3
Basic
350
1F3
  3
Brighten
350
1FA
  3
ColorChange
350
1FE
  3
Conceptual
350
1F7
  3
Dim
350
1F9
  3
Facepattern
350
1FD
  3
Flat
350
1EF
  3
FlatWithEdges
350
1F0
  3
Gouraud
350
1F1
  3
GouraudWithEdges
350
1F2
  3
Linepattern
350
1FC
  3
Realistic
350
1F8
  3
Thicken
350
1FB
  0
WIPEOUTVARIABLES
  5
23
330
19
100
AcDbWipeoutVariables
 70
     1
  0
XRECORD
  5
288
102
{ACAD_REACTORS
330
19
102
}
330
19
100
AcDbXrecord
280
     1
 90
        1
330
201
  0
DICTIONARY
  5
20A
102
{ACAD_REACTORS
330
19
102
}
330
19
100
AcDbDictionary
281
     1
  3
CANNOSCALE
350
285
  3
CMLEADERSTYLE
350
284
  3
CTABLESTYLE
350
20B
  0
DICTIONARY
  5
26F
102
{ACAD_REACTORS
330
19
102
}
330
19
100
AcDbDictionary
281
     1
  3
ASEBlockHierarchyIndexRecord
350
271
1001
DCO15
1040
1667638477.875
  0
XRECORD
  5
239
102
{ACAD_REACTORS
330
238
102
}
330
238
100
AcDbXrecord
280
     1
290
     1
  0
XRECORD
  5
23B
102
{ACAD_REACTORS
330
23A
102
}
330
23A
100
AcDbXrecord
280
     1
290
     1
  0
XRECORD
  5
23D
102
{ACAD_REACTORS
330
23C
102
}
330
23C
100
AcDbXrecord
280
     1
290
     1
  0
SORTENTSTABLE
  5
257
102
{ACAD_REACTORS
330
256
102
}
330
256
100
AcDbSortentsTable
330
A
331
16C
  5
17A
331
152
  5
160
331
130
  5
13E
331
18E
  5
19C
331
7D
  5
8B
331
C1
  5
CF
331
9F
  5
AD
331
25F
  5
66
331
1D2
  5
1E7
331
FD
  5
10B
331
E3
  5
F1
331
252
  5
1CD
331
141
  5
14F
331
11F
  5
12D
331
6D
  5
7B
331
17D
  5
18B
331
163
  5
171
331
19F
  5
1C1
331
1C1
  5
1D6
331
B0
  5
BE
331
D2
  5
E0
331
8E
  5
9C
331
10E
  5
11C
331
3A
  5
3A
331
29
  5
29
331
16A
  5
178
331
150
  5
15E
331
18C
  5
19A
331
7B
  5
89
331
1D0
  5
1E5
331
BF
  5
CD
331
9D
  5
AB
331
FB
  5
109
331
E1
  5
EF
331
250
  5
1CB
331
13F
  5
14D
331
11D
  5
12B
331
17B
  5
189
331
161
  5
16F
331
6B
  5
79
331
25D
  5
63
331
19D
  5
1BF
331
1BF
  5
1D4
331
AE
  5
BC
331
D0
  5
DE
331
8C
  5
9A
331
12E
  5
13C
331
10C
  5
11A
331
38
  5
38
331
168
  5
176
331
18A
  5
198
331
79
  5
87
331
1CE
  5
1E3
331
BD
  5
CB
331
9B
  5
A9
331
DF
  5
ED
331
25B
  5
61
331
1E8
  5
265
331
F9
  5
107
331
179
  5
187
331
15F
  5
16D
331
13D
  5
14B
331
11B
  5
129
331
69
  5
77
331
19B
  5
1BD
331
8A
  5
98
331
1BD
  5
1D2
331
CE
  5
DC
331
AC
  5
BA
331
47
  5
47
331
1DF
  5
25C
331
14E
  5
15C
331
12C
  5
13A
331
10A
  5
118
331
36
  5
36
331
188
  5
196
331
1CC
  5
1E1
331
BB
  5
C9
331
99
  5
A7
331
DD
  5
EB
331
259
  5
5F
331
1E6
  5
263
331
F7
  5
105
331
177
  5
185
331
15D
  5
16B
331
13B
  5
149
331
119
  5
127
331
67
  5
75
331
199
  5
1A7
331
88
  5
96
331
CC
  5
DA
331
AA
  5
B8
331
45
  5
45
331
1DD
  5
25A
331
14C
  5
15A
331
12A
  5
138
331
108
  5
116
331
EE
  5
FC
331
34
  5
34
331
1CA
  5
1DF
331
B9
  5
C7
331
DB
  5
E9
331
1E4
  5
261
331
F5
  5
103
331
175
  5
183
331
15B
  5
169
331
139
  5
147
331
117
  5
125
331
65
  5
73
331
197
  5
1A5
331
86
  5
94
331
CA
  5
D8
331
A8
  5
B6
331
43
  5
43
331
1DB
  5
258
331
106
  5
114
331
EC
  5
FA
331
186
  5
194
331
14A
  5
158
331
128
  5
136
331
76
  5
84
331
97
  5
A5
331
32
  5
32
331
1C8
  5
1DD
331
D9
  5
E7
331
1E2
  5
25F
331
F3
  5
101
331
173
  5
181
331
159
  5
167
331
137
  5
145
331
115
  5
123
331
63
  5
71
331
195
  5
1A3
331
84
  5
92
331
C8
  5
D6
331
A6
  5
B4
331
41
  5
41
331
1D9
  5
254
331
104
  5
112
331
EA
  5
F8
331
184
  5
192
331
148
  5
156
331
126
  5
134
331
74
  5
82
331
1A6
  5
1C8
331
95
  5
A3
331
B7
  5
C5
331
30
  5
30
331
1E0
  5
25D
331
F1
  5
FF
331
171
  5
17F
331
157
  5
165
331
135
  5
143
331
113
  5
121
331
61
  5
6F
331
193
  5
1A1
331
82
  5
90
331
C6
  5
D4
331
A4
  5
B2
331
264
  5
6B
331
1D7
  5
252
331
102
  5
110
331
E8
  5
F6
331
182
  5
190
331
146
  5
154
331
124
  5
132
331
72
  5
80
331
1A4
  5
1C6
331
93
  5
A1
331
1C6
  5
1DB
331
D7
  5
E5
331
B5
  5
C3
331
3F
  5
3F
331
2E
  5
2E
331
16F
  5
17D
331
155
  5
163
331
133
  5
141
331
111
  5
11F
331
191
  5
19F
331
80
  5
8E
331
C4
  5
D2
331
A2
  5
B0
331
262
  5
69
331
1D5
  5
250
331
100
  5
10E
331
E6
  5
F4
331
255
  5
1D0
331
144
  5
152
331
122
  5
130
331
70
  5
7E
331
180
  5
18E
331
166
  5
174
331
1A2
  5
1C4
331
1C4
  5
1D9
331
B3
  5
C1
331
D5
  5
E3
331
91
  5
9F
331
5F
  5
6D
331
3D
  5
3D
331
2C
  5
2C
331
16D
  5
17B
331
153
  5
161
331
131
  5
13F
331
18F
  5
19D
331
7E
  5
8C
331
C2
  5
D0
331
A0
  5
AE
331
260
  5
67
331
1D3
  5
1E8
331
FE
  5
10C
331
E4
  5
F2
331
253
  5
1CE
331
142
  5
150
331
120
  5
12E
331
6E
  5
7C
331
17E
  5
18C
331
164
  5
172
331
1A0
  5
1C2
331
1C2
  5
1D7
331
B1
  5
BF
331
D3
  5
E1
331
8F
  5
9D
331
10F
  5
11D
331
3B
  5
3B
331
2A
  5
2A
331
16B
  5
179
331
151
  5
15F
331
18D
  5
19B
331
7C
  5
8A
331
C0
  5
CE
331
9E
  5
AC
331
25E
  5
64
331
1D1
  5
1E6
331
FC
  5
10A
331
E2
  5
F0
331
251
  5
1CC
331
140
  5
14E
331
11E
  5
12C
331
6C
  5
7A
331
17C
  5
18A
331
162
  5
170
331
19E
  5
1C0
331
1C0
  5
1D5
331
AF
  5
BD
331
D1
  5
DF
331
8D
  5
9B
331
12F
  5
13D
331
10D
  5
11B
331
39
  5
39
331
28
  5
28
331
169
  5
177
331
18B
  5
199
331
7A
  5
88
331
1CF
  5
1E4
331
BE
  5
CC
331
9C
  5
AA
331
E0
  5
EE
331
25C
  5
62
331
FA
  5
108
331
24F
  5
1CA
331
13E
  5
14C
331
11C
  5
12A
331
6A
  5
78
331
17A
  5
188
331
160
  5
16E
331
19C
  5
1BE
331
1BE
  5
1D3
331
AD
  5
BB
331
CF
  5
DD
331
8B
  5
99
331
48
  5
48
331
14F
  5
15D
331
12D
  5
13B
331
10B
  5
119
331
37
  5
37
331
189
  5
197
331
78
  5
86
331
1CD
  5
1E2
331
BC
  5
CA
331
9A
  5
A8
331
DE
  5
EC
331
25A
  5
60
331
1E7
  5
264
331
F8
  5
106
331
178
  5
186
331
15E
  5
16C
331
13C
  5
14A
331
11A
  5
128
331
68
  5
76
331
19A
  5
1BC
331
89
  5
97
331
1BC
  5
1D1
331
CD
  5
DB
331
AB
  5
B9
331
46
  5
46
331
1DE
  5
25B
331
14D
  5
15B
331
12B
  5
139
331
109
  5
117
331
EF
  5
FD
331
35
  5
35
331
1CB
  5
1E0
331
BA
  5
C8
331
98
  5
A6
331
DC
  5
EA
331
258
  5
5E
331
1E5
  5
262
331
F6
  5
104
331
176
  5
184
331
15C
  5
16A
331
13A
  5
148
331
118
  5
126
331
66
  5
74
331
198
  5
1A6
331
87
  5
95
331
CB
  5
D9
331
A9
  5
B7
331
44
  5
44
331
1DC
  5
259
331
107
  5
115
331
ED
  5
FB
331
187
  5
195
331
14B
  5
159
331
129
  5
137
331
77
  5
85
331
33
  5
33
331
1C9
  5
1DE
331
B8
  5
C6
331
DA
  5
E8
331
1E3
  5
260
331
F4
  5
102
331
174
  5
182
331
15A
  5
168
331
138
  5
146
331
116
  5
124
331
64
  5
72
331
196
  5
1A4
331
85
  5
93
331
C9
  5
D7
331
A7
  5
B5
331
42
  5
42
331
1DA
  5
255
331
105
  5
113
331
EB
  5
F9
331
185
  5
193
331
149
  5
157
331
127
  5
135
331
1A7
  5
1C9
331
96
  5
A4
331
75
  5
83
331
31
  5
31
331
D8
  5
E6
331
1E1
  5
25E
331
F2
  5
100
331
172
  5
180
331
158
  5
166
331
136
  5
144
331
114
  5
122
331
62
  5
70
331
194
  5
1A2
331
83
  5
91
331
C7
  5
D5
331
A5
  5
B3
331
265
  5
6C
331
40
  5
40
331
1D8
  5
253
331
103
  5
111
331
E9
  5
F7
331
183
  5
191
331
147
  5
155
331
125
  5
133
331
73
  5
81
331
1A5
  5
1C7
331
94
  5
A2
331
1C7
  5
1DC
331
B6
  5
C4
331
2F
  5
2F
331
F0
  5
FE
331
170
  5
17E
331
156
  5
164
331
134
  5
142
331
112
  5
120
331
60
  5
6E
331
192
  5
1A0
331
81
  5
8F
331
C5
  5
D3
331
A3
  5
B1
331
263
  5
6A
331
1D6
  5
251
331
101
  5
10F
331
E7
  5
F5
331
181
  5
18F
331
167
  5
175
331
145
  5
153
331
123
  5
131
331
71
  5
7F
331
1A3
  5
1C5
331
92
  5
A0
331
1C5
  5
1DA
331
D6
  5
E4
331
B4
  5
C2
331
3E
  5
3E
331
2D
  5
2D
331
16E
  5
17C
331
154
  5
162
331
132
  5
140
331
110
  5
11E
331
190
  5
19E
331
7F
  5
8D
331
C3
  5
D1
331
A1
  5
AF
331
261
  5
68
331
1D4
  5
24F
331
FF
  5
10D
331
E5
  5
F3
331
254
  5
1CF
331
143
  5
151
331
121
  5
12F
331
6F
  5
7D
331
17F
  5
18D
331
165
  5
173
331
1A1
  5
1C3
331
1C3
  5
1D8
331
B2
  5
C0
331
D4
  5
E2
331
90
  5
9E
331
3C
  5
3C
331
2B
  5
2B
  0
LAYOUT
  5
21
102
{ACAD_REACTORS
330
1E
102
}
330
1E
100
AcDbPlotSettings
  1

  2
Foxit PDF Printer
  4
Letter
  6

 40
3.174999952316284
 41
3.174999952316284
 42
3.17498779296875
 43
3.175003051757812
 44
279.3999938964844
 45
215.8999938964844
 46
31.47715384821894
 47
24.12875752349356
 48
0.0
 49
0.0
140
0.0
141
0.0
142
1.0
143
1.0
 70
     4
 72
     0
 73
     0
 74
     1
  7

 75
     0
147
1.0
 76
     0
 77
     2
 78
   300
148
-26.25461124795212
149
-20.16000981431432
100
AcDbLayout
  1
Layout1
 70
     0
 71
     1
 10
-0.3306119115190196
 20
-0.2812499079328949
 11
10.66938784818509
 21
8.218749851771214
 12
0.0
 22
0.0
 32
0.0
 14
-0.1790461235384875
 24
0.0271759260146105
 34
-0.0015258207003583
 15
10.37683133089736
 25
8.016029154163678
 35
0.0000000349246037
146
0.0
 13
0.0
 23
0.0
 33
0.0
 16
1.0
 26
0.0
 36
0.0
 17
0.0
 27
1.0
 37
0.0
 76
     0
330
B
331
206
1001
ACAD_PSEXT
1000
Foxit PDF Printer
1000
Foxit PDF Printer Driver
1000
FOXIT_PDF
1000

1070
     0
  0
LAYOUT
  5
20
102
{ACAD_REACTORS
330
1E
102
}
330
1E
100
AcDbPlotSettings
  1

  2

  4

  6

 40
0.0
 41
0.0
 42
0.0
 43
0.0
 44
0.0
 45
0.0
 46
0.0
 47
0.0
 48
0.0
 49
0.0
140
0.0
141
0.0
142
1.0
143
1.0
 70
  1024
 72
     0
 73
     0
 74
     0
  7

 75
     0
147
1.0
 76
     0
 77
     2
 78
   300
148
0.0
149
0.0
100
AcDbLayout
  1
Model
 70
     0
 71
     0
 10
0.0
 20
0.0
 11
0.0
 21
0.0
 12
0.0
 22
0.0
 32
0.0
 14
0.0
 24
0.0
 34
0.0
 15
0.0
 25
0.0
 35
0.0
146
0.0
 13
0.0
 23
0.0
 33
0.0
 16
0.0
 26
0.0
 36
0.0
 17
0.0
 27
0.0
 37
0.0
 76
     0
330
A
  0
MATERIAL
  5
1EC
102
{ACAD_XDICTIONARY
360
28B
102
}
102
{ACAD_REACTORS
330
1EA
102
}
330
1EA
100
AcDbMaterial
  1
ByBlock
 73
     1
 78
     1
172
     1
176
     1
270
     1
274
     1
  0
MATERIAL
  5
1EB
102
{ACAD_XDICTIONARY
360
289
102
}
102
{ACAD_REACTORS
330
1EA
102
}
330
1EA
100
AcDbMaterial
  1
ByLayer
 73
     1
 78
     1
172
     1
176
     1
270
     1
274
     1
  0
MATERIAL
  5
1ED
102
{ACAD_XDICTIONARY
360
28D
102
}
102
{ACAD_REACTORS
330
1EA
102
}
330
1EA
100
AcDbMaterial
  1
Global
 73
     1
 78
     1
172
     1
176
     1
270
     1
274
     1
  0
MLEADERSTYLE
  5
230
102
{ACAD_REACTORS
330
22F
102
}
330
22F
100
AcDbMLeaderStyle
170
     2
171
     1
172
     0
 90
        2
 40
0.0
 41
0.0
173
     1
 91
-1056964608
340
11
 92
       -2
290
     1
 42
0.09
291
     1
 43
0.36
  3
Standard
 44
0.18
300

342
17
174
     1
178
     6
175
     1
176
     0
 93
-1056964608
 45
0.18
292
     0
297
     0
 46
0.18
 94
-1056964608
 47
1.0
 49
1.0
140
1.0
293
     1
141
0.0
294
     1
177
     0
142
1.0
295
     0
296
     0
143
0.125
1001
ACAD_MLEADERVER
1070
     2
  0
MLINESTYLE
  5
1C
102
{ACAD_REACTORS
330
1B
102
}
330
1B
100
AcDbMlineStyle
  2
STANDARD
 70
     0
  3

 62
     0
 51
90.0
 52
90.0
 71
     2
 49
0.5
 62
   256
  6
BYLAYER
 49
-0.5
 62
   256
  6
BYLAYER
  0
ACDBPLACEHOLDER
  5
1D
102
{ACAD_REACTORS
330
1F
102
}
330
1F
  0
SCALE
  5
20E
102
{ACAD_REACTORS
330
20D
102
}
330
20D
100
AcDbScale
 70
     0
300
1:1
140
1.0
141
1.0
290
     1
  0
SCALE
  5
20F
102
{ACAD_REACTORS
330
20D
102
}
330
20D
100
AcDbScale
 70
     0
300
1:2
140
1.0
141
2.0
290
     0
  0
SCALE
  5
210
102
{ACAD_REACTORS
330
20D
102
}
330
20D
100
AcDbScale
 70
     0
300
1:4
140
1.0
141
4.0
290
     0
  0
SCALE
  5
211
102
{ACAD_REACTORS
330
20D
102
}
330
20D
100
AcDbScale
 70
     0
300
1:5
140
1.0
141
5.0
290
     0
  0
SCALE
  5
212
102
{ACAD_REACTORS
330
20D
102
}
330
20D
100
AcDbScale
 70
     0
300
1:8
140
1.0
141
8.0
290
     0
  0
SCALE
  5
213
102
{ACAD_REACTORS
330
20D
102
}
330
20D
100
AcDbScale
 70
     0
300
1:10
140
1.0
141
10.0
290
     0
  0
SCALE
  5
214
102
{ACAD_REACTORS
330
20D
102
}
330
20D
100
AcDbScale
 70
     0
300
1:16
140
1.0
141
16.0
290
     0
  0
SCALE
  5
215
102
{ACAD_REACTORS
330
20D
102
}
330
20D
100
AcDbScale
 70
     0
300
1:20
140
1.0
141
20.0
290
     0
  0
SCALE
  5
216
102
{ACAD_REACTORS
330
20D
102
}
330
20D
100
AcDbScale
 70
     0
300
1:30
140
1.0
141
30.0
290
     0
  0
SCALE
  5
217
102
{ACAD_REACTORS
330
20D
102
}
330
20D
100
AcDbScale
 70
     0
300
1:40
140
1.0
141
40.0
290
     0
  0
SCALE
  5
218
102
{ACAD_REACTORS
330
20D
102
}
330
20D
100
AcDbScale
 70
     0
300
1:50
140
1.0
141
50.0
290
     0
  0
SCALE
  5
219
102
{ACAD_REACTORS
330
20D
102
}
330
20D
100
AcDbScale
 70
     0
300
1:100
140
1.0
141
100.0
290
     0
  0
SCALE
  5
21A
102
{ACAD_REACTORS
330
20D
102
}
330
20D
100
AcDbScale
 70
     0
300
2:1
140
2.0
141
1.0
290
     0
  0
SCALE
  5
21B
102
{ACAD_REACTORS
330
20D
102
}
330
20D
100
AcDbScale
 70
     0
300
4:1
140
4.0
141
1.0
290
     0
  0
SCALE
  5
21C
102
{ACAD_REACTORS
330
20D
102
}
330
20D
100
AcDbScale
 70
     0
300
8:1
140
8.0
141
1.0
290
     0
  0
SCALE
  5
21D
102
{ACAD_REACTORS
330
20D
102
}
330
20D
100
AcDbScale
 70
     0
300
10:1
140
10.0
141
1.0
290
     0
  0
SCALE
  5
21E
102
{ACAD_REACTORS
330
20D
102
}
330
20D
100
AcDbScale
 70
     0
300
100:1
140
100.0
141
1.0
290
     0
  0
SCALE
  5
21F
102
{ACAD_REACTORS
330
20D
102
}
330
20D
100
AcDbScale
 70
     0
300
1/128" = 1'-0"
140
0.0078125
141
12.0
290
     0
  0
SCALE
  5
220
102
{ACAD_REACTORS
330
20D
102
}
330
20D
100
AcDbScale
 70
     0
300
1/64" = 1'-0"
140
0.015625
141
12.0
290
     0
  0
SCALE
  5
221
102
{ACAD_REACTORS
330
20D
102
}
330
20D
100
AcDbScale
 70
     0
300
1/32" = 1'-0"
140
0.03125
141
12.0
290
     0
  0
SCALE
  5
222
102
{ACAD_REACTORS
330
20D
102
}
330
20D
100
AcDbScale
 70
     0
300
1/16" = 1'-0"
140
0.0625
141
12.0
290
     0
  0
SCALE
  5
223
102
{ACAD_REACTORS
330
20D
102
}
330
20D
100
AcDbScale
 70
     0
300
3/32" = 1'-0"
140
0.09375
141
12.0
290
     0
  0
SCALE
  5
224
102
{ACAD_REACTORS
330
20D
102
}
330
20D
100
AcDbScale
 70
     0
300
1/8" = 1'-0"
140
0.125
141
12.0
290
     0
  0
SCALE
  5
225
102
{ACAD_REACTORS
330
20D
102
}
330
20D
100
AcDbScale
 70
     0
300
3/16" = 1'-0"
140
0.1875
141
12.0
290
     0
  0
SCALE
  5
226
102
{ACAD_REACTORS
330
20D
102
}
330
20D
100
AcDbScale
 70
     0
300
1/4" = 1'-0"
140
0.25
141
12.0
290
     0
  0
SCALE
  5
227
102
{ACAD_REACTORS
330
20D
102
}
330
20D
100
AcDbScale
 70
     0
300
3/8" = 1'-0"
140
0.375
141
12.0
290
     0
  0
SCALE
  5
228
102
{ACAD_REACTORS
330
20D
102
}
330
20D
100
AcDbScale
 70
     0
300
1/2" = 1'-0"
140
0.5
141
12.0
290
     0
  0
SCALE
  5
229
102
{ACAD_REACTORS
330
20D
102
}
330
20D
100
AcDbScale
 70
     0
300
3/4" = 1'-0"
140
0.75
141
12.0
290
     0
  0
SCALE
  5
22A
102
{ACAD_REACTORS
330
20D
102
}
330
20D
100
AcDbScale
 70
     0
300
1" = 1'-0"
140
1.0
141
12.0
290
     0
  0
SCALE
  5
22B
102
{ACAD_REACTORS
330
20D
102
}
330
20D
100
AcDbScale
 70
     0
300
1-1/2" = 1'-0"
140
1.5
141
12.0
290
     0
  0
SCALE
  5
22C
102
{ACAD_REACTORS
330
20D
102
}
330
20D
100
AcDbScale
 70
     0
300
3" = 1'-0"
140
3.0
141
12.0
290
     0
  0
SCALE
  5
22D
102
{ACAD_REACTORS
330
20D
102
}
330
20D
100
AcDbScale
 70
     0
300
6" = 1'-0"
140
6.0
141
12.0
290
     0
  0
SCALE
  5
22E
102
{ACAD_REACTORS
330
20D
102
}
330
20D
100
AcDbScale
 70
     0
300
1'-0" = 1'-0"
140
12.0
141
12.0
290
     0
  0
TABLESTYLE
  5
201
102
{ACAD_XDICTIONARY
360
286
102
}
102
{ACAD_REACTORS
330
200
102
}
330
200
100
AcDbTableStyle
  3
Standard
 70
     0
 71
     0
 40
0.06
 41
0.06
280
     0
281
     0
  7
Standard
140
0.18
170
     2
 62
     0
 63
     7
283
     0
274
    -2
284
     1
 64
     0
275
    -2
285
     1
 65
     0
276
    -2
286
     1
 66
     0
277
    -2
287
     1
 67
     0
278
    -2
288
     1
 68
     0
279
    -2
289
     1
 69
     0
  7
Standard
140
0.25
170
     5
 62
     0
 63
     7
283
     0
274
    -2
284
     1
 64
     0
275
    -2
285
     1
 65
     0
276
    -2
286
     1
 66
     0
277
    -2
287
     1
 67
     0
278
    -2
288
     1
 68
     0
279
    -2
289
     1
 69
     0
  7
Standard
140
0.18
170
     5
 62
     0
 63
     7
283
     0
274
    -2
284
     1
 64
     0
275
    -2
285
     1
 65
     0
276
    -2
286
     1
 66
     0
277
    -2
287
     1
 67
     0
278
    -2
288
     1
 68
     0
279
    -2
289
     1
 69
     0
  0
VISUALSTYLE
  5
1F4
102
{ACAD_REACTORS
330
1EE
102
}
330
1EE
100
AcDbVisualStyle
  2
2dWireframe
 70
     4
 71
     0
 72
     2
 73
     0
 90
        0
 40
-0.6
 41
-30.0
 62
     5
 63
     7
421
 16777215
 74
     1
 91
        4
 64
     7
 65
   257
 75
     1
175
     1
 42
1.0
 92
        0
 66
   257
 43
1.0
 76
     1
 77
     6
 78
     2
 67
     7
 79
     5
170
     0
171
     0
290
     0
174
     0
 93
        1
 44
0.0
173
     0
291
     0
 45
0.0
1001
ACAD
1000
AcDbSavedByObjectVersion
1070
     0
  0
VISUALSTYLE
  5
1F6
102
{ACAD_REACTORS
330
1EE
102
}
330
1EE
100
AcDbVisualStyle
  2
3D Hidden
 70
     6
 71
     1
 72
     2
 73
     2
 90
        0
 40
-0.6
 41
-30.0
 62
     5
 63
     7
421
 16777215
 74
     2
 91
        2
 64
     7
 65
   257
 75
     2
175
     1
 42
40.0
 92
        0
 66
   257
 43
1.0
 76
     1
 77
     6
 78
     2
 67
     7
 79
     3
170
     0
171
     0
290
     0
174
     0
 93
        1
 44
0.0
173
     0
291
     0
 45
0.0
1001
ACAD
1000
AcDbSavedByObjectVersion
1070
     0
  0
VISUALSTYLE
  5
1F5
102
{ACAD_REACTORS
330
1EE
102
}
330
1EE
100
AcDbVisualStyle
  2
3dWireframe
 70
     5
 71
     0
 72
     2
 73
     0
 90
        0
 40
-0.6
 41
-30.0
 62
     5
 63
     7
421
 16777215
 74
     1
 91
        4
 64
     7
 65
   257
 75
     1
175
     1
 42
1.0
 92
        0
 66
   257
 43
1.0
 76
     1
 77
     6
 78
     2
 67
     7
 79
     5
170
     0
171
     0
290
     0
174
     0
 93
        1
 44
0.0
173
     0
291
     0
 45
0.0
1001
ACAD
1000
AcDbSavedByObjectVersion
1070
     0
  0
VISUALSTYLE
  5
1F3
102
{ACAD_REACTORS
330
1EE
102
}
330
1EE
100
AcDbVisualStyle
  2
Basic
 70
     7
 71
     1
 72
     0
 73
     1
 90
        0
 40
-0.6
 41
-30.0
 62
     5
 63
     7
421
 16777215
 74
     0
 91
        4
 64
     7
 65
   257
 75
     1
175
     1
 42
1.0
 92
        8
 66
     7
 43
1.0
 76
     1
 77
     6
 78
     2
 67
     7
 79
     5
170
     0
171
     0
290
     0
174
     0
 93
        1
 44
0.0
173
     0
291
     1
 45
0.0
1001
ACAD
1000
AcDbSavedByObjectVersion
1070
     0
  0
VISUALSTYLE
  5
1FA
102
{ACAD_REACTORS
330
1EE
102
}
330
1EE
100
AcDbVisualStyle
  2
Brighten
 70
    12
 71
     2
 72
     2
 73
     0
 90
        0
 40
-0.6
 41
-30.0
 62
     5
 63
     7
421
 16777215
 74
     1
 91
        4
 64
     7
 65
   257
 75
     1
175
     1
 42
1.0
 92
        8
 66
     7
 43
1.0
 76
     1
 77
     6
 78
     2
 67
     7
 79
     5
170
     0
171
     0
290
     0
174
     0
 93
        1
 44
50.0
173
     0
291
     1
 45
0.0
1001
ACAD
1000
AcDbSavedByObjectVersion
1070
     0
  0
VISUALSTYLE
  5
1FE
102
{ACAD_REACTORS
330
1EE
102
}
330
1EE
100
AcDbVisualStyle
  2
ColorChange
 70
    16
 71
     2
 72
     2
 73
     3
 90
        0
 40
-0.6
 41
-30.0
 62
     5
 63
     8
421
  8421504
 74
     1
 91
        4
 64
     7
 65
   257
 75
     1
175
     1
 42
1.0
 92
        8
 66
     8
424
  8421504
 43
1.0
 76
     1
 77
     6
 78
     2
 67
     7
 79
     5
170
     0
171
     0
290
     0
174
     0
 93
        1
 44
0.0
173
     0
291
     1
 45
0.0
1001
ACAD
1000
AcDbSavedByObjectVersion
1070
     0
  0
VISUALSTYLE
  5
1F7
102
{ACAD_REACTORS
330
1EE
102
}
330
1EE
100
AcDbVisualStyle
  2
Conceptual
 70
     9
 71
     3
 72
     2
 73
     0
 90
        0
 40
-0.6
 41
-30.0
 62
     5
 63
     7
421
 16777215
 74
     2
 91
        2
 64
     7
 65
   257
 75
     1
175
     1
 42
40.0
 92
        8
 66
     7
 43
1.0
 76
     1
 77
     6
 78
     2
 67
     7
 79
     3
170
     0
171
     0
290
     0
174
     0
 93
        1
 44
0.0
173
     0
291
     0
 45
0.0
1001
ACAD
1000
AcDbSavedByObjectVersion
1070
     0
  0
VISUALSTYLE
  5
1F9
102
{ACAD_REACTORS
330
1EE
102
}
330
1EE
100
AcDbVisualStyle
  2
Dim
 70
    11
 71
     2
 72
     2
 73
     0
 90
        0
 40
-0.6
 41
-30.0
 62
     5
 63
     7
421
 16777215
 74
     1
 91
        4
 64
     7
 65
   257
 75
     1
175
     1
 42
1.0
 92
        8
 66
     7
 43
1.0
 76
     1
 77
     6
 78
     2
 67
     7
 79
     5
170
     0
171
     0
290
     0
174
     0
 93
        1
 44
-50.0
173
     0
291
     1
 45
0.0
1001
ACAD
1000
AcDbSavedByObjectVersion
1070
     0
  0
VISUALSTYLE
  5
1FD
102
{ACAD_REACTORS
330
1EE
102
}
330
1EE
100
AcDbVisualStyle
  2
Facepattern
 70
    15
 71
     2
 72
     2
 73
     0
 90
        0
 40
-0.6
 41
-30.0
 62
     5
 63
     7
421
 16777215
 74
     1
 91
        4
 64
     7
 65
   257
 75
     1
175
     1
 42
1.0
 92
        8
 66
     7
 43
1.0
 76
     1
 77
     6
 78
     2
 67
     7
 79
     5
170
     0
171
     0
290
     0
174
     0
 93
        1
 44
0.0
173
     0
291
     1
 45
0.0
1001
ACAD
1000
AcDbSavedByObjectVersion
1070
     0
  0
VISUALSTYLE
  5
1EF
102
{ACAD_REACTORS
330
1EE
102
}
330
1EE
100
AcDbVisualStyle
  2
Flat
 70
     0
 71
     2
 72
     1
 73
     1
 90
        2
 40
-0.6
 41
30.0
 62
     5
 63
     7
421
 16777215
 74
     0
 91
        4
 64
     7
 65
   257
 75
     1
175
     1
 42
1.0
 92
        8
 66
     7
 43
1.0
 76
     1
 77
     6
 78
     2
 67
     7
 79
     5
170
     0
171
     0
290
     0
174
     0
 93
       13
 44
0.0
173
     0
291
     1
 45
0.0
1001
ACAD
1000
AcDbSavedByObjectVersion
1070
     0
  0
VISUALSTYLE
  5
1F0
102
{ACAD_REACTORS
330
1EE
102
}
330
1EE
100
AcDbVisualStyle
  2
FlatWithEdges
 70
     1
 71
     2
 72
     1
 73
     1
 90
        2
 40
-0.6
 41
30.0
 62
     5
 63
     7
421
 16777215
 74
     1
 91
        4
 64
     7
 65
   257
 75
     1
175
     1
 42
1.0
 92
        0
 66
   257
 43
1.0
 76
     1
 77
     6
 78
     2
 67
     7
 79
     5
170
     0
171
     0
290
     0
174
     0
 93
       13
 44
0.0
173
     0
291
     1
 45
0.0
1001
ACAD
1000
AcDbSavedByObjectVersion
1070
     0
  0
VISUALSTYLE
  5
1F1
102
{ACAD_REACTORS
330
1EE
102
}
330
1EE
100
AcDbVisualStyle
  2
Gouraud
 70
     2
 71
     2
 72
     2
 73
     1
 90
        2
 40
-0.6
 41
30.0
 62
     5
 63
     7
421
 16777215
 74
     0
 91
        4
 64
     7
 65
   257
 75
     1
175
     1
 42
1.0
 92
        0
 66
     7
 43
1.0
 76
     1
 77
     6
 78
     2
 67
     7
 79
     5
170
     0
171
     0
290
     0
174
     0
 93
       13
 44
0.0
173
     0
291
     1
 45
0.0
1001
ACAD
1000
AcDbSavedByObjectVersion
1070
     0
  0
VISUALSTYLE
  5
1F2
102
{ACAD_REACTORS
330
1EE
102
}
330
1EE
100
AcDbVisualStyle
  2
GouraudWithEdges
 70
     3
 71
     2
 72
     2
 73
     1
 90
        2
 40
-0.6
 41
30.0
 62
     5
 63
     7
421
 16777215
 74
     1
 91
        4
 64
     7
 65
   257
 75
     1
175
     1
 42
1.0
 92
        0
 66
   257
 43
1.0
 76
     1
 77
     6
 78
     2
 67
     7
 79
     5
170
     0
171
     0
290
     0
174
     0
 93
       13
 44
0.0
173
     0
291
     1
 45
0.0
1001
ACAD
1000
AcDbSavedByObjectVersion
1070
     0
  0
VISUALSTYLE
  5
1FC
102
{ACAD_REACTORS
330
1EE
102
}
330
1EE
100
AcDbVisualStyle
  2
Linepattern
 70
    14
 71
     2
 72
     2
 73
     0
 90
        0
 40
-0.6
 41
-30.0
 62
     5
 63
     7
421
 16777215
 74
     1
 91
        4
 64
     7
 65
   257
 75
     7
175
     7
 42
1.0
 92
        8
 66
     7
 43
1.0
 76
     1
 77
     6
 78
     2
 67
     7
 79
     5
170
     0
171
     0
290
     0
174
     0
 93
        1
 44
0.0
173
     0
291
     1
 45
0.0
1001
ACAD
1000
AcDbSavedByObjectVersion
1070
     0
  0
VISUALSTYLE
  5
1F8
102
{ACAD_REACTORS
330
1EE
102
}
330
1EE
100
AcDbVisualStyle
  2
Realistic
 70
     8
 71
     2
 72
     2
 73
     0
 90
        0
 40
-0.6
 41
-30.0
 62
     5
 63
     7
421
 16777215
 74
     1
 91
        0
 64
     7
 65
   257
 75
     1
175
     1
 42
1.0
 92
        8
 66
     8
424
  7895160
 43
1.0
 76
     1
 77
     6
 78
     2
 67
     7
 79
     5
170
     0
171
     0
290
     0
174
     0
 93
       13
 44
0.0
173
     0
291
     0
 45
0.0
1001
ACAD
1000
AcDbSavedByObjectVersion
1070
     0
  0
VISUALSTYLE
  5
1FB
102
{ACAD_REACTORS
330
1EE
102
}
330
1EE
100
AcDbVisualStyle
  2
Thicken
 70
    13
 71
     2
 72
     2
 73
     0
 90
        0
 40
-0.6
 41
-30.0
 62
     5
 63
     7
421
 16777215
 74
     1
 91
        4
 64
     7
 65
   257
 75
     1
175
     1
 42
1.0
 92
       12
 66
     7
 43
1.0
 76
     1
 77
     6
 78
     2
 67
     7
 79
     5
170
     0
171
     0
290
     0
174
     0
 93
        1
 44
0.0
173
     0
291
     1
 45
0.0
1001
ACAD
1000
AcDbSavedByObjectVersion
1070
     0
  0
DICTIONARYVAR
  5
285
102
{ACAD_REACTORS
330
20A
102
}
330
20A
100
DictionaryVariables
280
     0
  1
1:1
  0
DICTIONARYVAR
  5
284
102
{ACAD_REACTORS
330
20A
102
}
330
20A
100
DictionaryVariables
280
     0
  1
STANDARD
  0
DICTIONARYVAR
  5
20B
102
{ACAD_REACTORS
330
20A
102
}
330
20A
100
DictionaryVariables
280
     0
  1
STANDARD
  0
XRECORD
  5
271
102
{ACAD_REACTORS
330
26F
102
}
330
26F
100
AcDbXrecord
280
     1
  0
DICTIONARY
  5
28B
330
1EC
100
AcDbDictionary
280
     1
281
     1
  3
ACAD_XREC_ROUNDTRIP
360
28C
  0
DICTIONARY
  5
289
330
1EB
100
AcDbDictionary
280
     1
281
     1
  3
ACAD_XREC_ROUNDTRIP
360
28A
  0
DICTIONARY
  5
28D
330
1ED
100
AcDbDictionary
280
     1
281
     1
  3
ACAD_XREC_ROUNDTRIP
360
28E
  0
DICTIONARY
  5
286
330
201
100
AcDbDictionary
280
     1
281
     1
  3
ACAD_ROUNDTRIP_2008_TABLESTYLE_CELLSTYLEMAP
360
287
  3
ACAD_XREC_ROUNDTRIP
360
28F
  0
XRECORD
  5
28C
102
{ACAD_REACTORS
330
28B
102
}
330
28B
100
AcDbXrecord
280
     1
102
MATERIAL
148
0.0
149
0.0
149
0.0
 93
        0
 94
       63
282
     0
 72
     1
 77
     1
171
     1
175
     1
179
     1
273
     0
  0
XRECORD
  5
28A
102
{ACAD_REACTORS
330
289
102
}
330
289
100
AcDbXrecord
280
     1
102
MATERIAL
148
0.0
149
0.0
149
0.0
 93
        0
 94
       63
282
     0
 72
     1
 77
     1
171
     1
175
     1
179
     1
273
     0
  0
XRECORD
  5
28E
102
{ACAD_REACTORS
330
28D
102
}
330
28D
100
AcDbXrecord
280
     1
102
MATERIAL
148
0.0
149
0.0
149
0.0
 93
        0
 94
       63
282
     0
 72
     1
 77
     1
171
     1
175
     1
179
     1
273
     0
  0
CELLSTYLEMAP
  5
287
102
{ACAD_REACTORS
330
286
102
}
330
286
100
AcDbCellStyleMap
 90
        3
300
CELLSTYLE
  1
TABLEFORMAT_BEGIN
 90
        5
170
     1
 91
        0
 92
    32768
 62
   257
 93
        1
300
CONTENTFORMAT
  1
CONTENTFORMAT_BEGIN
 90
        0
 91
        0
 92
      512
 93
        0
300

 40
0.0
140
1.0
 94
        5
 62
     0
340
17
144
0.25
309
CONTENTFORMAT_END
171
     0
 94
        6
 95
        1
302
GRIDFORMAT
  1
GRIDFORMAT_BEGIN
 90
        0
 91
        1
 62
     0
 92
       -2
340
0
 93
        0
 40
0.045
309
GRIDFORMAT_END
 95
        2
302
GRIDFORMAT
  1
GRIDFORMAT_BEGIN
 90
        0
 91
        1
 62
     0
 92
       -2
340
0
 93
        0
 40
0.045
309
GRIDFORMAT_END
 95
        4
302
GRIDFORMAT
  1
GRIDFORMAT_BEGIN
 90
        0
 91
        1
 62
     0
 92
       -2
340
0
 93
        0
 40
0.045
309
GRIDFORMAT_END
 95
        8
302
GRIDFORMAT
  1
GRIDFORMAT_BEGIN
 90
        0
 91
        1
 62
     0
 92
       -2
340
0
 93
        0
 40
0.045
309
GRIDFORMAT_END
 95
       16
302
GRIDFORMAT
  1
GRIDFORMAT_BEGIN
 90
        0
 91
        1
 62
     0
 92
       -2
340
0
 93
        0
 40
0.045
309
GRIDFORMAT_END
 95
       32
302
GRIDFORMAT
  1
GRIDFORMAT_BEGIN
 90
        0
 91
        1
 62
     0
 92
       -2
340
0
 93
        0
 40
0.045
309
GRIDFORMAT_END
309
TABLEFORMAT_END
  1
CELLSTYLE_BEGIN
 90
        1
 91
        1
300
_TITLE
309
CELLSTYLE_END
300
CELLSTYLE
  1
TABLEFORMAT_BEGIN
 90
        5
170
     1
 91
        0
 92
        0
 62
   257
 93
        1
300
CONTENTFORMAT
  1
CONTENTFORMAT_BEGIN
 90
        0
 91
        0
 92
      512
 93
        0
300

 40
0.0
140
1.0
 94
        5
 62
     0
340
17
144
0.18
309
CONTENTFORMAT_END
171
     0
 94
        6
 95
        1
302
GRIDFORMAT
  1
GRIDFORMAT_BEGIN
 90
        0
 91
        1
 62
     0
 92
       -2
340
0
 93
        0
 40
0.045
309
GRIDFORMAT_END
 95
        2
302
GRIDFORMAT
  1
GRIDFORMAT_BEGIN
 90
        0
 91
        1
 62
     0
 92
       -2
340
0
 93
        0
 40
0.045
309
GRIDFORMAT_END
 95
        4
302
GRIDFORMAT
  1
GRIDFORMAT_BEGIN
 90
        0
 91
        1
 62
     0
 92
       -2
340
0
 93
        0
 40
0.045
309
GRIDFORMAT_END
 95
        8
302
GRIDFORMAT
  1
GRIDFORMAT_BEGIN
 90
        0
 91
        1
 62
     0
 92
       -2
340
0
 93
        0
 40
0.045
309
GRIDFORMAT_END
 95
       16
302
GRIDFORMAT
  1
GRIDFORMAT_BEGIN
 90
        0
 91
        1
 62
     0
 92
       -2
340
0
 93
        0
 40
0.045
309
GRIDFORMAT_END
 95
       32
302
GRIDFORMAT
  1
GRIDFORMAT_BEGIN
 90
        0
 91
        1
 62
     0
 92
       -2
340
0
 93
        0
 40
0.045
309
GRIDFORMAT_END
309
TABLEFORMAT_END
  1
CELLSTYLE_BEGIN
 90
        2
 91
        1
300
_HEADER
309
CELLSTYLE_END
300
CELLSTYLE
  1
TABLEFORMAT_BEGIN
 90
        5
170
     1
 91
        0
 92
        0
 62
   257
 93
        1
300
CONTENTFORMAT
  1
CONTENTFORMAT_BEGIN
 90
        0
 91
        0
 92
      512
 93
        0
300

 40
0.0
140
1.0
 94
        2
 62
     0
340
17
144
0.18
309
CONTENTFORMAT_END
171
     0
 94
        6
 95
        1
302
GRIDFORMAT
  1
GRIDFORMAT_BEGIN
 90
        0
 91
        1
 62
     0
 92
       -2
340
0
 93
        0
 40
0.045
309
GRIDFORMAT_END
 95
        2
302
GRIDFORMAT
  1
GRIDFORMAT_BEGIN
 90
        0
 91
        1
 62
     0
 92
       -2
340
0
 93
        0
 40
0.045
309
GRIDFORMAT_END
 95
        4
302
GRIDFORMAT
  1
GRIDFORMAT_BEGIN
 90
        0
 91
        1
 62
     0
 92
       -2
340
0
 93
        0
 40
0.045
309
GRIDFORMAT_END
 95
        8
302
GRIDFORMAT
  1
GRIDFORMAT_BEGIN
 90
        0
 91
        1
 62
     0
 92
       -2
340
0
 93
        0
 40
0.045
309
GRIDFORMAT_END
 95
       16
302
GRIDFORMAT
  1
GRIDFORMAT_BEGIN
 90
        0
 91
        1
 62
     0
 92
       -2
340
0
 93
        0
 40
0.045
309
GRIDFORMAT_END
 95
       32
302
GRIDFORMAT
  1
GRIDFORMAT_BEGIN
 90
        0
 91
        1
 62
     0
 92
       -2
340
0
 93
        0
 40
0.045
309
GRIDFORMAT_END
309
TABLEFORMAT_END
  1
CELLSTYLE_BEGIN
 90
        3
 91
        2
300
_DATA
309
CELLSTYLE_END
  0
XRECORD
  5
28F
102
{ACAD_REACTORS
330
286
102
}
330
286
100
AcDbXrecord
280
     1
102
ACAD_ROUNDTRIP_PRE2007_TABLESTYLE
 90
      512
 91
        0
  1

 92
      512
 93
        0
  2

 94
      512
 95
        0
  3

  0
ENDSEC
  0
EOF
