  0
SECTION
  2
HEADER
  9
$ACADVER
  1
AC1018
  9
$ACADMAINTVER
 70
   104
  9
$DWGCODEPAGE
  3
ANSI_1252
  9
$LASTSAVEDBY
  1
EARL
  9
$INSBASE
 10
0.0
 20
0.0
 30
0.0
  9
$EXTMIN
 10
0.0
 20
-0.4771881997155001
 30
0.0
  9
$EXTMAX
 10
11.36485689132585
 20
2.625
 30
0.0
  9
$LIMMIN
 10
0.0
 20
0.0
  9
$LIMMAX
 10
0.0
 20
0.0
  9
$ORTHOMODE
 70
     1
  9
$REGENMODE
 70
     1
  9
$FILLMODE
 70
     1
  9
$QTEXTMODE
 70
     0
  9
$MIRRTEXT
 70
     1
  9
$LTSCALE
 40
1.0
  9
$ATTMODE
 70
     1
  9
$TEXTSIZE
 40
0.0
  9
$TRACEWID
 40
0.05
  9
$TEXTSTYLE
  7
Standard
  9
$CLAYER
  8
0
  9
$CELTYPE
  6
Continuous
  9
$CECOLOR
 62
   256
  9
$CELTSCALE
 40
1.0
  9
$DISPSILH
 70
     0
  9
$DIMSCALE
 40
1.0
  9
$DIMASZ
 40
0.18
  9
$DIMEXO
 40
0.0625
  9
$DIMDLI
 40
0.38
  9
$DIMRND
 40
0.0
  9
$DIMDLE
 40
0.0
  9
$DIMEXE
 40
0.18
  9
$DIMTP
 40
0.0
  9
$DIMTM
 40
0.0
  9
$DIMTXT
 40
0.18
  9
$DIMCEN
 40
0.09
  9
$DIMTSZ
 40
0.0
  9
$DIMTOL
 70
     0
  9
$DIMLIM
 70
     0
  9
$DIMTIH
 70
     1
  9
$DIMTOH
 70
     1
  9
$DIMSE1
 70
     0
  9
$DIMSE2
 70
     0
  9
$DIMTAD
 70
     0
  9
$DIMZIN
 70
     0
  9
$DIMBLK
  1

  9
$DIMASO
 70
     1
  9
$DIMSHO
 70
     1
  9
$DIMPOST
  1

  9
$DIMAPOST
  1

  9
$DIMALT
 70
     0
  9
$DIMALTD
 70
     2
  9
$DIMALTF
 40
25.4
  9
$DIMLFAC
 40
1.0
  9
$DIMTOFL
 70
     0
  9
$DIMTVP
 40
0.0
  9
$DIMTIX
 70
     0
  9
$DIMSOXD
 70
     0
  9
$DIMSAH
 70
     0
  9
$DIMBLK1
  1

  9
$DIMBLK2
  1

  9
$DIMSTYLE
  2
Standard
  9
$DIMCLRD
 70
     0
  9
$DIMCLRE
 70
     0
  9
$DIMCLRT
 70
     0
  9
$DIMTFAC
 40
1.0
  9
$DIMGAP
 40
0.09
  9
$DIMJUST
 70
     0
  9
$DIMSD1
 70
     0
  9
$DIMSD2
 70
     0
  9
$DIMTOLJ
 70
     1
  9
$DIMTZIN
 70
     0
  9
$DIMALTZ
 70
     0
  9
$DIMALTTZ
 70
     0
  9
$DIMUPT
 70
     0
  9
$DIMDEC
 70
     4
  9
$DIMTDEC
 70
     4
  9
$DIMALTU
 70
     2
  9
$DIMALTTD
 70
     2
  9
$DIMTXSTY
  7
Standard
  9
$DIMAUNIT
 70
     0
  9
$DIMADEC
 70
     0
  9
$DIMALTRND
 40
0.0
  9
$DIMAZIN
 70
     0
  9
$DIMDSEP
 70
    46
  9
$DIMATFIT
 70
     0
  9
$DIMFRAC
 70
     0
  9
$DIMLDRBLK
  1

  9
$DIMLUNIT
 70
     2
  9
$DIMLWD
 70
    -2
  9
$DIMLWE
 70
    -2
  9
$DIMTMOVE
 70
     0
  9
$LUNITS
 70
     2
  9
$LUPREC
 70
     4
  9
$SKETCHINC
 40
0.1
  9
$FILLETRAD
 40
0.0
  9
$AUNITS
 70
     0
  9
$AUPREC
 70
     0
  9
$MENU
  1
acad
  9
$ELEVATION
 40
0.0
  9
$PELEVATION
 40
0.0
  9
$THICKNESS
 40
0.0
  9
$LIMCHECK
 70
     0
  9
$CHAMFERA
 40
0.0
  9
$CHAMFERB
 40
0.0
  9
$CHAMFERC
 40
0.0
  9
$CHAMFERD
 40
0.0
  9
$SKPOLY
 70
     0
  9
$TDCREATE
 40
2454511.172395833
  9
$TDUCREATE
 40
2454511.339062500
  9
$TDUPDATE
 40
2455105.506790359
  9
$TDUUPDATE
 40
2455105.673457026
  9
$TDINDWG
 40
0.0007948148
  9
$TDUSRTIMER
 40
0.0007948148
  9
$USRTIMER
 70
     1
  9
$ANGBASE
 50
0.0
  9
$ANGDIR
 70
     0
  9
$PDMODE
 70
     0
  9
$PDSIZE
 40
0.0
  9
$PLINEWID
 40
0.0
  9
$SPLFRAME
 70
     0
  9
$SPLINETYPE
 70
     6
  9
$SPLINESEGS
 70
     8
  9
$HANDSEED
  5
2F5
  9
$SURFTAB1
 70
     6
  9
$SURFTAB2
 70
     6
  9
$SURFTYPE
 70
     6
  9
$SURFU
 70
     6
  9
$SURFV
 70
     6
  9
$UCSBASE
  2

  9
$UCSNAME
  2

  9
$UCSORG
 10
0.0
 20
0.0
 30
0.0
  9
$UCSXDIR
 10
1.0
 20
0.0
 30
0.0
  9
$UCSYDIR
 10
0.0
 20
1.0
 30
0.0
  9
$UCSORTHOREF
  2

  9
$UCSORTHOVIEW
 70
     0
  9
$UCSORGTOP
 10
0.0
 20
0.0
 30
0.0
  9
$UCSORGBOTTOM
 10
0.0
 20
0.0
 30
0.0
  9
$UCSORGLEFT
 10
0.0
 20
0.0
 30
0.0
  9
$UCSORGRIGHT
 10
0.0
 20
0.0
 30
0.0
  9
$UCSORGFRONT
 10
0.0
 20
0.0
 30
0.0
  9
$UCSORGBACK
 10
0.0
 20
0.0
 30
0.0
  9
$PUCSBASE
  2

  9
$PUCSNAME
  2

  9
$PUCSORG
 10
0.0
 20
0.0
 30
0.0
  9
$PUCSXDIR
 10
1.0
 20
0.0
 30
0.0
  9
$PUCSYDIR
 10
0.0
 20
1.0
 30
0.0
  9
$PUCSORTHOREF
  2

  9
$PUCSORTHOVIEW
 70
     0
  9
$PUCSORGTOP
 10
0.0
 20
0.0
 30
0.0
  9
$PUCSORGBOTTOM
 10
0.0
 20
0.0
 30
0.0
  9
$PUCSORGLEFT
 10
0.0
 20
0.0
 30
0.0
  9
$PUCSORGRIGHT
 10
0.0
 20
0.0
 30
0.0
  9
$PUCSORGFRONT
 10
0.0
 20
0.0
 30
0.0
  9
$PUCSORGBACK
 10
0.0
 20
0.0
 30
0.0
  9
$USERI1
 70
     0
  9
$USERI2
 70
     0
  9
$USERI3
 70
     0
  9
$USERI4
 70
     0
  9
$USERI5
 70
     0
  9
$USERR1
 40
0.0
  9
$USERR2
 40
0.0
  9
$USERR3
 40
0.0
  9
$USERR4
 40
0.0
  9
$USERR5
 40
0.0
  9
$WORLDVIEW
 70
     1
  9
$SHADEDGE
 70
     3
  9
$SHADEDIF
 70
    70
  9
$TILEMODE
 70
     0
  9
$MAXACTVP
 70
    16
  9
$PINSBASE
 10
0.0
 20
0.0
 30
0.0
  9
$PLIMCHECK
 70
     0
  9
$PEXTMIN
 10
-0.0876841834915467
 20
0.0624098929691996
 30
-0.0015258207003583
  9
$PEXTMAX
 10
10.27264815540798
 20
8.050309685338589
 30
0.0000000349246037
  9
$PLIMMIN
 10
-0.3280945746555161
 20
-0.2818067443045545
  9
$PLIMMAX
 10
10.67190518504859
 20
8.218193015399554
  9
$UNITMODE
 70
     0
  9
$VISRETAIN
 70
     0
  9
$PLINEGEN
 70
     1
  9
$PSLTSCALE
 70
     0
  9
$TREEDEPTH
 70
  3020
  9
$CMLSTYLE
  2
Standard
  9
$CMLJUST
 70
     0
  9
$CMLSCALE
 40
1.0
  9
$PROXYGRAPHICS
 70
     0
  9
$MEASUREMENT
 70
     0
  9
$CELWEIGHT
370
     0
  9
$ENDCAPS
280
     0
  9
$JOINSTYLE
280
     0
  9
$LWDISPLAY
290
     0
  9
$INSUNITS
 70
     0
  9
$HYPERLINKBASE
  1

  9
$STYLESHEET
  1

  9
$XEDIT
290
     1
  9
$CEPSNTYPE
380
     0
  9
$PSTYLEMODE
290
     1
  9
$FINGERPRINTGUID
  2

  9
$VERSIONGUID
  2
{68FB3493-2CC7-46D2-823E-831A6AFFF562}
  9
$EXTNAMES
290
     1
  9
$PSVPSCALE
 40
0.0
  9
$OLESTARTUP
290
     0
  9
$SORTENTS
280
   127
  9
$INDEXCTL
280
     0
  9
$HIDETEXT
280
     0
  9
$XCLIPFRAME
290
     0
  9
$HALOGAP
280
     0
  9
$OBSCOLOR
 70
   257
  9
$OBSLTYPE
280
     0
  9
$INTERSECTIONDISPLAY
280
     0
  9
$INTERSECTIONCOLOR
 70
   257
  9
$DIMASSOC
280
     1
  9
$PROJECTNAME
  1

  0
ENDSEC
  0
SECTION
  2
CLASSES
  0
CLASS
  1
IMAGE
  2
AcDbRasterImage
  3
ISM
 90
     2175
 91
        0
280
     0
281
     1
  0
CLASS
  1
DICTIONARYVAR
  2
AcDbDictionaryVar
  3
ObjectDBX Classes
 90
        0
 91
        5
280
     0
281
     0
  0
CLASS
  1
RASTERVARIABLES
  2
AcDbRasterVariables
  3
ISM
 90
        0
 91
        0
280
     0
281
     0
  0
CLASS
  1
IMAGEDEF
  2
AcDbRasterImageDef
  3
ISM
 90
        0
 91
        0
280
     0
281
     0
  0
CLASS
  1
IMAGEDEF_REACTOR
  2
AcDbRasterImageDefReactor
  3
ISM
 90
        1
 91
        0
280
     0
281
     0
  0
CLASS
  1
IDBUFFER
  2
AcDbIdBuffer
  3
ObjectDBX Classes
 90
        0
 91
        0
280
     0
281
     0
  0
CLASS
  1
SPATIAL_FILTER
  2
AcDbSpatialFilter
  3
ObjectDBX Classes
 90
        0
 91
        0
280
     0
281
     0
  0
CLASS
  1
SORTENTSTABLE
  2
AcDbSortentsTable
  3
ObjectDBX Classes
 90
        0
 91
        1
280
     0
281
     0
  0
CLASS
  1
LAYER_INDEX
  2
AcDbLayerIndex
  3
ObjectDBX Classes
 90
        0
 91
        0
280
     0
281
     0
  0
CLASS
  1
SPATIAL_INDEX
  2
AcDbSpatialIndex
  3
ObjectDBX Classes
 90
        0
 91
        0
280
     0
281
     0
  0
CLASS
  1
OBJECT_PTR
  2
CAseDLPNTableRecord
  3
"ASE-LPNTableRecord"
 90
        1
 91
        0
280
     0
281
     0
  0
CLASS
  1
PLOTSETTINGS
  2
AcDbPlotSettings
  3
ObjectDBX Classes
 90
        0
 91
        0
280
     0
281
     0
  0
CLASS
  1
ACDBDICTIONARYWDFLT
  2
AcDbDictionaryWithDefault
  3
ObjectDBX Classes
 90
        0
 91
        1
280
     0
281
     0
  0
CLASS
  1
WIPEOUT
  2
AcDbWipeout
  3
"WipeOut|Product Desc: Object Enabler for WipeOut entity                        |Company: Autodesk, Inc.                        |WEB Address: www.autodesk.com"
 90
     2175
 91
        0
280
     0
281
     1
  0
CLASS
  1
WIPEOUTVARIABLES
  2
AcDbWipeoutVariables
  3
"WipeOut|Product Desc:     WipeOut Dbx Application|Company:          Autodesk, Inc.|WEB Address:      www.autodesk.com"
 90
        0
 91
        1
280
     0
281
     0
  0
CLASS
  1
RTEXT
  2
RText
  3
RText|AutoCAD Express Tool|expresstools@autodesk.com
 90
        0
 91
        0
280
     0
281
     1
  0
CLASS
  1
ARCALIGNEDTEXT
  2
AcDbArcAlignedText
  3
ATEXT|AutoCAD Express Tool|expresstools@autodesk.com
 90
        0
 91
        0
280
     0
281
     1
  0
CLASS
  1
TABLESTYLE
  2
AcDbTableStyle
  3
ObjectDBX Classes
 90
     4095
 91
        1
280
     0
281
     0
  0
CLASS
  1
MATERIAL
  2
AcDbMaterial
  3
ObjectDBX Classes
 90
     1153
 91
        3
280
     0
281
     0
  0
CLASS
  1
VISUALSTYLE
  2
AcDbVisualStyle
  3
ObjectDBX Classes
 90
     4095
 91
       16
280
     0
281
     0
  0
CLASS
  1
SCALE
  2
AcDbScale
  3
ObjectDBX Classes
 90
     1153
 91
       33
280
     0
281
     0
  0
CLASS
  1
MLEADERSTYLE
  2
AcDbMLeaderStyle
  3
ACDB_MLEADERSTYLE_CLASS
 90
     4095
 91
        1
280
     0
281
     0
  0
CLASS
  1
CELLSTYLEMAP
  2
AcDbCellStyleMap
  3
ObjectDBX Classes
 90
     1152
 91
        2
280
     0
281
     0
  0
ENDSEC
  0
SECTION
  2
TABLES
  0
TABLE
  2
VPORT
  5
7
330
0
100
AcDbSymbolTable
 70
     1
  0
VPORT
  5
26B
330
7
100
AcDbSymbolTableRecord
100
AcDbViewportTableRecord
  2
*Active
 70
     0
 10
0.0
 20
0.0
 11
1.0
 21
1.0
 12
5.603244195196834
 22
0.8827284641644617
 13
0.0
 23
0.0
 14
1.0
 24
1.0
 15
0.0
 25
0.0
 16
0.0
 26
0.0
 36
1.0
 17
0.0
 27
0.0
 37
0.0
 40
9.291472284123948
 41
1.889980353634577
 42
50.0
 43
0.0
 44
0.0
 50
0.0
 51
0.0
 71
     0
 72
   100
 73
     1
 74
     1
 75
     0
 76
     0
 77
     0
 78
     0
281
     0
 65
     0
110
0.0
120
0.0
130
0.0
111
1.0
121
0.0
131
0.0
112
0.0
122
1.0
132
0.0
 79
     0
146
0.0
  0
ENDTAB
  0
TABLE
  2
LTYPE
  5
4
330
0
100
AcDbSymbolTable
 70
     4
  0
LTYPE
  5
11
330
4
100
AcDbSymbolTableRecord
100
AcDbLinetypeTableRecord
  2
ByBlock
 70
     0
  3

 72
    65
 73
     0
 40
0.0
  0
LTYPE
  5
12
330
4
100
AcDbSymbolTableRecord
100
AcDbLinetypeTableRecord
  2
ByLayer
 70
     0
  3

 72
    65
 73
     0
 40
0.0
  0
LTYPE
  5
13
330
4
100
AcDbSymbolTableRecord
100
AcDbLinetypeTableRecord
  2
Continuous
 70
     0
  3
Solid line
 72
    65
 73
     0
 40
0.0
  0
LTYPE
  5
24
330
4
100
AcDbSymbolTableRecord
100
AcDbLinetypeTableRecord
  2
solid
 70
     0
  3

 72
    65
 73
     0
 40
0.0
  0
LTYPE
  5
25
330
4
100
AcDbSymbolTableRecord
100
AcDbLinetypeTableRecord
  2
dashed
 70
     0
  3

 72
    65
 73
     0
 40
0.0
  0
LTYPE
  5
26
330
4
100
AcDbSymbolTableRecord
100
AcDbLinetypeTableRecord
  2
center
 70
     0
  3

 72
    65
 73
     0
 40
0.0
  0
ENDTAB
  0
TABLE
  2
LAYER
  5
2
330
0
100
AcDbSymbolTable
 70
     2
  0
LAYER
  5
14
102
{ACAD_XDICTIONARY
360
2CA
102
}
330
2
100
AcDbSymbolTableRecord
100
AcDbLayerTableRecord
  2
0
 70
     0
 62
     7
  6
Continuous
370
    -3
390
1D
  0
LAYER
  5
27
102
{ACAD_XDICTIONARY
360
2CC
102
}
330
2
100
AcDbSymbolTableRecord
100
AcDbLayerTableRecord
  2
1
 70
     0
 62
     1
  6
solid
370
    -3
390
1D
  0
ENDTAB
  0
TABLE
  2
STYLE
  5
3
330
0
100
AcDbSymbolTable
 70
     2
  0
STYLE
  5
17
330
3
100
AcDbSymbolTableRecord
100
AcDbTextStyleTableRecord
  2
Standard
 70
     0
 40
0.0
 41
1.0
 50
0.0
 71
     0
 42
0.0
  3
txt
  4

  0
ENDTAB
  0
TABLE
  2
VIEW
  5
5
330
0
100
AcDbSymbolTable
 70
     0
  0
ENDTAB
  0
TABLE
  2
UCS
  5
6
330
0
100
AcDbSymbolTable
 70
     0
  0
ENDTAB
  0
TABLE
  2
APPID
  5
8
330
0
100
AcDbSymbolTable
 70
     3
  0
APPID
  5
16
330
8
100
AcDbSymbolTableRecord
100
AcDbRegAppTableRecord
  2
ACAD
 70
     0
  0
APPID
  5
2BC
330
8
100
AcDbSymbolTableRecord
100
AcDbRegAppTableRecord
  2
ACAD_MLEADERVER
 70
     0
  0
APPID
  5
2C5
330
8
100
AcDbSymbolTableRecord
100
AcDbRegAppTableRecord
  2
ACAD_PSEXT
 70
     0
  0
ENDTAB
  0
TABLE
  2
DIMSTYLE
  5
9
330
0
100
AcDbSymbolTable
 70
     2
100
AcDbDimStyleTable
 71
     1
340
18
  0
DIMSTYLE
105
18
330
9
100
AcDbSymbolTableRecord
100
AcDbDimStyleTableRecord
  2
Standard
 70
     0
289
     0
340
17
  0
ENDTAB
  0
TABLE
  2
BLOCK_RECORD
  5
1
330
0
100
AcDbSymbolTable
 70
     2
  0
BLOCK_RECORD
  5
A
102
{ACAD_XDICTIONARY
360
2DD
102
}
330
1
100
AcDbSymbolTableRecord
100
AcDbBlockTableRecord
  2
*MODEL_SPACE
340
20
  0
BLOCK_RECORD
  5
B
330
1
100
AcDbSymbolTableRecord
100
AcDbBlockTableRecord
  2
*PAPER_SPACE
340
21
  0
BLOCK_RECORD
  5
32
330
1
100
AcDbSymbolTableRecord
100
AcDbBlockTableRecord
  2
*D0
340
0
  0
ENDTAB
  0
ENDSEC
  0
SECTION
  2
BLOCKS
  0
BLOCK
  5
D
330
A
100
AcDbEntity
  8
0
100
AcDbBlockBegin
  2
*MODEL_SPACE
 70
     0
 10
0.0
 20
0.0
 30
0.0
  3
*MODEL_SPACE
  1

  0
ENDBLK
  5
E
330
A
100
AcDbEntity
  8
0
100
AcDbBlockEnd
  0
BLOCK
  5
F
330
B
100
AcDbEntity
 67
     1
  8
0
100
AcDbBlockBegin
  2
*PAPER_SPACE
 70
     0
 10
0.0
 20
0.0
 30
0.0
  3
*PAPER_SPACE
  1

  0
ENDBLK
  5
10
330
B
100
AcDbEntity
 67
     1
  8
0
100
AcDbBlockEnd
  0
BLOCK
  5
33
330
32
100
AcDbEntity
  8
1
  6
solid
 62
     0
100
AcDbBlockBegin
  2
*D0
 70
     0
 10
0.0
 20
0.0
 30
0.0
  3
*D0
  1

  0
LINE
  5
34
330
32
100
AcDbEntity
  8
1
  6
solid
 62
     0
100
AcDbLine
 10
10.28313446044922
 20
0.0
 30
0.0
 11
10.76134914441342
 21
0.0
 31
0.0
  0
LINE
  5
35
330
32
100
AcDbEntity
  8
1
  6
solid
 62
     0
100
AcDbLine
 10
10.28313446044922
 20
2.625
 30
0.0
 11
10.76134914441343
 21
2.625
 31
0.0
  0
LINE
  5
36
330
32
100
AcDbEntity
  8
1
  6
solid
 62
     0
100
AcDbLine
 10
10.63634914441342
 20
0.0
 30
0.0
 11
10.63634914441343
 21
1.052687499999999
 31
0.0
  0
LINE
  5
37
330
32
100
AcDbEntity
  8
1
  6
solid
 62
     0
100
AcDbLine
 10
10.63634914441343
 20
2.625
 30
0.0
 11
10.63634914441343
 21
1.5723125
 31
0.0
  0
MTEXT
  5
38
330
32
100
AcDbEntity
  8
1
  6
solid
 62
     0
100
AcDbMText
 10
10.63634914441343
 20
1.3125
 30
0.0
 40
0.25
 41
0.0
 71
     5
 72
     1
  1
{\H0.250000;2 5/8}
 73
     1
 44
1.0
  0
SOLID
  5
39
330
32
100
AcDbEntity
  8
1
  6
solid
 62
     0
100
AcDbTrace
 10
10.59472414441342
 20
0.25
 30
0.0
 11
10.67797414441342
 21
0.25
 31
0.0
 12
10.63634914441342
 22
0.0
 32
0.0
 13
10.63634914441342
 23
0.0
 33
0.0
  0
SOLID
  5
3A
330
32
100
AcDbEntity
  8
1
  6
solid
 62
     0
100
AcDbTrace
 10
10.67797414441343
 20
2.374999999999999
 30
0.0
 11
10.59472414441342
 21
2.375
 31
0.0
 12
10.63634914441343
 22
2.625
 32
0.0
 13
10.63634914441343
 23
2.625
 33
0.0
  0
ENDBLK
  5
3B
330
32
100
AcDbEntity
  8
1
  6
solid
 62
     0
100
AcDbBlockEnd
  0
ENDSEC
  0
SECTION
  2
ENTITIES
  0
ARC
  5
28
330
A
100
AcDbEntity
  8
1
  6
solid
 62
     0
100
AcDbCircle
 10
5.016567051350992
 20
2.507097413960517
 30
0.0
 40
2.448452852833475
100
AcDbArc
 50
215.651684737278
 51
324.348315263155
  0
LINE
  5
29
330
A
100
AcDbEntity
  8
1
  6
solid
 62
     0
100
AcDbLine
 10
3.027014642953872
 20
1.080001473426818
 30
0.0
 11
2.518147808741896
 21
0.6659034162115472
 31
0.0
  0
LINE
  5
2A
330
A
100
AcDbEntity
  8
1
  6
solid
 62
     0
100
AcDbLine
 10
2.518147855997085
 20
0.6659034490585328
 30
0.0
 11
1.989552661541602
 21
1.02135685901066
 31
0.0
  0
LINE
  5
2B
330
A
100
AcDbEntity
  8
1
  6
solid
 62
     0
100
AcDbLine
 10
7.006119400262832
 20
1.080001473426818
 30
0.0
 11
7.514986234474808
 21
0.6659034162115472
 31
0.0
  0
LINE
  5
2C
330
A
100
AcDbEntity
  8
1
  6
solid
 62
     0
100
AcDbLine
 10
7.514986187219619
 20
0.6659034490585328
 30
0.0
 11
8.043581381675103
 21
1.02135685901066
 31
0.0
  0
ARC
  5
2D
330
A
100
AcDbEntity
  8
1
  6
solid
 62
     0
100
AcDbCircle
 10
10.03313398367174
 20
2.448452880803169
 30
0.0
 40
2.448452852833475
100
AcDbArc
 50
215.651684736845
 51
270.0000111558272
  0
ARC
  5
2E
330
A
100
AcDbEntity
  8
1
  6
solid
 62
     0
100
AcDbCircle
 10
0.000000000059682
 20
2.448452880803169
 30
0.0
 40
2.448452852833475
100
AcDbArc
 50
269.9999999986034
 51
324.348315262722
  0
LINE
  5
2F
330
A
100
AcDbEntity
  8
1
  6
solid
 62
     0
100
AcDbLine
 10
0.0
 20
0.0
 30
0.0
 11
0.0
 21
2.625
 31
0.0
  0
LINE
  5
30
330
A
100
AcDbEntity
  8
1
  6
solid
 62
     0
100
AcDbLine
 10
10.0331344604
 20
0.0
 30
0.0
 11
10.0331344604
 21
2.625
 31
0.0
  0
LINE
  5
31
330
A
100
AcDbEntity
  8
1
  6
solid
 62
     0
100
AcDbLine
 10
0.0
 20
2.625
 30
0.0
 11
10.03313446044922
 21
2.625
 31
0.0
  0
LINE
  5
3D
330
A
100
AcDbEntity
  8
1
  6
solid
 62
     0
100
AcDbLine
 10
3.516782306611829
 20
-0.4771881997155001
 30
0.0
 11
3.516782306611829
 21
-0.444736276638577
 31
0.0
  0
LINE
  5
3E
330
A
100
AcDbEntity
  8
1
  6
solid
 62
     0
100
AcDbLine
 10
3.516782306611829
 20
-0.444736276638577
 30
0.0
 11
3.543743090925554
 21
-0.444736276638577
 31
0.0
  0
LINE
  5
3F
330
A
100
AcDbEntity
  8
1
  6
solid
 62
     0
100
AcDbLine
 10
3.543743090925554
 20
-0.444736276638577
 30
0.0
 11
3.543743090925554
 21
-0.2596401227924232
 31
0.0
  0
LINE
  5
40
330
A
100
AcDbEntity
  8
1
  6
solid
 62
     0
100
AcDbLine
 10
3.543743090925554
 20
-0.2596401227924232
 30
0.0
 11
3.515311718376535
 21
-0.2596401227924232
 31
0.0
  0
LINE
  5
41
330
A
100
AcDbEntity
  8
1
  6
solid
 62
     0
100
AcDbLine
 10
3.515311718376535
 20
-0.2596401227924232
 30
0.0
 11
3.515311718376535
 21
-0.2271881997155001
 31
0.0
  0
LINE
  5
42
330
A
100
AcDbEntity
  8
1
  6
solid
 62
     0
100
AcDbLine
 10
3.515311718376535
 20
-0.2271881997155001
 30
0.0
 11
3.579037208572613
 21
-0.2271881997155001
 31
0.0
  0
LINE
  5
43
330
A
100
AcDbEntity
  8
1
  6
solid
 62
     0
100
AcDbLine
 10
3.579037208572613
 20
-0.2271881997155001
 30
0.0
 11
3.579037208572613
 21
-0.444736276638577
 31
0.0
  0
LINE
  5
44
330
A
100
AcDbEntity
  8
1
  6
solid
 62
     0
100
AcDbLine
 10
3.579037208572613
 20
-0.444736276638577
 30
0.0
 11
3.608939169356927
 21
-0.444736276638577
 31
0.0
  0
LINE
  5
45
330
A
100
AcDbEntity
  8
1
  6
solid
 62
     0
100
AcDbLine
 10
3.608939169356927
 20
-0.444736276638577
 30
0.0
 11
3.608939169356927
 21
-0.4771881997155001
 31
0.0
  0
LINE
  5
46
330
A
100
AcDbEntity
  8
1
  6
solid
 62
     0
100
AcDbLine
 10
3.608939169356927
 20
-0.4771881997155001
 30
0.0
 11
3.516782306611829
 21
-0.4771881997155001
 31
0.0
  0
LINE
  5
47
330
A
100
AcDbEntity
  8
1
  6
solid
 62
     0
100
AcDbLine
 10
3.774625443866731
 20
-0.2271881997155001
 30
0.0
 11
3.668743090925554
 21
-0.4771881997155001
 31
0.0
  0
LINE
  5
48
330
A
100
AcDbEntity
  8
1
  6
solid
 62
     0
100
AcDbLine
 10
3.668743090925554
 20
-0.4771881997155001
 30
0.0
 11
3.649625443866731
 21
-0.4771881997155001
 31
0.0
  0
LINE
  5
49
330
A
100
AcDbEntity
  8
1
  6
solid
 62
     0
100
AcDbLine
 10
3.649625443866731
 20
-0.4771881997155001
 30
0.0
 11
3.755507796807907
 21
-0.2271881997155001
 31
0.0
  0
LINE
  5
4A
330
A
100
AcDbEntity
  8
1
  6
solid
 62
     0
100
AcDbLine
 10
3.755507796807907
 20
-0.2271881997155001
 30
0.0
 11
3.774625443866731
 21
-0.2271881997155001
 31
0.0
  0
LINE
  5
4B
330
A
100
AcDbEntity
  8
1
  6
solid
 62
     0
100
AcDbLine
 10
3.855997992886339
 20
-0.4771881997155001
 30
0.0
 11
3.855997992886339
 21
-0.444736276638577
 31
0.0
  0
LINE
  5
4C
330
A
100
AcDbEntity
  8
1
  6
solid
 62
     0
100
AcDbLine
 10
3.855997992886339
 20
-0.444736276638577
 30
0.0
 11
3.877076424258888
 21
-0.444736276638577
 31
0.0
  0
LINE
  5
4D
330
A
100
AcDbEntity
  8
1
  6
solid
 62
     0
100
AcDbLine
 10
3.877076424258888
 20
-0.444736276638577
 30
0.0
 11
3.877076424258888
 21
-0.4158901227924232
 31
0.0
  0
LINE
  5
4E
330
A
100
AcDbEntity
  8
1
  6
solid
 62
     0
100
AcDbLine
 10
3.877076424258888
 20
-0.4158901227924232
 30
0.0
 11
3.799625443866731
 21
-0.4158901227924232
 31
0.0
  0
LINE
  5
4F
330
A
100
AcDbEntity
  8
1
  6
solid
 62
     0
100
AcDbLine
 10
3.799625443866731
 20
-0.4158901227924232
 30
0.0
 11
3.799625443866731
 21
-0.3846401227924232
 31
0.0
  0
LINE
  5
50
330
A
100
AcDbEntity
  8
1
  6
solid
 62
     0
100
AcDbLine
 10
3.799625443866731
 20
-0.3846401227924232
 30
0.0
 11
3.877076424258888
 21
-0.2271881997155001
 31
0.0
  0
LINE
  5
51
330
A
100
AcDbEntity
  8
1
  6
solid
 62
     0
100
AcDbLine
 10
3.877076424258888
 20
-0.2271881997155001
 30
0.0
 11
3.902566620337319
 21
-0.2271881997155001
 31
0.0
  0
LINE
  5
52
330
A
100
AcDbEntity
  8
1
  6
solid
 62
     0
100
AcDbLine
 10
3.902566620337319
 20
-0.2271881997155001
 30
0.0
 11
3.902566620337319
 21
-0.3834381997155001
 31
0.0
  0
LINE
  5
53
330
A
100
AcDbEntity
  8
1
  6
solid
 62
     0
100
AcDbLine
 10
3.902566620337319
 20
-0.3834381997155001
 30
0.0
 11
3.924625443866731
 21
-0.3834381997155001
 31
0.0
  0
LINE
  5
54
330
A
100
AcDbEntity
  8
1
  6
solid
 62
     0
100
AcDbLine
 10
3.924625443866731
 20
-0.3834381997155001
 30
0.0
 11
3.924625443866731
 21
-0.4158901227924232
 31
0.0
  0
LINE
  5
55
330
A
100
AcDbEntity
  8
1
  6
solid
 62
     0
100
AcDbLine
 10
3.924625443866731
 20
-0.4158901227924232
 30
0.0
 11
3.902566620337319
 21
-0.4158901227924232
 31
0.0
  0
LINE
  5
56
330
A
100
AcDbEntity
  8
1
  6
solid
 62
     0
100
AcDbLine
 10
3.902566620337319
 20
-0.4158901227924232
 30
0.0
 11
3.902566620337319
 21
-0.444736276638577
 31
0.0
  0
LINE
  5
57
330
A
100
AcDbEntity
  8
1
  6
solid
 62
     0
100
AcDbLine
 10
3.902566620337319
 20
-0.444736276638577
 30
0.0
 11
3.924625443866731
 21
-0.444736276638577
 31
0.0
  0
LINE
  5
58
330
A
100
AcDbEntity
  8
1
  6
solid
 62
     0
100
AcDbLine
 10
3.924625443866731
 20
-0.444736276638577
 30
0.0
 11
3.924625443866731
 21
-0.4771881997155001
 31
0.0
  0
LINE
  5
59
330
A
100
AcDbEntity
  8
1
  6
solid
 62
     0
100
AcDbLine
 10
3.924625443866731
 20
-0.4771881997155001
 30
0.0
 11
3.855997992886339
 21
-0.4771881997155001
 31
0.0
  0
LINE
  5
5A
330
A
100
AcDbEntity
  8
1
  6
solid
 62
     0
100
AcDbLine
 10
3.826586228180456
 20
-0.3834381997155001
 30
0.0
 11
3.877076424258888
 21
-0.2800728151001155
 31
0.0
  0
LINE
  5
5B
330
A
100
AcDbEntity
  8
1
  6
solid
 62
     0
100
AcDbLine
 10
3.877076424258888
 20
-0.2800728151001155
 30
0.0
 11
3.877076424258888
 21
-0.3834381997155001
 31
0.0
  0
LINE
  5
5C
330
A
100
AcDbEntity
  8
1
  6
solid
 62
     0
100
AcDbLine
 10
3.877076424258888
 20
-0.3834381997155001
 30
0.0
 11
3.826586228180456
 21
-0.3834381997155001
 31
0.0
  0
LINE
  5
5D
330
A
100
AcDbEntity
  8
1
  6
solid
 62
     0
100
AcDbLine
 10
4.101586228180456
 20
-0.2271881997155001
 30
0.0
 11
4.101586228180456
 21
-0.2596401227924232
 31
0.0
  0
LINE
  5
5E
330
A
100
AcDbEntity
  8
1
  6
solid
 62
     0
100
AcDbLine
 10
4.101586228180456
 20
-0.2596401227924232
 30
0.0
 11
4.119233287003986
 21
-0.2596401227924232
 31
0.0
  0
LINE
  5
5F
330
A
100
AcDbEntity
  8
1
  6
solid
 62
     0
100
AcDbLine
 10
4.119233287003986
 20
-0.2596401227924232
 30
0.0
 11
4.152076424258888
 21
-0.3497843535616539
 31
0.0
  0
LINE
  5
60
330
A
100
AcDbEntity
  8
1
  6
solid
 62
     0
100
AcDbLine
 10
4.152076424258888
 20
-0.3497843535616539
 30
0.0
 11
4.115801914454966
 21
-0.444736276638577
 31
0.0
  0
LINE
  5
61
330
A
100
AcDbEntity
  8
1
  6
solid
 62
     0
100
AcDbLine
 10
4.115801914454966
 20
-0.444736276638577
 30
0.0
 11
4.099625443866731
 21
-0.444736276638577
 31
0.0
  0
LINE
  5
62
330
A
100
AcDbEntity
  8
1
  6
solid
 62
     0
100
AcDbLine
 10
4.099625443866731
 20
-0.444736276638577
 30
0.0
 11
4.099625443866731
 21
-0.4771881997155001
 31
0.0
  0
LINE
  5
63
330
A
100
AcDbEntity
  8
1
  6
solid
 62
     0
100
AcDbLine
 10
4.099625443866731
 20
-0.4771881997155001
 30
0.0
 11
4.152076424258888
 21
-0.4771881997155001
 31
0.0
  0
LINE
  5
64
330
A
100
AcDbEntity
  8
1
  6
solid
 62
     0
100
AcDbLine
 10
4.152076424258888
 20
-0.4771881997155001
 30
0.0
 11
4.152076424258888
 21
-0.444736276638577
 31
0.0
  0
LINE
  5
65
330
A
100
AcDbEntity
  8
1
  6
solid
 62
     0
100
AcDbLine
 10
4.152076424258888
 20
-0.444736276638577
 30
0.0
 11
4.13835093406281
 21
-0.444736276638577
 31
0.0
  0
LINE
  5
66
330
A
100
AcDbEntity
  8
1
  6
solid
 62
     0
100
AcDbLine
 10
4.13835093406281
 20
-0.444736276638577
 30
0.0
 11
4.162370541905946
 21
-0.3786305074078078
 31
0.0
  0
LINE
  5
67
330
A
100
AcDbEntity
  8
1
  6
solid
 62
     0
100
AcDbLine
 10
4.162370541905946
 20
-0.3786305074078078
 30
0.0
 11
4.185899953670652
 21
-0.444736276638577
 31
0.0
  0
LINE
  5
68
330
A
100
AcDbEntity
  8
1
  6
solid
 62
     0
100
AcDbLine
 10
4.185899953670652
 20
-0.444736276638577
 30
0.0
 11
4.173154855631437
 21
-0.444736276638577
 31
0.0
  0
LINE
  5
69
330
A
100
AcDbEntity
  8
1
  6
solid
 62
     0
100
AcDbLine
 10
4.173154855631437
 20
-0.444736276638577
 30
0.0
 11
4.173154855631437
 21
-0.4771881997155001
 31
0.0
  0
LINE
  5
6A
330
A
100
AcDbEntity
  8
1
  6
solid
 62
     0
100
AcDbLine
 10
4.173154855631437
 20
-0.4771881997155001
 30
0.0
 11
4.224625443866731
 21
-0.4771881997155001
 31
0.0
  0
LINE
  5
6B
330
A
100
AcDbEntity
  8
1
  6
solid
 62
     0
100
AcDbLine
 10
4.224625443866731
 20
-0.4771881997155001
 30
0.0
 11
4.224625443866731
 21
-0.444736276638577
 31
0.0
  0
LINE
  5
6C
330
A
100
AcDbEntity
  8
1
  6
solid
 62
     0
100
AcDbLine
 10
4.224625443866731
 20
-0.444736276638577
 30
0.0
 11
4.208448973278495
 21
-0.444736276638577
 31
0.0
  0
LINE
  5
6D
330
A
100
AcDbEntity
  8
1
  6
solid
 62
     0
100
AcDbLine
 10
4.208448973278495
 20
-0.444736276638577
 30
0.0
 11
4.173154855631437
 21
-0.3497843535616539
 31
0.0
  0
LINE
  5
6E
330
A
100
AcDbEntity
  8
1
  6
solid
 62
     0
100
AcDbLine
 10
4.173154855631437
 20
-0.3497843535616539
 30
0.0
 11
4.205017600729476
 21
-0.2596401227924232
 31
0.0
  0
LINE
  5
6F
330
A
100
AcDbEntity
  8
1
  6
solid
 62
     0
100
AcDbLine
 10
4.205017600729476
 20
-0.2596401227924232
 30
0.0
 11
4.222664659553005
 21
-0.2596401227924232
 31
0.0
  0
LINE
  5
70
330
A
100
AcDbEntity
  8
1
  6
solid
 62
     0
100
AcDbLine
 10
4.222664659553005
 20
-0.2596401227924232
 30
0.0
 11
4.222664659553005
 21
-0.2271881997155001
 31
0.0
  0
LINE
  5
71
330
A
100
AcDbEntity
  8
1
  6
solid
 62
     0
100
AcDbLine
 10
4.222664659553005
 20
-0.2271881997155001
 30
0.0
 11
4.170213679160848
 21
-0.2271881997155001
 31
0.0
  0
LINE
  5
72
330
A
100
AcDbEntity
  8
1
  6
solid
 62
     0
100
AcDbLine
 10
4.170213679160848
 20
-0.2271881997155001
 30
0.0
 11
4.170213679160848
 21
-0.2596401227924232
 31
0.0
  0
LINE
  5
73
330
A
100
AcDbEntity
  8
1
  6
solid
 62
     0
100
AcDbLine
 10
4.170213679160848
 20
-0.2596401227924232
 30
0.0
 11
4.183448973278496
 21
-0.2596401227924232
 31
0.0
  0
LINE
  5
74
330
A
100
AcDbEntity
  8
1
  6
solid
 62
     0
100
AcDbLine
 10
4.183448973278496
 20
-0.2596401227924232
 30
0.0
 11
4.162370541905946
 21
-0.3185343535616539
 31
0.0
  0
LINE
  5
75
330
A
100
AcDbEntity
  8
1
  6
solid
 62
     0
100
AcDbLine
 10
4.162370541905946
 20
-0.3185343535616539
 30
0.0
 11
4.140801914454966
 21
-0.2596401227924232
 31
0.0
  0
LINE
  5
76
330
A
100
AcDbEntity
  8
1
  6
solid
 62
     0
100
AcDbLine
 10
4.140801914454966
 20
-0.2596401227924232
 30
0.0
 11
4.154037208572614
 21
-0.2596401227924232
 31
0.0
  0
LINE
  5
77
330
A
100
AcDbEntity
  8
1
  6
solid
 62
     0
100
AcDbLine
 10
4.154037208572614
 20
-0.2596401227924232
 30
0.0
 11
4.154037208572614
 21
-0.2271881997155001
 31
0.0
  0
LINE
  5
78
330
A
100
AcDbEntity
  8
1
  6
solid
 62
     0
100
AcDbLine
 10
4.154037208572614
 20
-0.2271881997155001
 30
0.0
 11
4.101586228180456
 21
-0.2271881997155001
 31
0.0
  0
LINE
  5
79
330
A
100
AcDbEntity
  8
1
  6
solid
 62
     0
100
AcDbLine
 10
4.405017600729476
 20
-0.4771881997155001
 30
0.0
 11
4.405017600729476
 21
-0.444736276638577
 31
0.0
  0
LINE
  5
7A
330
A
100
AcDbEntity
  8
1
  6
solid
 62
     0
100
AcDbLine
 10
4.405017600729476
 20
-0.444736276638577
 30
0.0
 11
4.480507796807907
 21
-0.3389670458693462
 31
0.0
  0
LINE
  5
7B
330
A
100
AcDbEntity
  8
1
  6
solid
 62
     0
100
AcDbLine
 10
4.480507796807907
 20
-0.3389670458693462
 30
0.0
 11
4.487370541905947
 21
-0.3269478151001155
 31
0.0
  0
LINE
  5
7C
330
A
100
AcDbEntity
  8
1
  6
solid
 62
     0
100
AcDbLine
 10
4.487370541905947
 20
-0.3269478151001155
 30
0.0
 11
4.490311718376535
 21
-0.319736276638577
 31
0.0
  0
LINE
  5
7D
330
A
100
AcDbEntity
  8
1
  6
solid
 62
     0
100
AcDbLine
 10
4.490311718376535
 20
-0.319736276638577
 30
0.0
 11
4.493252894847123
 21
-0.3065151227924232
 31
0.0
  0
LINE
  5
7E
330
A
100
AcDbEntity
  8
1
  6
solid
 62
     0
100
AcDbLine
 10
4.493252894847123
 20
-0.3065151227924232
 30
0.0
 11
4.493252894847123
 21
-0.2968997381770385
 31
0.0
  0
LINE
  5
7F
330
A
100
AcDbEntity
  8
1
  6
solid
 62
     0
100
AcDbLine
 10
4.493252894847123
 20
-0.2968997381770385
 30
0.0
 11
4.490311718376535
 21
-0.2860824304847308
 31
0.0
  0
LINE
  5
80
330
A
100
AcDbEntity
  8
1
  6
solid
 62
     0
100
AcDbLine
 10
4.490311718376535
 20
-0.2860824304847308
 30
0.0
 11
4.487370541905947
 21
-0.2764670458693462
 31
0.0
  0
LINE
  5
81
330
A
100
AcDbEntity
  8
1
  6
solid
 62
     0
100
AcDbLine
 10
4.487370541905947
 20
-0.2764670458693462
 30
0.0
 11
4.481978385043202
 21
-0.2692555074078078
 31
0.0
  0
LINE
  5
82
330
A
100
AcDbEntity
  8
1
  6
solid
 62
     0
100
AcDbLine
 10
4.481978385043202
 20
-0.2692555074078078
 30
0.0
 11
4.476586228180456
 21
-0.2644478151001155
 31
0.0
  0
LINE
  5
83
330
A
100
AcDbEntity
  8
1
  6
solid
 62
     0
100
AcDbLine
 10
4.476586228180456
 20
-0.2644478151001155
 30
0.0
 11
4.471194071317711
 21
-0.2608420458693462
 31
0.0
  0
LINE
  5
84
330
A
100
AcDbEntity
  8
1
  6
solid
 62
     0
100
AcDbLine
 10
4.471194071317711
 20
-0.2608420458693462
 30
0.0
 11
4.462860737984378
 21
-0.2572362766385769
 31
0.0
  0
LINE
  5
85
330
A
100
AcDbEntity
  8
1
  6
solid
 62
     0
100
AcDbLine
 10
4.462860737984378
 20
-0.2572362766385769
 30
0.0
 11
4.453056816415751
 21
-0.2572362766385769
 31
0.0
  0
LINE
  5
86
330
A
100
AcDbEntity
  8
1
  6
solid
 62
     0
100
AcDbLine
 10
4.453056816415751
 20
-0.2572362766385769
 30
0.0
 11
4.444723483082417
 21
-0.2608420458693462
 31
0.0
  0
LINE
  5
87
330
A
100
AcDbEntity
  8
1
  6
solid
 62
     0
100
AcDbLine
 10
4.444723483082417
 20
-0.2608420458693462
 30
0.0
 11
4.437860737984378
 21
-0.2656497381770385
 31
0.0
  0
LINE
  5
88
330
A
100
AcDbEntity
  8
1
  6
solid
 62
     0
100
AcDbLine
 10
4.437860737984378
 20
-0.2656497381770385
 30
0.0
 11
4.433939169356927
 21
-0.2716593535616539
 31
0.0
  0
LINE
  5
89
330
A
100
AcDbEntity
  8
1
  6
solid
 62
     0
100
AcDbLine
 10
4.433939169356927
 20
-0.2716593535616539
 30
0.0
 11
4.430017600729476
 21
-0.2764670458693462
 31
0.0
  0
LINE
  5
8A
330
A
100
AcDbEntity
  8
1
  6
solid
 62
     0
100
AcDbLine
 10
4.430017600729476
 20
-0.2764670458693462
 30
0.0
 11
4.425605836023594
 21
-0.2872843535616539
 31
0.0
  0
LINE
  5
8B
330
A
100
AcDbEntity
  8
1
  6
solid
 62
     0
100
AcDbLine
 10
4.425605836023594
 20
-0.2872843535616539
 30
0.0
 11
4.423154855631437
 21
-0.3029093535616539
 31
0.0
  0
LINE
  5
8C
330
A
100
AcDbEntity
  8
1
  6
solid
 62
     0
100
AcDbLine
 10
4.423154855631437
 20
-0.3029093535616539
 30
0.0
 11
4.399625443866731
 21
-0.3029093535616539
 31
0.0
  0
LINE
  5
8D
330
A
100
AcDbEntity
  8
1
  6
solid
 62
     0
100
AcDbLine
 10
4.399625443866731
 20
-0.3029093535616539
 30
0.0
 11
4.401096032102025
 21
-0.2872843535616539
 31
0.0
  0
LINE
  5
8E
330
A
100
AcDbEntity
  8
1
  6
solid
 62
     0
100
AcDbLine
 10
4.401096032102025
 20
-0.2872843535616539
 30
0.0
 11
4.405017600729476
 21
-0.2716593535616539
 31
0.0
  0
LINE
  5
8F
330
A
100
AcDbEntity
  8
1
  6
solid
 62
     0
100
AcDbLine
 10
4.405017600729476
 20
-0.2716593535616539
 30
0.0
 11
4.410409757592221
 21
-0.2596401227924232
 31
0.0
  0
LINE
  5
90
330
A
100
AcDbEntity
  8
1
  6
solid
 62
     0
100
AcDbLine
 10
4.410409757592221
 20
-0.2596401227924232
 30
0.0
 11
4.41727250269026
 21
-0.2488228151001155
 31
0.0
  0
LINE
  5
91
330
A
100
AcDbEntity
  8
1
  6
solid
 62
     0
100
AcDbLine
 10
4.41727250269026
 20
-0.2488228151001155
 30
0.0
 11
4.425605836023594
 21
-0.2392074304847308
 31
0.0
  0
LINE
  5
92
330
A
100
AcDbEntity
  8
1
  6
solid
 62
     0
100
AcDbLine
 10
4.425605836023594
 20
-0.2392074304847308
 30
0.0
 11
4.433939169356927
 21
-0.2343997381770385
 31
0.0
  0
LINE
  5
93
330
A
100
AcDbEntity
  8
1
  6
solid
 62
     0
100
AcDbLine
 10
4.433939169356927
 20
-0.2343997381770385
 30
0.0
 11
4.446194071317711
 21
-0.2283901227924232
 31
0.0
  0
LINE
  5
94
330
A
100
AcDbEntity
  8
1
  6
solid
 62
     0
100
AcDbLine
 10
4.446194071317711
 20
-0.2283901227924232
 30
0.0
 11
4.454527404651044
 21
-0.2271881997155001
 31
0.0
  0
LINE
  5
95
330
A
100
AcDbEntity
  8
1
  6
solid
 62
     0
100
AcDbLine
 10
4.454527404651044
 20
-0.2271881997155001
 30
0.0
 11
4.462860737984378
 21
-0.2271881997155001
 31
0.0
  0
LINE
  5
96
330
A
100
AcDbEntity
  8
1
  6
solid
 62
     0
100
AcDbLine
 10
4.462860737984378
 20
-0.2271881997155001
 30
0.0
 11
4.475115639945162
 21
-0.2307939689462693
 31
0.0
  0
LINE
  5
97
330
A
100
AcDbEntity
  8
1
  6
solid
 62
     0
100
AcDbLine
 10
4.475115639945162
 20
-0.2307939689462693
 30
0.0
 11
4.484919561513789
 21
-0.2356016612539616
 31
0.0
  0
LINE
  5
98
330
A
100
AcDbEntity
  8
1
  6
solid
 62
     0
100
AcDbLine
 10
4.484919561513789
 20
-0.2356016612539616
 30
0.0
 11
4.494233287003986
 21
-0.2428131997155001
 31
0.0
  0
LINE
  5
99
330
A
100
AcDbEntity
  8
1
  6
solid
 62
     0
100
AcDbLine
 10
4.494233287003986
 20
-0.2428131997155001
 30
0.0
 11
4.502566620337319
 21
-0.2536305074078078
 31
0.0
  0
LINE
  5
9A
330
A
100
AcDbEntity
  8
1
  6
solid
 62
     0
100
AcDbLine
 10
4.502566620337319
 20
-0.2536305074078078
 30
0.0
 11
4.509429365435359
 21
-0.2656497381770385
 31
0.0
  0
LINE
  5
9B
330
A
100
AcDbEntity
  8
1
  6
solid
 62
     0
100
AcDbLine
 10
4.509429365435359
 20
-0.2656497381770385
 30
0.0
 11
4.514821522298103
 21
-0.2824766612539617
 31
0.0
  0
LINE
  5
9C
330
A
100
AcDbEntity
  8
1
  6
solid
 62
     0
100
AcDbLine
 10
4.514821522298103
 20
-0.2824766612539617
 30
0.0
 11
4.517762698768692
 21
-0.2981016612539617
 31
0.0
  0
LINE
  5
9D
330
A
100
AcDbEntity
  8
1
  6
solid
 62
     0
100
AcDbLine
 10
4.517762698768692
 20
-0.2981016612539617
 30
0.0
 11
4.517762698768692
 21
-0.3101208920231924
 31
0.0
  0
LINE
  5
9E
330
A
100
AcDbEntity
  8
1
  6
solid
 62
     0
100
AcDbLine
 10
4.517762698768692
 20
-0.3101208920231924
 30
0.0
 11
4.514821522298103
 21
-0.3233420458693462
 31
0.0
  0
LINE
  5
9F
330
A
100
AcDbEntity
  8
1
  6
solid
 62
     0
100
AcDbLine
 10
4.514821522298103
 20
-0.3233420458693462
 30
0.0
 11
4.510899953670652
 21
-0.3353612766385769
 31
0.0
  0
LINE
  5
A0
330
A
100
AcDbEntity
  8
1
  6
solid
 62
     0
100
AcDbLine
 10
4.510899953670652
 20
-0.3353612766385769
 30
0.0
 11
4.505507796807908
 21
-0.3473805074078078
 31
0.0
  0
LINE
  5
A1
330
A
100
AcDbEntity
  8
1
  6
solid
 62
     0
100
AcDbLine
 10
4.505507796807908
 20
-0.3473805074078078
 30
0.0
 11
4.437860737984378
 21
-0.444736276638577
 31
0.0
  0
LINE
  5
A2
330
A
100
AcDbEntity
  8
1
  6
solid
 62
     0
100
AcDbLine
 10
4.437860737984378
 20
-0.444736276638577
 30
0.0
 11
4.500115639945162
 21
-0.444736276638577
 31
0.0
  0
LINE
  5
A3
330
A
100
AcDbEntity
  8
1
  6
solid
 62
     0
100
AcDbLine
 10
4.500115639945162
 20
-0.444736276638577
 30
0.0
 11
4.500115639945162
 21
-0.4014670458693463
 31
0.0
  0
LINE
  5
A4
330
A
100
AcDbEntity
  8
1
  6
solid
 62
     0
100
AcDbLine
 10
4.500115639945162
 20
-0.4014670458693463
 30
0.0
 11
4.524625443866731
 21
-0.4014670458693463
 31
0.0
  0
LINE
  5
A5
330
A
100
AcDbEntity
  8
1
  6
solid
 62
     0
100
AcDbLine
 10
4.524625443866731
 20
-0.4014670458693463
 30
0.0
 11
4.524625443866731
 21
-0.4771881997155001
 31
0.0
  0
LINE
  5
A6
330
A
100
AcDbEntity
  8
1
  6
solid
 62
     0
100
AcDbLine
 10
4.524625443866731
 20
-0.4771881997155001
 30
0.0
 11
4.405017600729476
 21
-0.4771881997155001
 31
0.0
  0
LINE
  5
A7
330
A
100
AcDbEntity
  8
1
  6
solid
 62
     0
100
AcDbLine
 10
4.549625443866731
 20
-0.4218997381770385
 30
0.0
 11
4.674625443866731
 21
-0.4218997381770385
 31
0.0
  0
LINE
  5
A8
330
A
100
AcDbEntity
  8
1
  6
solid
 62
     0
100
AcDbLine
 10
4.674625443866731
 20
-0.4218997381770385
 30
0.0
 11
4.674625443866731
 21
-0.3690151227924232
 31
0.0
  0
LINE
  5
A9
330
A
100
AcDbEntity
  8
1
  6
solid
 62
     0
100
AcDbLine
 10
4.674625443866731
 20
-0.3690151227924232
 30
0.0
 11
4.549625443866731
 21
-0.3690151227924232
 31
0.0
  0
LINE
  5
AA
330
A
100
AcDbEntity
  8
1
  6
solid
 62
     0
100
AcDbLine
 10
4.549625443866731
 20
-0.3690151227924232
 30
0.0
 11
4.549625443866731
 21
-0.4218997381770385
 31
0.0
  0
LINE
  5
AB
330
A
100
AcDbEntity
  8
1
  6
solid
 62
     0
100
AcDbLine
 10
4.699625443866731
 20
-0.4074766612539617
 30
0.0
 11
4.703547012494182
 21
-0.4243035843308847
 31
0.0
  0
LINE
  5
AC
330
A
100
AcDbEntity
  8
1
  6
solid
 62
     0
100
AcDbLine
 10
4.703547012494182
 20
-0.4243035843308847
 30
0.0
 11
4.70991956151379
 21
-0.4387266612539617
 31
0.0
  0
LINE
  5
AD
330
A
100
AcDbEntity
  8
1
  6
solid
 62
     0
100
AcDbLine
 10
4.70991956151379
 20
-0.4387266612539617
 30
0.0
 11
4.71727250269026
 21
-0.4507458920231925
 31
0.0
  0
LINE
  5
AE
330
A
100
AcDbEntity
  8
1
  6
solid
 62
     0
100
AcDbLine
 10
4.71727250269026
 20
-0.4507458920231925
 30
0.0
 11
4.725115639945162
 21
-0.4615631997155001
 31
0.0
  0
LINE
  5
AF
330
A
100
AcDbEntity
  8
1
  6
solid
 62
     0
100
AcDbLine
 10
4.725115639945162
 20
-0.4615631997155001
 30
0.0
 11
4.734919561513789
 21
-0.4687747381770386
 31
0.0
  0
LINE
  5
B0
330
A
100
AcDbEntity
  8
1
  6
solid
 62
     0
100
AcDbLine
 10
4.734919561513789
 20
-0.4687747381770386
 30
0.0
 11
4.746194071317711
 21
-0.4735824304847309
 31
0.0
  0
LINE
  5
B1
330
A
100
AcDbEntity
  8
1
  6
solid
 62
     0
100
AcDbLine
 10
4.746194071317711
 20
-0.4735824304847309
 30
0.0
 11
4.758939169356927
 21
-0.4771881997155001
 31
0.0
  0
LINE
  5
B2
330
A
100
AcDbEntity
  8
1
  6
solid
 62
     0
100
AcDbLine
 10
4.758939169356927
 20
-0.4771881997155001
 30
0.0
 11
4.766782306611829
 21
-0.4771881997155001
 31
0.0
  0
LINE
  5
B3
330
A
100
AcDbEntity
  8
1
  6
solid
 62
     0
100
AcDbLine
 10
4.766782306611829
 20
-0.4771881997155001
 30
0.0
 11
4.782958777200065
 21
-0.4723805074078078
 31
0.0
  0
LINE
  5
B4
330
A
100
AcDbEntity
  8
1
  6
solid
 62
     0
100
AcDbLine
 10
4.782958777200065
 20
-0.4723805074078078
 30
0.0
 11
4.795703875239279
 21
-0.4627651227924232
 31
0.0
  0
LINE
  5
B5
330
A
100
AcDbEntity
  8
1
  6
solid
 62
     0
100
AcDbLine
 10
4.795703875239279
 20
-0.4627651227924232
 30
0.0
 11
4.805507796807908
 21
-0.4519478151001155
 31
0.0
  0
LINE
  5
B6
330
A
100
AcDbEntity
  8
1
  6
solid
 62
     0
100
AcDbLine
 10
4.805507796807908
 20
-0.4519478151001155
 30
0.0
 11
4.814331326219672
 21
-0.4387266612539617
 31
0.0
  0
LINE
  5
B7
330
A
100
AcDbEntity
  8
1
  6
solid
 62
     0
100
AcDbLine
 10
4.814331326219672
 20
-0.4387266612539617
 30
0.0
 11
4.82070387523928
 21
-0.4206978151001155
 31
0.0
  0
LINE
  5
B8
330
A
100
AcDbEntity
  8
1
  6
solid
 62
     0
100
AcDbLine
 10
4.82070387523928
 20
-0.4206978151001155
 30
0.0
 11
4.823154855631437
 21
-0.4062747381770385
 31
0.0
  0
LINE
  5
B9
330
A
100
AcDbEntity
  8
1
  6
solid
 62
     0
100
AcDbLine
 10
4.823154855631437
 20
-0.4062747381770385
 30
0.0
 11
4.824625443866731
 21
-0.3942555074078078
 31
0.0
  0
LINE
  5
BA
330
A
100
AcDbEntity
  8
1
  6
solid
 62
     0
100
AcDbLine
 10
4.824625443866731
 20
-0.3942555074078078
 30
0.0
 11
4.824625443866731
 21
-0.3810343535616539
 31
0.0
  0
LINE
  5
BB
330
A
100
AcDbEntity
  8
1
  6
solid
 62
     0
100
AcDbLine
 10
4.824625443866731
 20
-0.3810343535616539
 30
0.0
 11
4.822174463474574
 21
-0.3606016612539617
 31
0.0
  0
LINE
  5
BC
330
A
100
AcDbEntity
  8
1
  6
solid
 62
     0
100
AcDbLine
 10
4.822174463474574
 20
-0.3606016612539617
 30
0.0
 11
4.815801914454966
 21
-0.3425728151001155
 31
0.0
  0
LINE
  5
BD
330
A
100
AcDbEntity
  8
1
  6
solid
 62
     0
100
AcDbLine
 10
4.815801914454966
 20
-0.3425728151001155
 30
0.0
 11
4.810899953670652
 21
-0.3317555074078078
 31
0.0
  0
LINE
  5
BE
330
A
100
AcDbEntity
  8
1
  6
solid
 62
     0
100
AcDbLine
 10
4.810899953670652
 20
-0.3317555074078078
 30
0.0
 11
4.80305681641575
 21
-0.3209381997155001
 31
0.0
  0
LINE
  5
BF
330
A
100
AcDbEntity
  8
1
  6
solid
 62
     0
100
AcDbLine
 10
4.80305681641575
 20
-0.3209381997155001
 30
0.0
 11
4.794233287003986
 21
-0.3125247381770385
 31
0.0
  0
LINE
  5
C0
330
A
100
AcDbEntity
  8
1
  6
solid
 62
     0
100
AcDbLine
 10
4.794233287003986
 20
-0.3125247381770385
 30
0.0
 11
4.785409757592221
 21
-0.3053131997155001
 31
0.0
  0
LINE
  5
C1
330
A
100
AcDbEntity
  8
1
  6
solid
 62
     0
100
AcDbLine
 10
4.785409757592221
 20
-0.3053131997155001
 30
0.0
 11
4.776586228180456
 21
-0.3017074304847308
 31
0.0
  0
LINE
  5
C2
330
A
100
AcDbEntity
  8
1
  6
solid
 62
     0
100
AcDbLine
 10
4.776586228180456
 20
-0.3017074304847308
 30
0.0
 11
4.763841130141241
 21
-0.2993035843308847
 31
0.0
  0
LINE
  5
C3
330
A
100
AcDbEntity
  8
1
  6
solid
 62
     0
100
AcDbLine
 10
4.763841130141241
 20
-0.2993035843308847
 30
0.0
 11
4.75648818896477
 21
-0.2993035843308847
 31
0.0
  0
LINE
  5
C4
330
A
100
AcDbEntity
  8
1
  6
solid
 62
     0
100
AcDbLine
 10
4.75648818896477
 20
-0.2993035843308847
 30
0.0
 11
4.746194071317711
 21
-0.3017074304847308
 31
0.0
  0
LINE
  5
C5
330
A
100
AcDbEntity
  8
1
  6
solid
 62
     0
100
AcDbLine
 10
4.746194071317711
 20
-0.3017074304847308
 30
0.0
 11
4.737370541905947
 21
-0.3053131997155001
 31
0.0
  0
LINE
  5
C6
330
A
100
AcDbEntity
  8
1
  6
solid
 62
     0
100
AcDbLine
 10
4.737370541905947
 20
-0.3053131997155001
 30
0.0
 11
4.732468581121633
 21
-0.3089189689462693
 31
0.0
  0
LINE
  5
C7
330
A
100
AcDbEntity
  8
1
  6
solid
 62
     0
100
AcDbLine
 10
4.732468581121633
 20
-0.3089189689462693
 30
0.0
 11
4.741292110533398
 21
-0.2572362766385769
 31
0.0
  0
LINE
  5
C8
330
A
100
AcDbEntity
  8
1
  6
solid
 62
     0
100
AcDbLine
 10
4.741292110533398
 20
-0.2572362766385769
 30
0.0
 11
4.80305681641575
 21
-0.2572362766385769
 31
0.0
  0
LINE
  5
C9
330
A
100
AcDbEntity
  8
1
  6
solid
 62
     0
100
AcDbLine
 10
4.80305681641575
 20
-0.2572362766385769
 30
0.0
 11
4.80305681641575
 21
-0.2271881997155001
 31
0.0
  0
LINE
  5
CA
330
A
100
AcDbEntity
  8
1
  6
solid
 62
     0
100
AcDbLine
 10
4.80305681641575
 20
-0.2271881997155001
 30
0.0
 11
4.725115639945162
 21
-0.2271881997155001
 31
0.0
  0
LINE
  5
CB
330
A
100
AcDbEntity
  8
1
  6
solid
 62
     0
100
AcDbLine
 10
4.725115639945162
 20
-0.2271881997155001
 30
0.0
 11
4.699625443866731
 21
-0.3678131997155001
 31
0.0
  0
LINE
  5
CC
330
A
100
AcDbEntity
  8
1
  6
solid
 62
     0
100
AcDbLine
 10
4.699625443866731
 20
-0.3678131997155001
 30
0.0
 11
4.721194071317711
 21
-0.3738228151001155
 31
0.0
  0
LINE
  5
CD
330
A
100
AcDbEntity
  8
1
  6
solid
 62
     0
100
AcDbLine
 10
4.721194071317711
 20
-0.3738228151001155
 30
0.0
 11
4.723645051709868
 21
-0.3642074304847308
 31
0.0
  0
LINE
  5
CE
330
A
100
AcDbEntity
  8
1
  6
solid
 62
     0
100
AcDbLine
 10
4.723645051709868
 20
-0.3642074304847308
 30
0.0
 11
4.727566620337319
 21
-0.3545920458693462
 31
0.0
  0
LINE
  5
CF
330
A
100
AcDbEntity
  8
1
  6
solid
 62
     0
100
AcDbLine
 10
4.727566620337319
 20
-0.3545920458693462
 30
0.0
 11
4.732468581121633
 21
-0.3461785843308847
 31
0.0
  0
LINE
  5
D0
330
A
100
AcDbEntity
  8
1
  6
solid
 62
     0
100
AcDbLine
 10
4.732468581121633
 20
-0.3461785843308847
 30
0.0
 11
4.73884113014124
 21
-0.3389670458693462
 31
0.0
  0
LINE
  5
D1
330
A
100
AcDbEntity
  8
1
  6
solid
 62
     0
100
AcDbLine
 10
4.73884113014124
 20
-0.3389670458693462
 30
0.0
 11
4.746194071317711
 21
-0.3341593535616539
 31
0.0
  0
LINE
  5
D2
330
A
100
AcDbEntity
  8
1
  6
solid
 62
     0
100
AcDbLine
 10
4.746194071317711
 20
-0.3341593535616539
 30
0.0
 11
4.755017600729476
 21
-0.3305535843308847
 31
0.0
  0
LINE
  5
D3
330
A
100
AcDbEntity
  8
1
  6
solid
 62
     0
100
AcDbLine
 10
4.755017600729476
 20
-0.3305535843308847
 30
0.0
 11
4.763841130141241
 21
-0.3305535843308847
 31
0.0
  0
LINE
  5
D4
330
A
100
AcDbEntity
  8
1
  6
solid
 62
     0
100
AcDbLine
 10
4.763841130141241
 20
-0.3305535843308847
 30
0.0
 11
4.774135247788299
 21
-0.3317555074078078
 31
0.0
  0
LINE
  5
D5
330
A
100
AcDbEntity
  8
1
  6
solid
 62
     0
100
AcDbLine
 10
4.774135247788299
 20
-0.3317555074078078
 30
0.0
 11
4.78148818896477
 21
-0.3365631997155001
 31
0.0
  0
LINE
  5
D6
330
A
100
AcDbEntity
  8
1
  6
solid
 62
     0
100
AcDbLine
 10
4.78148818896477
 20
-0.3365631997155001
 30
0.0
 11
4.787860737984377
 21
-0.3425728151001155
 31
0.0
  0
LINE
  5
D7
330
A
100
AcDbEntity
  8
1
  6
solid
 62
     0
100
AcDbLine
 10
4.787860737984377
 20
-0.3425728151001155
 30
0.0
 11
4.794233287003986
 21
-0.350986276638577
 31
0.0
  0
LINE
  5
D8
330
A
100
AcDbEntity
  8
1
  6
solid
 62
     0
100
AcDbLine
 10
4.794233287003986
 20
-0.350986276638577
 30
0.0
 11
4.799135247788299
 21
-0.3618035843308847
 31
0.0
  0
LINE
  5
D9
330
A
100
AcDbEntity
  8
1
  6
solid
 62
     0
100
AcDbLine
 10
4.799135247788299
 20
-0.3618035843308847
 30
0.0
 11
4.802076424258888
 21
-0.3726208920231924
 31
0.0
  0
LINE
  5
DA
330
A
100
AcDbEntity
  8
1
  6
solid
 62
     0
100
AcDbLine
 10
4.802076424258888
 20
-0.3726208920231924
 30
0.0
 11
4.80305681641575
 21
-0.3834381997155001
 31
0.0
  0
LINE
  5
DB
330
A
100
AcDbEntity
  8
1
  6
solid
 62
     0
100
AcDbLine
 10
4.80305681641575
 20
-0.3834381997155001
 30
0.0
 11
4.80305681641575
 21
-0.3918516612539617
 31
0.0
  0
LINE
  5
DC
330
A
100
AcDbEntity
  8
1
  6
solid
 62
     0
100
AcDbLine
 10
4.80305681641575
 20
-0.3918516612539617
 30
0.0
 11
4.800605836023594
 21
-0.4062747381770385
 31
0.0
  0
LINE
  5
DD
330
A
100
AcDbEntity
  8
1
  6
solid
 62
     0
100
AcDbLine
 10
4.800605836023594
 20
-0.4062747381770385
 30
0.0
 11
4.796684267396143
 21
-0.4182939689462694
 31
0.0
  0
LINE
  5
DE
330
A
100
AcDbEntity
  8
1
  6
solid
 62
     0
100
AcDbLine
 10
4.796684267396143
 20
-0.4182939689462694
 30
0.0
 11
4.790311718376535
 21
-0.429111276638577
 31
0.0
  0
LINE
  5
DF
330
A
100
AcDbEntity
  8
1
  6
solid
 62
     0
100
AcDbLine
 10
4.790311718376535
 20
-0.429111276638577
 30
0.0
 11
4.784429365435358
 21
-0.4363228151001155
 31
0.0
  0
LINE
  5
E0
330
A
100
AcDbEntity
  8
1
  6
solid
 62
     0
100
AcDbLine
 10
4.784429365435358
 20
-0.4363228151001155
 30
0.0
 11
4.776586228180456
 21
-0.4411305074078078
 31
0.0
  0
LINE
  5
E1
330
A
100
AcDbEntity
  8
1
  6
solid
 62
     0
100
AcDbLine
 10
4.776586228180456
 20
-0.4411305074078078
 30
0.0
 11
4.767762698768692
 21
-0.444736276638577
 31
0.0
  0
LINE
  5
E2
330
A
100
AcDbEntity
  8
1
  6
solid
 62
     0
100
AcDbLine
 10
4.767762698768692
 20
-0.444736276638577
 30
0.0
 11
4.758939169356927
 21
-0.444736276638577
 31
0.0
  0
LINE
  5
E3
330
A
100
AcDbEntity
  8
1
  6
solid
 62
     0
100
AcDbLine
 10
4.758939169356927
 20
-0.444736276638577
 30
0.0
 11
4.748645051709868
 21
-0.443534353561654
 31
0.0
  0
LINE
  5
E4
330
A
100
AcDbEntity
  8
1
  6
solid
 62
     0
100
AcDbLine
 10
4.748645051709868
 20
-0.443534353561654
 30
0.0
 11
4.73884113014124
 21
-0.4363228151001155
 31
0.0
  0
LINE
  5
E5
330
A
100
AcDbEntity
  8
1
  6
solid
 62
     0
100
AcDbLine
 10
4.73884113014124
 20
-0.4363228151001155
 30
0.0
 11
4.732468581121633
 21
-0.429111276638577
 31
0.0
  0
LINE
  5
E6
330
A
100
AcDbEntity
  8
1
  6
solid
 62
     0
100
AcDbLine
 10
4.732468581121633
 20
-0.429111276638577
 30
0.0
 11
4.726096032102025
 21
-0.4182939689462694
 31
0.0
  0
LINE
  5
E7
330
A
100
AcDbEntity
  8
1
  6
solid
 62
     0
100
AcDbLine
 10
4.726096032102025
 20
-0.4182939689462694
 30
0.0
 11
4.722174463474574
 21
-0.4074766612539617
 31
0.0
  0
LINE
  5
E8
330
A
100
AcDbEntity
  8
1
  6
solid
 62
     0
100
AcDbLine
 10
4.722174463474574
 20
-0.4074766612539617
 30
0.0
 11
4.699625443866731
 21
-0.4074766612539617
 31
0.0
  0
LINE
  5
E9
330
A
100
AcDbEntity
  8
1
  6
solid
 62
     0
100
AcDbLine
 10
4.974625443866731
 20
-0.2271881997155001
 30
0.0
 11
4.868743090925554
 21
-0.4771881997155001
 31
0.0
  0
LINE
  5
EA
330
A
100
AcDbEntity
  8
1
  6
solid
 62
     0
100
AcDbLine
 10
4.868743090925554
 20
-0.4771881997155001
 30
0.0
 11
4.849625443866731
 21
-0.4771881997155001
 31
0.0
  0
LINE
  5
EB
330
A
100
AcDbEntity
  8
1
  6
solid
 62
     0
100
AcDbLine
 10
4.849625443866731
 20
-0.4771881997155001
 30
0.0
 11
4.955507796807907
 21
-0.2271881997155001
 31
0.0
  0
LINE
  5
EC
330
A
100
AcDbEntity
  8
1
  6
solid
 62
     0
100
AcDbLine
 10
4.955507796807907
 20
-0.2271881997155001
 30
0.0
 11
4.974625443866731
 21
-0.2271881997155001
 31
0.0
  0
LINE
  5
ED
330
A
100
AcDbEntity
  8
1
  6
solid
 62
     0
100
AcDbLine
 10
5.029527404651044
 20
-0.3293516612539617
 30
0.0
 11
5.022664659553005
 21
-0.3365631997155001
 31
0.0
  0
LINE
  5
EE
330
A
100
AcDbEntity
  8
1
  6
solid
 62
     0
100
AcDbLine
 10
5.022664659553005
 20
-0.3365631997155001
 30
0.0
 11
5.015801914454966
 21
-0.3449766612539617
 31
0.0
  0
LINE
  5
EF
330
A
100
AcDbEntity
  8
1
  6
solid
 62
     0
100
AcDbLine
 10
5.015801914454966
 20
-0.3449766612539617
 30
0.0
 11
5.010409757592221
 21
-0.3533901227924232
 31
0.0
  0
LINE
  5
F0
330
A
100
AcDbEntity
  8
1
  6
solid
 62
     0
100
AcDbLine
 10
5.010409757592221
 20
-0.3533901227924232
 30
0.0
 11
5.00648818896477
 21
-0.3630055074078078
 31
0.0
  0
LINE
  5
F1
330
A
100
AcDbEntity
  8
1
  6
solid
 62
     0
100
AcDbLine
 10
5.00648818896477
 20
-0.3630055074078078
 30
0.0
 11
5.003547012494181
 21
-0.3714189689462693
 31
0.0
  0
LINE
  5
F2
330
A
100
AcDbEntity
  8
1
  6
solid
 62
     0
100
AcDbLine
 10
5.003547012494181
 20
-0.3714189689462693
 30
0.0
 11
5.001096032102025
 21
-0.3834381997155001
 31
0.0
  0
LINE
  5
F3
330
A
100
AcDbEntity
  8
1
  6
solid
 62
     0
100
AcDbLine
 10
5.001096032102025
 20
-0.3834381997155001
 30
0.0
 11
4.99962544386673
 21
-0.3918516612539617
 31
0.0
  0
LINE
  5
F4
330
A
100
AcDbEntity
  8
1
  6
solid
 62
     0
100
AcDbLine
 10
4.99962544386673
 20
-0.3918516612539617
 30
0.0
 11
4.99962544386673
 21
-0.397861276638577
 31
0.0
  0
LINE
  5
F5
330
A
100
AcDbEntity
  8
1
  6
solid
 62
     0
100
AcDbLine
 10
4.99962544386673
 20
-0.397861276638577
 30
0.0
 11
5.001096032102025
 21
-0.4074766612539617
 31
0.0
  0
LINE
  5
F6
330
A
100
AcDbEntity
  8
1
  6
solid
 62
     0
100
AcDbLine
 10
5.001096032102025
 20
-0.4074766612539617
 30
0.0
 11
5.002566620337319
 21
-0.4182939689462694
 31
0.0
  0
LINE
  5
F7
330
A
100
AcDbEntity
  8
1
  6
solid
 62
     0
100
AcDbLine
 10
5.002566620337319
 20
-0.4182939689462694
 30
0.0
 11
5.005017600729476
 21
-0.429111276638577
 31
0.0
  0
LINE
  5
F8
330
A
100
AcDbEntity
  8
1
  6
solid
 62
     0
100
AcDbLine
 10
5.005017600729476
 20
-0.429111276638577
 30
0.0
 11
5.010409757592221
 21
-0.4423324304847309
 31
0.0
  0
LINE
  5
F9
330
A
100
AcDbEntity
  8
1
  6
solid
 62
     0
100
AcDbLine
 10
5.010409757592221
 20
-0.4423324304847309
 30
0.0
 11
5.018743090925554
 21
-0.4531497381770385
 31
0.0
  0
LINE
  5
FA
330
A
100
AcDbEntity
  8
1
  6
solid
 62
     0
100
AcDbLine
 10
5.018743090925554
 20
-0.4531497381770385
 30
0.0
 11
5.025605836023594
 21
-0.4615631997155001
 31
0.0
  0
LINE
  5
FB
330
A
100
AcDbEntity
  8
1
  6
solid
 62
     0
100
AcDbLine
 10
5.025605836023594
 20
-0.4615631997155001
 30
0.0
 11
5.037860737984377
 21
-0.4699766612539617
 31
0.0
  0
LINE
  5
FC
330
A
100
AcDbEntity
  8
1
  6
solid
 62
     0
100
AcDbLine
 10
5.037860737984377
 20
-0.4699766612539617
 30
0.0
 11
5.050115639945162
 21
-0.475986276638577
 31
0.0
  0
LINE
  5
FD
330
A
100
AcDbEntity
  8
1
  6
solid
 62
     0
100
AcDbLine
 10
5.050115639945162
 20
-0.475986276638577
 30
0.0
 11
5.059429365435358
 21
-0.4771881997155001
 31
0.0
  0
LINE
  5
FE
330
A
100
AcDbEntity
  8
1
  6
solid
 62
     0
100
AcDbLine
 10
5.059429365435358
 20
-0.4771881997155001
 30
0.0
 11
5.070213679160849
 21
-0.4771881997155001
 31
0.0
  0
LINE
  5
FF
330
A
100
AcDbEntity
  8
1
  6
solid
 62
     0
100
AcDbLine
 10
5.070213679160849
 20
-0.4771881997155001
 30
0.0
 11
5.080997992886338
 21
-0.4735824304847309
 31
0.0
  0
LINE
  5
100
330
A
100
AcDbEntity
  8
1
  6
solid
 62
     0
100
AcDbLine
 10
5.080997992886338
 20
-0.4735824304847309
 30
0.0
 11
5.093252894847123
 21
-0.4651689689462694
 31
0.0
  0
LINE
  5
101
330
A
100
AcDbEntity
  8
1
  6
solid
 62
     0
100
AcDbLine
 10
5.093252894847123
 20
-0.4651689689462694
 30
0.0
 11
5.105507796807907
 21
-0.4543516612539617
 31
0.0
  0
LINE
  5
102
330
A
100
AcDbEntity
  8
1
  6
solid
 62
     0
100
AcDbLine
 10
5.105507796807907
 20
-0.4543516612539617
 30
0.0
 11
5.11384113014124
 21
-0.4411305074078078
 31
0.0
  0
LINE
  5
103
330
A
100
AcDbEntity
  8
1
  6
solid
 62
     0
100
AcDbLine
 10
5.11384113014124
 20
-0.4411305074078078
 30
0.0
 11
5.119233287003986
 21
-0.4267074304847309
 31
0.0
  0
LINE
  5
104
330
A
100
AcDbEntity
  8
1
  6
solid
 62
     0
100
AcDbLine
 10
5.119233287003986
 20
-0.4267074304847309
 30
0.0
 11
5.121684267396142
 21
-0.4194958920231925
 31
0.0
  0
LINE
  5
105
330
A
100
AcDbEntity
  8
1
  6
solid
 62
     0
100
AcDbLine
 10
5.121684267396142
 20
-0.4194958920231925
 30
0.0
 11
5.12462544386673
 21
-0.4038708920231925
 31
0.0
  0
LINE
  5
106
330
A
100
AcDbEntity
  8
1
  6
solid
 62
     0
100
AcDbLine
 10
5.12462544386673
 20
-0.4038708920231925
 30
0.0
 11
5.12462544386673
 21
-0.3906497381770385
 31
0.0
  0
LINE
  5
107
330
A
100
AcDbEntity
  8
1
  6
solid
 62
     0
100
AcDbLine
 10
5.12462544386673
 20
-0.3906497381770385
 30
0.0
 11
5.121684267396142
 21
-0.3750247381770386
 31
0.0
  0
LINE
  5
108
330
A
100
AcDbEntity
  8
1
  6
solid
 62
     0
100
AcDbLine
 10
5.121684267396142
 20
-0.3750247381770386
 30
0.0
 11
5.117762698768691
 21
-0.3630055074078078
 31
0.0
  0
LINE
  5
109
330
A
100
AcDbEntity
  8
1
  6
solid
 62
     0
100
AcDbLine
 10
5.117762698768691
 20
-0.3630055074078078
 30
0.0
 11
5.112370541905947
 21
-0.3485824304847309
 31
0.0
  0
LINE
  5
10A
330
A
100
AcDbEntity
  8
1
  6
solid
 62
     0
100
AcDbLine
 10
5.112370541905947
 20
-0.3485824304847309
 30
0.0
 11
5.105507796807907
 21
-0.3401689689462693
 31
0.0
  0
LINE
  5
10B
330
A
100
AcDbEntity
  8
1
  6
solid
 62
     0
100
AcDbLine
 10
5.105507796807907
 20
-0.3401689689462693
 30
0.0
 11
5.098645051709868
 21
-0.3329574304847308
 31
0.0
  0
LINE
  5
10C
330
A
100
AcDbEntity
  8
1
  6
solid
 62
     0
100
AcDbLine
 10
5.098645051709868
 20
-0.3329574304847308
 30
0.0
 11
5.094723483082416
 21
-0.3293516612539617
 31
0.0
  0
LINE
  5
10D
330
A
100
AcDbEntity
  8
1
  6
solid
 62
     0
100
AcDbLine
 10
5.094723483082416
 20
-0.3293516612539617
 30
0.0
 11
5.101586228180456
 21
-0.3209381997155001
 31
0.0
  0
LINE
  5
10E
330
A
100
AcDbEntity
  8
1
  6
solid
 62
     0
100
AcDbLine
 10
5.101586228180456
 20
-0.3209381997155001
 30
0.0
 11
5.105507796807907
 21
-0.3125247381770385
 31
0.0
  0
LINE
  5
10F
330
A
100
AcDbEntity
  8
1
  6
solid
 62
     0
100
AcDbLine
 10
5.105507796807907
 20
-0.3125247381770385
 30
0.0
 11
5.108448973278496
 21
-0.3041112766385769
 31
0.0
  0
LINE
  5
110
330
A
100
AcDbEntity
  8
1
  6
solid
 62
     0
100
AcDbLine
 10
5.108448973278496
 20
-0.3041112766385769
 30
0.0
 11
5.109919561513789
 21
-0.2908901227924232
 31
0.0
  0
LINE
  5
111
330
A
100
AcDbEntity
  8
1
  6
solid
 62
     0
100
AcDbLine
 10
5.109919561513789
 20
-0.2908901227924232
 30
0.0
 11
5.109919561513789
 21
-0.2812747381770385
 31
0.0
  0
LINE
  5
112
330
A
100
AcDbEntity
  8
1
  6
solid
 62
     0
100
AcDbLine
 10
5.109919561513789
 20
-0.2812747381770385
 30
0.0
 11
5.108448973278496
 21
-0.272861276638577
 31
0.0
  0
LINE
  5
113
330
A
100
AcDbEntity
  8
1
  6
solid
 62
     0
100
AcDbLine
 10
5.108448973278496
 20
-0.272861276638577
 30
0.0
 11
5.105507796807907
 21
-0.2632458920231924
 31
0.0
  0
LINE
  5
114
330
A
100
AcDbEntity
  8
1
  6
solid
 62
     0
100
AcDbLine
 10
5.105507796807907
 20
-0.2632458920231924
 30
0.0
 11
5.101586228180456
 21
-0.2536305074078078
 31
0.0
  0
LINE
  5
115
330
A
100
AcDbEntity
  8
1
  6
solid
 62
     0
100
AcDbLine
 10
5.101586228180456
 20
-0.2536305074078078
 30
0.0
 11
5.097664659553005
 21
-0.2464189689462693
 31
0.0
  0
LINE
  5
116
330
A
100
AcDbEntity
  8
1
  6
solid
 62
     0
100
AcDbLine
 10
5.097664659553005
 20
-0.2464189689462693
 30
0.0
 11
5.090801914454965
 21
-0.2392074304847308
 31
0.0
  0
LINE
  5
117
330
A
100
AcDbEntity
  8
1
  6
solid
 62
     0
100
AcDbLine
 10
5.090801914454965
 20
-0.2392074304847308
 30
0.0
 11
5.085409757592221
 21
-0.2343997381770385
 31
0.0
  0
LINE
  5
118
330
A
100
AcDbEntity
  8
1
  6
solid
 62
     0
100
AcDbLine
 10
5.085409757592221
 20
-0.2343997381770385
 30
0.0
 11
5.078547012494182
 21
-0.2307939689462693
 31
0.0
  0
LINE
  5
119
330
A
100
AcDbEntity
  8
1
  6
solid
 62
     0
100
AcDbLine
 10
5.078547012494182
 20
-0.2307939689462693
 30
0.0
 11
5.068743090925554
 21
-0.2271881997155001
 31
0.0
  0
LINE
  5
11A
330
A
100
AcDbEntity
  8
1
  6
solid
 62
     0
100
AcDbLine
 10
5.068743090925554
 20
-0.2271881997155001
 30
0.0
 11
5.057958777200064
 21
-0.2271881997155001
 31
0.0
  0
LINE
  5
11B
330
A
100
AcDbEntity
  8
1
  6
solid
 62
     0
100
AcDbLine
 10
5.057958777200064
 20
-0.2271881997155001
 30
0.0
 11
5.045703875239279
 21
-0.2307939689462693
 31
0.0
  0
LINE
  5
11C
330
A
100
AcDbEntity
  8
1
  6
solid
 62
     0
100
AcDbLine
 10
5.045703875239279
 20
-0.2307939689462693
 30
0.0
 11
5.03491956151379
 21
-0.2380055074078077
 31
0.0
  0
LINE
  5
11D
330
A
100
AcDbEntity
  8
1
  6
solid
 62
     0
100
AcDbLine
 10
5.03491956151379
 20
-0.2380055074078077
 30
0.0
 11
5.02805681641575
 21
-0.2440151227924232
 31
0.0
  0
LINE
  5
11E
330
A
100
AcDbEntity
  8
1
  6
solid
 62
     0
100
AcDbLine
 10
5.02805681641575
 20
-0.2440151227924232
 30
0.0
 11
5.022664659553005
 21
-0.2536305074078078
 31
0.0
  0
LINE
  5
11F
330
A
100
AcDbEntity
  8
1
  6
solid
 62
     0
100
AcDbLine
 10
5.022664659553005
 20
-0.2536305074078078
 30
0.0
 11
5.018743090925554
 21
-0.2632458920231924
 31
0.0
  0
LINE
  5
120
330
A
100
AcDbEntity
  8
1
  6
solid
 62
     0
100
AcDbLine
 10
5.018743090925554
 20
-0.2632458920231924
 30
0.0
 11
5.015801914454966
 21
-0.2740631997155001
 31
0.0
  0
LINE
  5
121
330
A
100
AcDbEntity
  8
1
  6
solid
 62
     0
100
AcDbLine
 10
5.015801914454966
 20
-0.2740631997155001
 30
0.0
 11
5.014331326219672
 21
-0.2812747381770385
 31
0.0
  0
LINE
  5
122
330
A
100
AcDbEntity
  8
1
  6
solid
 62
     0
100
AcDbLine
 10
5.014331326219672
 20
-0.2812747381770385
 30
0.0
 11
5.014331326219672
 21
-0.2896881997155001
 31
0.0
  0
LINE
  5
123
330
A
100
AcDbEntity
  8
1
  6
solid
 62
     0
100
AcDbLine
 10
5.014331326219672
 20
-0.2896881997155001
 30
0.0
 11
5.015801914454966
 21
-0.3005055074078078
 31
0.0
  0
LINE
  5
124
330
A
100
AcDbEntity
  8
1
  6
solid
 62
     0
100
AcDbLine
 10
5.015801914454966
 20
-0.3005055074078078
 30
0.0
 11
5.018743090925554
 21
-0.3125247381770385
 31
0.0
  0
LINE
  5
125
330
A
100
AcDbEntity
  8
1
  6
solid
 62
     0
100
AcDbLine
 10
5.018743090925554
 20
-0.3125247381770385
 30
0.0
 11
5.022664659553005
 21
-0.3209381997155001
 31
0.0
  0
LINE
  5
126
330
A
100
AcDbEntity
  8
1
  6
solid
 62
     0
100
AcDbLine
 10
5.022664659553005
 20
-0.3209381997155001
 30
0.0
 11
5.026586228180456
 21
-0.3257458920231924
 31
0.0
  0
LINE
  5
127
330
A
100
AcDbEntity
  8
1
  6
solid
 62
     0
100
AcDbLine
 10
5.026586228180456
 20
-0.3257458920231924
 30
0.0
 11
5.029527404651044
 21
-0.3293516612539617
 31
0.0
  0
LINE
  5
128
330
A
100
AcDbEntity
  8
1
  6
solid
 62
     0
100
AcDbLine
 10
5.068743090925554
 20
-0.4459381997155001
 30
0.0
 11
5.078547012494182
 21
-0.4423324304847309
 31
0.0
  0
LINE
  5
129
330
A
100
AcDbEntity
  8
1
  6
solid
 62
     0
100
AcDbLine
 10
5.078547012494182
 20
-0.4423324304847309
 30
0.0
 11
5.085409757592221
 21
-0.4375247381770385
 31
0.0
  0
LINE
  5
12A
330
A
100
AcDbEntity
  8
1
  6
solid
 62
     0
100
AcDbLine
 10
5.085409757592221
 20
-0.4375247381770385
 30
0.0
 11
5.091782306611829
 21
-0.4303131997155001
 31
0.0
  0
LINE
  5
12B
330
A
100
AcDbEntity
  8
1
  6
solid
 62
     0
100
AcDbLine
 10
5.091782306611829
 20
-0.4303131997155001
 30
0.0
 11
5.097664659553005
 21
-0.4194958920231925
 31
0.0
  0
LINE
  5
12C
330
A
100
AcDbEntity
  8
1
  6
solid
 62
     0
100
AcDbLine
 10
5.097664659553005
 20
-0.4194958920231925
 30
0.0
 11
5.100115639945162
 21
-0.4098805074078078
 31
0.0
  0
LINE
  5
12D
330
A
100
AcDbEntity
  8
1
  6
solid
 62
     0
100
AcDbLine
 10
5.100115639945162
 20
-0.4098805074078078
 30
0.0
 11
5.101586228180456
 21
-0.3990631997155001
 31
0.0
  0
LINE
  5
12E
330
A
100
AcDbEntity
  8
1
  6
solid
 62
     0
100
AcDbLine
 10
5.101586228180456
 20
-0.3990631997155001
 30
0.0
 11
5.101586228180456
 21
-0.3918516612539617
 31
0.0
  0
LINE
  5
12F
330
A
100
AcDbEntity
  8
1
  6
solid
 62
     0
100
AcDbLine
 10
5.101586228180456
 20
-0.3918516612539617
 30
0.0
 11
5.097664659553005
 21
-0.3762266612539617
 31
0.0
  0
LINE
  5
130
330
A
100
AcDbEntity
  8
1
  6
solid
 62
     0
100
AcDbLine
 10
5.097664659553005
 20
-0.3762266612539617
 30
0.0
 11
5.093252894847123
 21
-0.3678131997155001
 31
0.0
  0
LINE
  5
131
330
A
100
AcDbEntity
  8
1
  6
solid
 62
     0
100
AcDbLine
 10
5.093252894847123
 20
-0.3678131997155001
 30
0.0
 11
5.087860737984378
 21
-0.3606016612539617
 31
0.0
  0
LINE
  5
132
330
A
100
AcDbEntity
  8
1
  6
solid
 62
     0
100
AcDbLine
 10
5.087860737984378
 20
-0.3606016612539617
 30
0.0
 11
5.080997992886338
 21
-0.3533901227924232
 31
0.0
  0
LINE
  5
133
330
A
100
AcDbEntity
  8
1
  6
solid
 62
     0
100
AcDbLine
 10
5.080997992886338
 20
-0.3533901227924232
 30
0.0
 11
5.075605836023593
 21
-0.350986276638577
 31
0.0
  0
LINE
  5
134
330
A
100
AcDbEntity
  8
1
  6
solid
 62
     0
100
AcDbLine
 10
5.075605836023593
 20
-0.350986276638577
 30
0.0
 11
5.067762698768691
 21
-0.3485824304847309
 31
0.0
  0
LINE
  5
135
330
A
100
AcDbEntity
  8
1
  6
solid
 62
     0
100
AcDbLine
 10
5.067762698768691
 20
-0.3485824304847309
 30
0.0
 11
5.057958777200064
 21
-0.3485824304847309
 31
0.0
  0
LINE
  5
136
330
A
100
AcDbEntity
  8
1
  6
solid
 62
     0
100
AcDbLine
 10
5.057958777200064
 20
-0.3485824304847309
 30
0.0
 11
5.047174463474574
 21
-0.3521881997155001
 31
0.0
  0
LINE
  5
137
330
A
100
AcDbEntity
  8
1
  6
solid
 62
     0
100
AcDbLine
 10
5.047174463474574
 20
-0.3521881997155001
 30
0.0
 11
5.040311718376535
 21
-0.3569958920231924
 31
0.0
  0
LINE
  5
138
330
A
100
AcDbEntity
  8
1
  6
solid
 62
     0
100
AcDbLine
 10
5.040311718376535
 20
-0.3569958920231924
 30
0.0
 11
5.033448973278495
 21
-0.3642074304847308
 31
0.0
  0
LINE
  5
139
330
A
100
AcDbEntity
  8
1
  6
solid
 62
     0
100
AcDbLine
 10
5.033448973278495
 20
-0.3642074304847308
 30
0.0
 11
5.02805681641575
 21
-0.3750247381770386
 31
0.0
  0
LINE
  5
13A
330
A
100
AcDbEntity
  8
1
  6
solid
 62
     0
100
AcDbLine
 10
5.02805681641575
 20
-0.3750247381770386
 30
0.0
 11
5.025605836023594
 21
-0.3834381997155001
 31
0.0
  0
LINE
  5
13B
330
A
100
AcDbEntity
  8
1
  6
solid
 62
     0
100
AcDbLine
 10
5.025605836023594
 20
-0.3834381997155001
 30
0.0
 11
5.024135247788299
 21
-0.3918516612539617
 31
0.0
  0
LINE
  5
13C
330
A
100
AcDbEntity
  8
1
  6
solid
 62
     0
100
AcDbLine
 10
5.024135247788299
 20
-0.3918516612539617
 30
0.0
 11
5.024135247788299
 21
-0.4026689689462694
 31
0.0
  0
LINE
  5
13D
330
A
100
AcDbEntity
  8
1
  6
solid
 62
     0
100
AcDbLine
 10
5.024135247788299
 20
-0.4026689689462694
 30
0.0
 11
5.025605836023594
 21
-0.413486276638577
 31
0.0
  0
LINE
  5
13E
330
A
100
AcDbEntity
  8
1
  6
solid
 62
     0
100
AcDbLine
 10
5.025605836023594
 20
-0.413486276638577
 30
0.0
 11
5.029527404651044
 21
-0.4255055074078078
 31
0.0
  0
LINE
  5
13F
330
A
100
AcDbEntity
  8
1
  6
solid
 62
     0
100
AcDbLine
 10
5.029527404651044
 20
-0.4255055074078078
 30
0.0
 11
5.036390149749084
 21
-0.4339189689462694
 31
0.0
  0
LINE
  5
140
330
A
100
AcDbEntity
  8
1
  6
solid
 62
     0
100
AcDbLine
 10
5.036390149749084
 20
-0.4339189689462694
 30
0.0
 11
5.043252894847123
 21
-0.4411305074078078
 31
0.0
  0
LINE
  5
141
330
A
100
AcDbEntity
  8
1
  6
solid
 62
     0
100
AcDbLine
 10
5.043252894847123
 20
-0.4411305074078078
 30
0.0
 11
5.052566620337319
 21
-0.4459381997155001
 31
0.0
  0
LINE
  5
142
330
A
100
AcDbEntity
  8
1
  6
solid
 62
     0
100
AcDbLine
 10
5.052566620337319
 20
-0.4459381997155001
 30
0.0
 11
5.068743090925554
 21
-0.4459381997155001
 31
0.0
  0
LINE
  5
143
330
A
100
AcDbEntity
  8
1
  6
solid
 62
     0
100
AcDbLine
 10
5.066292110533398
 20
-0.3173324304847309
 30
0.0
 11
5.071684267396142
 21
-0.3161305074078078
 31
0.0
  0
LINE
  5
144
330
A
100
AcDbEntity
  8
1
  6
solid
 62
     0
100
AcDbLine
 10
5.071684267396142
 20
-0.3161305074078078
 30
0.0
 11
5.078547012494182
 21
-0.3101208920231924
 31
0.0
  0
LINE
  5
145
330
A
100
AcDbEntity
  8
1
  6
solid
 62
     0
100
AcDbLine
 10
5.078547012494182
 20
-0.3101208920231924
 30
0.0
 11
5.082468581121633
 21
-0.3041112766385769
 31
0.0
  0
LINE
  5
146
330
A
100
AcDbEntity
  8
1
  6
solid
 62
     0
100
AcDbLine
 10
5.082468581121633
 20
-0.3041112766385769
 30
0.0
 11
5.085409757592221
 21
-0.2968997381770385
 31
0.0
  0
LINE
  5
147
330
A
100
AcDbEntity
  8
1
  6
solid
 62
     0
100
AcDbLine
 10
5.085409757592221
 20
-0.2968997381770385
 30
0.0
 11
5.086390149749083
 21
-0.2896881997155001
 31
0.0
  0
LINE
  5
148
330
A
100
AcDbEntity
  8
1
  6
solid
 62
     0
100
AcDbLine
 10
5.086390149749083
 20
-0.2896881997155001
 30
0.0
 11
5.086390149749083
 21
-0.2848805074078078
 31
0.0
  0
LINE
  5
149
330
A
100
AcDbEntity
  8
1
  6
solid
 62
     0
100
AcDbLine
 10
5.086390149749083
 20
-0.2848805074078078
 30
0.0
 11
5.083939169356927
 21
-0.2740631997155001
 31
0.0
  0
LINE
  5
14A
330
A
100
AcDbEntity
  8
1
  6
solid
 62
     0
100
AcDbLine
 10
5.083939169356927
 20
-0.2740631997155001
 30
0.0
 11
5.080017600729476
 21
-0.2668516612539617
 31
0.0
  0
LINE
  5
14B
330
A
100
AcDbEntity
  8
1
  6
solid
 62
     0
100
AcDbLine
 10
5.080017600729476
 20
-0.2668516612539617
 30
0.0
 11
5.075605836023593
 21
-0.2620439689462693
 31
0.0
  0
LINE
  5
14C
330
A
100
AcDbEntity
  8
1
  6
solid
 62
     0
100
AcDbLine
 10
5.075605836023593
 20
-0.2620439689462693
 30
0.0
 11
5.070213679160849
 21
-0.2584381997155001
 31
0.0
  0
LINE
  5
14D
330
A
100
AcDbEntity
  8
1
  6
solid
 62
     0
100
AcDbLine
 10
5.070213679160849
 20
-0.2584381997155001
 30
0.0
 11
5.064821522298103
 21
-0.2572362766385769
 31
0.0
  0
LINE
  5
14E
330
A
100
AcDbEntity
  8
1
  6
solid
 62
     0
100
AcDbLine
 10
5.064821522298103
 20
-0.2572362766385769
 30
0.0
 11
5.060899953670652
 21
-0.2572362766385769
 31
0.0
  0
LINE
  5
14F
330
A
100
AcDbEntity
  8
1
  6
solid
 62
     0
100
AcDbLine
 10
5.060899953670652
 20
-0.2572362766385769
 30
0.0
 11
5.054037208572613
 21
-0.2584381997155001
 31
0.0
  0
LINE
  5
150
330
A
100
AcDbEntity
  8
1
  6
solid
 62
     0
100
AcDbLine
 10
5.054037208572613
 20
-0.2584381997155001
 30
0.0
 11
5.048645051709868
 21
-0.2620439689462693
 31
0.0
  0
LINE
  5
151
330
A
100
AcDbEntity
  8
1
  6
solid
 62
     0
100
AcDbLine
 10
5.048645051709868
 20
-0.2620439689462693
 30
0.0
 11
5.044233287003986
 21
-0.2668516612539617
 31
0.0
  0
LINE
  5
152
330
A
100
AcDbEntity
  8
1
  6
solid
 62
     0
100
AcDbLine
 10
5.044233287003986
 20
-0.2668516612539617
 30
0.0
 11
5.040311718376535
 21
-0.2740631997155001
 31
0.0
  0
LINE
  5
153
330
A
100
AcDbEntity
  8
1
  6
solid
 62
     0
100
AcDbLine
 10
5.040311718376535
 20
-0.2740631997155001
 30
0.0
 11
5.038841130141241
 21
-0.2812747381770385
 31
0.0
  0
LINE
  5
154
330
A
100
AcDbEntity
  8
1
  6
solid
 62
     0
100
AcDbLine
 10
5.038841130141241
 20
-0.2812747381770385
 30
0.0
 11
5.037860737984377
 21
-0.2860824304847308
 31
0.0
  0
LINE
  5
155
330
A
100
AcDbEntity
  8
1
  6
solid
 62
     0
100
AcDbLine
 10
5.037860737984377
 20
-0.2860824304847308
 30
0.0
 11
5.037860737984377
 21
-0.2896881997155001
 31
0.0
  0
LINE
  5
156
330
A
100
AcDbEntity
  8
1
  6
solid
 62
     0
100
AcDbLine
 10
5.037860737984377
 20
-0.2896881997155001
 30
0.0
 11
5.040311718376535
 21
-0.3005055074078078
 31
0.0
  0
LINE
  5
157
330
A
100
AcDbEntity
  8
1
  6
solid
 62
     0
100
AcDbLine
 10
5.040311718376535
 20
-0.3005055074078078
 30
0.0
 11
5.043252894847123
 21
-0.3053131997155001
 31
0.0
  0
LINE
  5
158
330
A
100
AcDbEntity
  8
1
  6
solid
 62
     0
100
AcDbLine
 10
5.043252894847123
 20
-0.3053131997155001
 30
0.0
 11
5.047174463474574
 21
-0.3125247381770385
 31
0.0
  0
LINE
  5
159
330
A
100
AcDbEntity
  8
1
  6
solid
 62
     0
100
AcDbLine
 10
5.047174463474574
 20
-0.3125247381770385
 30
0.0
 11
5.052566620337319
 21
-0.3161305074078078
 31
0.0
  0
LINE
  5
15A
330
A
100
AcDbEntity
  8
1
  6
solid
 62
     0
100
AcDbLine
 10
5.052566620337319
 20
-0.3161305074078078
 30
0.0
 11
5.059429365435358
 21
-0.3173324304847309
 31
0.0
  0
LINE
  5
15B
330
A
100
AcDbEntity
  8
1
  6
solid
 62
     0
100
AcDbLine
 10
5.059429365435358
 20
-0.3173324304847309
 30
0.0
 11
5.066292110533398
 21
-0.3173324304847309
 31
0.0
  0
LINE
  5
15C
330
A
100
AcDbEntity
  8
1
  6
solid
 62
     0
100
AcDbLine
 10
5.301586228180456
 20
-0.2271881997155001
 30
0.0
 11
5.301586228180456
 21
-0.2596401227924232
 31
0.0
  0
LINE
  5
15D
330
A
100
AcDbEntity
  8
1
  6
solid
 62
     0
100
AcDbLine
 10
5.301586228180456
 20
-0.2596401227924232
 30
0.0
 11
5.319233287003985
 21
-0.2596401227924232
 31
0.0
  0
LINE
  5
15E
330
A
100
AcDbEntity
  8
1
  6
solid
 62
     0
100
AcDbLine
 10
5.319233287003985
 20
-0.2596401227924232
 30
0.0
 11
5.352076424258887
 21
-0.3497843535616539
 31
0.0
  0
LINE
  5
15F
330
A
100
AcDbEntity
  8
1
  6
solid
 62
     0
100
AcDbLine
 10
5.352076424258887
 20
-0.3497843535616539
 30
0.0
 11
5.315801914454966
 21
-0.444736276638577
 31
0.0
  0
LINE
  5
160
330
A
100
AcDbEntity
  8
1
  6
solid
 62
     0
100
AcDbLine
 10
5.315801914454966
 20
-0.444736276638577
 30
0.0
 11
5.29962544386673
 21
-0.444736276638577
 31
0.0
  0
LINE
  5
161
330
A
100
AcDbEntity
  8
1
  6
solid
 62
     0
100
AcDbLine
 10
5.29962544386673
 20
-0.444736276638577
 30
0.0
 11
5.29962544386673
 21
-0.4771881997155001
 31
0.0
  0
LINE
  5
162
330
A
100
AcDbEntity
  8
1
  6
solid
 62
     0
100
AcDbLine
 10
5.29962544386673
 20
-0.4771881997155001
 30
0.0
 11
5.352076424258887
 21
-0.4771881997155001
 31
0.0
  0
LINE
  5
163
330
A
100
AcDbEntity
  8
1
  6
solid
 62
     0
100
AcDbLine
 10
5.352076424258887
 20
-0.4771881997155001
 30
0.0
 11
5.352076424258887
 21
-0.444736276638577
 31
0.0
  0
LINE
  5
164
330
A
100
AcDbEntity
  8
1
  6
solid
 62
     0
100
AcDbLine
 10
5.352076424258887
 20
-0.444736276638577
 30
0.0
 11
5.338350934062809
 21
-0.444736276638577
 31
0.0
  0
LINE
  5
165
330
A
100
AcDbEntity
  8
1
  6
solid
 62
     0
100
AcDbLine
 10
5.338350934062809
 20
-0.444736276638577
 30
0.0
 11
5.362370541905946
 21
-0.3786305074078078
 31
0.0
  0
LINE
  5
166
330
A
100
AcDbEntity
  8
1
  6
solid
 62
     0
100
AcDbLine
 10
5.362370541905946
 20
-0.3786305074078078
 30
0.0
 11
5.385899953670651
 21
-0.444736276638577
 31
0.0
  0
LINE
  5
167
330
A
100
AcDbEntity
  8
1
  6
solid
 62
     0
100
AcDbLine
 10
5.385899953670651
 20
-0.444736276638577
 30
0.0
 11
5.373154855631437
 21
-0.444736276638577
 31
0.0
  0
LINE
  5
168
330
A
100
AcDbEntity
  8
1
  6
solid
 62
     0
100
AcDbLine
 10
5.373154855631437
 20
-0.444736276638577
 30
0.0
 11
5.373154855631437
 21
-0.4771881997155001
 31
0.0
  0
LINE
  5
169
330
A
100
AcDbEntity
  8
1
  6
solid
 62
     0
100
AcDbLine
 10
5.373154855631437
 20
-0.4771881997155001
 30
0.0
 11
5.42462544386673
 21
-0.4771881997155001
 31
0.0
  0
LINE
  5
16A
330
A
100
AcDbEntity
  8
1
  6
solid
 62
     0
100
AcDbLine
 10
5.42462544386673
 20
-0.4771881997155001
 30
0.0
 11
5.42462544386673
 21
-0.444736276638577
 31
0.0
  0
LINE
  5
16B
330
A
100
AcDbEntity
  8
1
  6
solid
 62
     0
100
AcDbLine
 10
5.42462544386673
 20
-0.444736276638577
 30
0.0
 11
5.408448973278495
 21
-0.444736276638577
 31
0.0
  0
LINE
  5
16C
330
A
100
AcDbEntity
  8
1
  6
solid
 62
     0
100
AcDbLine
 10
5.408448973278495
 20
-0.444736276638577
 30
0.0
 11
5.373154855631437
 21
-0.3497843535616539
 31
0.0
  0
LINE
  5
16D
330
A
100
AcDbEntity
  8
1
  6
solid
 62
     0
100
AcDbLine
 10
5.373154855631437
 20
-0.3497843535616539
 30
0.0
 11
5.405017600729475
 21
-0.2596401227924232
 31
0.0
  0
LINE
  5
16E
330
A
100
AcDbEntity
  8
1
  6
solid
 62
     0
100
AcDbLine
 10
5.405017600729475
 20
-0.2596401227924232
 30
0.0
 11
5.422664659553005
 21
-0.2596401227924232
 31
0.0
  0
LINE
  5
16F
330
A
100
AcDbEntity
  8
1
  6
solid
 62
     0
100
AcDbLine
 10
5.422664659553005
 20
-0.2596401227924232
 30
0.0
 11
5.422664659553005
 21
-0.2271881997155001
 31
0.0
  0
LINE
  5
170
330
A
100
AcDbEntity
  8
1
  6
solid
 62
     0
100
AcDbLine
 10
5.422664659553005
 20
-0.2271881997155001
 30
0.0
 11
5.370213679160848
 21
-0.2271881997155001
 31
0.0
  0
LINE
  5
171
330
A
100
AcDbEntity
  8
1
  6
solid
 62
     0
100
AcDbLine
 10
5.370213679160848
 20
-0.2271881997155001
 30
0.0
 11
5.370213679160848
 21
-0.2596401227924232
 31
0.0
  0
LINE
  5
172
330
A
100
AcDbEntity
  8
1
  6
solid
 62
     0
100
AcDbLine
 10
5.370213679160848
 20
-0.2596401227924232
 30
0.0
 11
5.383448973278495
 21
-0.2596401227924232
 31
0.0
  0
LINE
  5
173
330
A
100
AcDbEntity
  8
1
  6
solid
 62
     0
100
AcDbLine
 10
5.383448973278495
 20
-0.2596401227924232
 30
0.0
 11
5.362370541905946
 21
-0.3185343535616539
 31
0.0
  0
LINE
  5
174
330
A
100
AcDbEntity
  8
1
  6
solid
 62
     0
100
AcDbLine
 10
5.362370541905946
 20
-0.3185343535616539
 30
0.0
 11
5.340801914454965
 21
-0.2596401227924232
 31
0.0
  0
LINE
  5
175
330
A
100
AcDbEntity
  8
1
  6
solid
 62
     0
100
AcDbLine
 10
5.340801914454965
 20
-0.2596401227924232
 30
0.0
 11
5.354037208572613
 21
-0.2596401227924232
 31
0.0
  0
LINE
  5
176
330
A
100
AcDbEntity
  8
1
  6
solid
 62
     0
100
AcDbLine
 10
5.354037208572613
 20
-0.2596401227924232
 30
0.0
 11
5.354037208572613
 21
-0.2271881997155001
 31
0.0
  0
LINE
  5
177
330
A
100
AcDbEntity
  8
1
  6
solid
 62
     0
100
AcDbLine
 10
5.354037208572613
 20
-0.2271881997155001
 30
0.0
 11
5.301586228180456
 21
-0.2271881997155001
 31
0.0
  0
LINE
  5
178
330
A
100
AcDbEntity
  8
1
  6
solid
 62
     0
100
AcDbLine
 10
5.629527404651044
 20
-0.3293516612539617
 30
0.0
 11
5.622664659553005
 21
-0.3365631997155001
 31
0.0
  0
LINE
  5
179
330
A
100
AcDbEntity
  8
1
  6
solid
 62
     0
100
AcDbLine
 10
5.622664659553005
 20
-0.3365631997155001
 30
0.0
 11
5.615801914454966
 21
-0.3449766612539617
 31
0.0
  0
LINE
  5
17A
330
A
100
AcDbEntity
  8
1
  6
solid
 62
     0
100
AcDbLine
 10
5.615801914454966
 20
-0.3449766612539617
 30
0.0
 11
5.61040975759222
 21
-0.3533901227924232
 31
0.0
  0
LINE
  5
17B
330
A
100
AcDbEntity
  8
1
  6
solid
 62
     0
100
AcDbLine
 10
5.61040975759222
 20
-0.3533901227924232
 30
0.0
 11
5.606488188964769
 21
-0.3630055074078078
 31
0.0
  0
LINE
  5
17C
330
A
100
AcDbEntity
  8
1
  6
solid
 62
     0
100
AcDbLine
 10
5.606488188964769
 20
-0.3630055074078078
 30
0.0
 11
5.603547012494182
 21
-0.3714189689462693
 31
0.0
  0
LINE
  5
17D
330
A
100
AcDbEntity
  8
1
  6
solid
 62
     0
100
AcDbLine
 10
5.603547012494182
 20
-0.3714189689462693
 30
0.0
 11
5.601096032102025
 21
-0.3834381997155001
 31
0.0
  0
LINE
  5
17E
330
A
100
AcDbEntity
  8
1
  6
solid
 62
     0
100
AcDbLine
 10
5.601096032102025
 20
-0.3834381997155001
 30
0.0
 11
5.599625443866731
 21
-0.3918516612539617
 31
0.0
  0
LINE
  5
17F
330
A
100
AcDbEntity
  8
1
  6
solid
 62
     0
100
AcDbLine
 10
5.599625443866731
 20
-0.3918516612539617
 30
0.0
 11
5.599625443866731
 21
-0.397861276638577
 31
0.0
  0
LINE
  5
180
330
A
100
AcDbEntity
  8
1
  6
solid
 62
     0
100
AcDbLine
 10
5.599625443866731
 20
-0.397861276638577
 30
0.0
 11
5.601096032102025
 21
-0.4074766612539617
 31
0.0
  0
LINE
  5
181
330
A
100
AcDbEntity
  8
1
  6
solid
 62
     0
100
AcDbLine
 10
5.601096032102025
 20
-0.4074766612539617
 30
0.0
 11
5.602566620337318
 21
-0.4182939689462694
 31
0.0
  0
LINE
  5
182
330
A
100
AcDbEntity
  8
1
  6
solid
 62
     0
100
AcDbLine
 10
5.602566620337318
 20
-0.4182939689462694
 30
0.0
 11
5.605017600729476
 21
-0.429111276638577
 31
0.0
  0
LINE
  5
183
330
A
100
AcDbEntity
  8
1
  6
solid
 62
     0
100
AcDbLine
 10
5.605017600729476
 20
-0.429111276638577
 30
0.0
 11
5.61040975759222
 21
-0.4423324304847309
 31
0.0
  0
LINE
  5
184
330
A
100
AcDbEntity
  8
1
  6
solid
 62
     0
100
AcDbLine
 10
5.61040975759222
 20
-0.4423324304847309
 30
0.0
 11
5.618743090925554
 21
-0.4531497381770385
 31
0.0
  0
LINE
  5
185
330
A
100
AcDbEntity
  8
1
  6
solid
 62
     0
100
AcDbLine
 10
5.618743090925554
 20
-0.4531497381770385
 30
0.0
 11
5.625605836023593
 21
-0.4615631997155001
 31
0.0
  0
LINE
  5
186
330
A
100
AcDbEntity
  8
1
  6
solid
 62
     0
100
AcDbLine
 10
5.625605836023593
 20
-0.4615631997155001
 30
0.0
 11
5.637860737984377
 21
-0.4699766612539617
 31
0.0
  0
LINE
  5
187
330
A
100
AcDbEntity
  8
1
  6
solid
 62
     0
100
AcDbLine
 10
5.637860737984377
 20
-0.4699766612539617
 30
0.0
 11
5.650115639945162
 21
-0.475986276638577
 31
0.0
  0
LINE
  5
188
330
A
100
AcDbEntity
  8
1
  6
solid
 62
     0
100
AcDbLine
 10
5.650115639945162
 20
-0.475986276638577
 30
0.0
 11
5.659429365435357
 21
-0.4771881997155001
 31
0.0
  0
LINE
  5
189
330
A
100
AcDbEntity
  8
1
  6
solid
 62
     0
100
AcDbLine
 10
5.659429365435357
 20
-0.4771881997155001
 30
0.0
 11
5.670213679160848
 21
-0.4771881997155001
 31
0.0
  0
LINE
  5
18A
330
A
100
AcDbEntity
  8
1
  6
solid
 62
     0
100
AcDbLine
 10
5.670213679160848
 20
-0.4771881997155001
 30
0.0
 11
5.680997992886338
 21
-0.4735824304847309
 31
0.0
  0
LINE
  5
18B
330
A
100
AcDbEntity
  8
1
  6
solid
 62
     0
100
AcDbLine
 10
5.680997992886338
 20
-0.4735824304847309
 30
0.0
 11
5.693252894847123
 21
-0.4651689689462694
 31
0.0
  0
LINE
  5
18C
330
A
100
AcDbEntity
  8
1
  6
solid
 62
     0
100
AcDbLine
 10
5.693252894847123
 20
-0.4651689689462694
 30
0.0
 11
5.705507796807907
 21
-0.4543516612539617
 31
0.0
  0
LINE
  5
18D
330
A
100
AcDbEntity
  8
1
  6
solid
 62
     0
100
AcDbLine
 10
5.705507796807907
 20
-0.4543516612539617
 30
0.0
 11
5.71384113014124
 21
-0.4411305074078078
 31
0.0
  0
LINE
  5
18E
330
A
100
AcDbEntity
  8
1
  6
solid
 62
     0
100
AcDbLine
 10
5.71384113014124
 20
-0.4411305074078078
 30
0.0
 11
5.719233287003985
 21
-0.4267074304847309
 31
0.0
  0
LINE
  5
18F
330
A
100
AcDbEntity
  8
1
  6
solid
 62
     0
100
AcDbLine
 10
5.719233287003985
 20
-0.4267074304847309
 30
0.0
 11
5.721684267396142
 21
-0.4194958920231925
 31
0.0
  0
LINE
  5
190
330
A
100
AcDbEntity
  8
1
  6
solid
 62
     0
100
AcDbLine
 10
5.721684267396142
 20
-0.4194958920231925
 30
0.0
 11
5.724625443866731
 21
-0.4038708920231925
 31
0.0
  0
LINE
  5
191
330
A
100
AcDbEntity
  8
1
  6
solid
 62
     0
100
AcDbLine
 10
5.724625443866731
 20
-0.4038708920231925
 30
0.0
 11
5.724625443866731
 21
-0.3906497381770385
 31
0.0
  0
LINE
  5
192
330
A
100
AcDbEntity
  8
1
  6
solid
 62
     0
100
AcDbLine
 10
5.724625443866731
 20
-0.3906497381770385
 30
0.0
 11
5.721684267396142
 21
-0.3750247381770386
 31
0.0
  0
LINE
  5
193
330
A
100
AcDbEntity
  8
1
  6
solid
 62
     0
100
AcDbLine
 10
5.721684267396142
 20
-0.3750247381770386
 30
0.0
 11
5.717762698768691
 21
-0.3630055074078078
 31
0.0
  0
LINE
  5
194
330
A
100
AcDbEntity
  8
1
  6
solid
 62
     0
100
AcDbLine
 10
5.717762698768691
 20
-0.3630055074078078
 30
0.0
 11
5.712370541905946
 21
-0.3485824304847309
 31
0.0
  0
LINE
  5
195
330
A
100
AcDbEntity
  8
1
  6
solid
 62
     0
100
AcDbLine
 10
5.712370541905946
 20
-0.3485824304847309
 30
0.0
 11
5.705507796807907
 21
-0.3401689689462693
 31
0.0
  0
LINE
  5
196
330
A
100
AcDbEntity
  8
1
  6
solid
 62
     0
100
AcDbLine
 10
5.705507796807907
 20
-0.3401689689462693
 30
0.0
 11
5.698645051709868
 21
-0.3329574304847308
 31
0.0
  0
LINE
  5
197
330
A
100
AcDbEntity
  8
1
  6
solid
 62
     0
100
AcDbLine
 10
5.698645051709868
 20
-0.3329574304847308
 30
0.0
 11
5.694723483082417
 21
-0.3293516612539617
 31
0.0
  0
LINE
  5
198
330
A
100
AcDbEntity
  8
1
  6
solid
 62
     0
100
AcDbLine
 10
5.694723483082417
 20
-0.3293516612539617
 30
0.0
 11
5.701586228180456
 21
-0.3209381997155001
 31
0.0
  0
LINE
  5
199
330
A
100
AcDbEntity
  8
1
  6
solid
 62
     0
100
AcDbLine
 10
5.701586228180456
 20
-0.3209381997155001
 30
0.0
 11
5.705507796807907
 21
-0.3125247381770385
 31
0.0
  0
LINE
  5
19A
330
A
100
AcDbEntity
  8
1
  6
solid
 62
     0
100
AcDbLine
 10
5.705507796807907
 20
-0.3125247381770385
 30
0.0
 11
5.708448973278495
 21
-0.3041112766385769
 31
0.0
  0
LINE
  5
19B
330
A
100
AcDbEntity
  8
1
  6
solid
 62
     0
100
AcDbLine
 10
5.708448973278495
 20
-0.3041112766385769
 30
0.0
 11
5.709919561513789
 21
-0.2908901227924232
 31
0.0
  0
LINE
  5
19C
330
A
100
AcDbEntity
  8
1
  6
solid
 62
     0
100
AcDbLine
 10
5.709919561513789
 20
-0.2908901227924232
 30
0.0
 11
5.709919561513789
 21
-0.2812747381770385
 31
0.0
  0
LINE
  5
19D
330
A
100
AcDbEntity
  8
1
  6
solid
 62
     0
100
AcDbLine
 10
5.709919561513789
 20
-0.2812747381770385
 30
0.0
 11
5.708448973278495
 21
-0.272861276638577
 31
0.0
  0
LINE
  5
19E
330
A
100
AcDbEntity
  8
1
  6
solid
 62
     0
100
AcDbLine
 10
5.708448973278495
 20
-0.272861276638577
 30
0.0
 11
5.705507796807907
 21
-0.2632458920231924
 31
0.0
  0
LINE
  5
19F
330
A
100
AcDbEntity
  8
1
  6
solid
 62
     0
100
AcDbLine
 10
5.705507796807907
 20
-0.2632458920231924
 30
0.0
 11
5.701586228180456
 21
-0.2536305074078078
 31
0.0
  0
LINE
  5
1A0
330
A
100
AcDbEntity
  8
1
  6
solid
 62
     0
100
AcDbLine
 10
5.701586228180456
 20
-0.2536305074078078
 30
0.0
 11
5.697664659553005
 21
-0.2464189689462693
 31
0.0
  0
LINE
  5
1A1
330
A
100
AcDbEntity
  8
1
  6
solid
 62
     0
100
AcDbLine
 10
5.697664659553005
 20
-0.2464189689462693
 30
0.0
 11
5.690801914454966
 21
-0.2392074304847308
 31
0.0
  0
LINE
  5
1A2
330
A
100
AcDbEntity
  8
1
  6
solid
 62
     0
100
AcDbLine
 10
5.690801914454966
 20
-0.2392074304847308
 30
0.0
 11
5.685409757592221
 21
-0.2343997381770385
 31
0.0
  0
LINE
  5
1A3
330
A
100
AcDbEntity
  8
1
  6
solid
 62
     0
100
AcDbLine
 10
5.685409757592221
 20
-0.2343997381770385
 30
0.0
 11
5.678547012494181
 21
-0.2307939689462693
 31
0.0
  0
LINE
  5
1A4
330
A
100
AcDbEntity
  8
1
  6
solid
 62
     0
100
AcDbLine
 10
5.678547012494181
 20
-0.2307939689462693
 30
0.0
 11
5.668743090925554
 21
-0.2271881997155001
 31
0.0
  0
LINE
  5
1A5
330
A
100
AcDbEntity
  8
1
  6
solid
 62
     0
100
AcDbLine
 10
5.668743090925554
 20
-0.2271881997155001
 30
0.0
 11
5.657958777200064
 21
-0.2271881997155001
 31
0.0
  0
LINE
  5
1A6
330
A
100
AcDbEntity
  8
1
  6
solid
 62
     0
100
AcDbLine
 10
5.657958777200064
 20
-0.2271881997155001
 30
0.0
 11
5.645703875239279
 21
-0.2307939689462693
 31
0.0
  0
LINE
  5
1A7
330
A
100
AcDbEntity
  8
1
  6
solid
 62
     0
100
AcDbLine
 10
5.645703875239279
 20
-0.2307939689462693
 30
0.0
 11
5.63491956151379
 21
-0.2380055074078077
 31
0.0
  0
LINE
  5
1A8
330
A
100
AcDbEntity
  8
1
  6
solid
 62
     0
100
AcDbLine
 10
5.63491956151379
 20
-0.2380055074078077
 30
0.0
 11
5.62805681641575
 21
-0.2440151227924232
 31
0.0
  0
LINE
  5
1A9
330
A
100
AcDbEntity
  8
1
  6
solid
 62
     0
100
AcDbLine
 10
5.62805681641575
 20
-0.2440151227924232
 30
0.0
 11
5.622664659553005
 21
-0.2536305074078078
 31
0.0
  0
LINE
  5
1AA
330
A
100
AcDbEntity
  8
1
  6
solid
 62
     0
100
AcDbLine
 10
5.622664659553005
 20
-0.2536305074078078
 30
0.0
 11
5.618743090925554
 21
-0.2632458920231924
 31
0.0
  0
LINE
  5
1AB
330
A
100
AcDbEntity
  8
1
  6
solid
 62
     0
100
AcDbLine
 10
5.618743090925554
 20
-0.2632458920231924
 30
0.0
 11
5.615801914454966
 21
-0.2740631997155001
 31
0.0
  0
LINE
  5
1AC
330
A
100
AcDbEntity
  8
1
  6
solid
 62
     0
100
AcDbLine
 10
5.615801914454966
 20
-0.2740631997155001
 30
0.0
 11
5.614331326219671
 21
-0.2812747381770385
 31
0.0
  0
LINE
  5
1AD
330
A
100
AcDbEntity
  8
1
  6
solid
 62
     0
100
AcDbLine
 10
5.614331326219671
 20
-0.2812747381770385
 30
0.0
 11
5.614331326219671
 21
-0.2896881997155001
 31
0.0
  0
LINE
  5
1AE
330
A
100
AcDbEntity
  8
1
  6
solid
 62
     0
100
AcDbLine
 10
5.614331326219671
 20
-0.2896881997155001
 30
0.0
 11
5.615801914454966
 21
-0.3005055074078078
 31
0.0
  0
LINE
  5
1AF
330
A
100
AcDbEntity
  8
1
  6
solid
 62
     0
100
AcDbLine
 10
5.615801914454966
 20
-0.3005055074078078
 30
0.0
 11
5.618743090925554
 21
-0.3125247381770385
 31
0.0
  0
LINE
  5
1B0
330
A
100
AcDbEntity
  8
1
  6
solid
 62
     0
100
AcDbLine
 10
5.618743090925554
 20
-0.3125247381770385
 30
0.0
 11
5.622664659553005
 21
-0.3209381997155001
 31
0.0
  0
LINE
  5
1B1
330
A
100
AcDbEntity
  8
1
  6
solid
 62
     0
100
AcDbLine
 10
5.622664659553005
 20
-0.3209381997155001
 30
0.0
 11
5.626586228180456
 21
-0.3257458920231924
 31
0.0
  0
LINE
  5
1B2
330
A
100
AcDbEntity
  8
1
  6
solid
 62
     0
100
AcDbLine
 10
5.626586228180456
 20
-0.3257458920231924
 30
0.0
 11
5.629527404651044
 21
-0.3293516612539617
 31
0.0
  0
LINE
  5
1B3
330
A
100
AcDbEntity
  8
1
  6
solid
 62
     0
100
AcDbLine
 10
5.668743090925554
 20
-0.4459381997155001
 30
0.0
 11
5.678547012494181
 21
-0.4423324304847309
 31
0.0
  0
LINE
  5
1B4
330
A
100
AcDbEntity
  8
1
  6
solid
 62
     0
100
AcDbLine
 10
5.678547012494181
 20
-0.4423324304847309
 30
0.0
 11
5.685409757592221
 21
-0.4375247381770385
 31
0.0
  0
LINE
  5
1B5
330
A
100
AcDbEntity
  8
1
  6
solid
 62
     0
100
AcDbLine
 10
5.685409757592221
 20
-0.4375247381770385
 30
0.0
 11
5.691782306611829
 21
-0.4303131997155001
 31
0.0
  0
LINE
  5
1B6
330
A
100
AcDbEntity
  8
1
  6
solid
 62
     0
100
AcDbLine
 10
5.691782306611829
 20
-0.4303131997155001
 30
0.0
 11
5.697664659553005
 21
-0.4194958920231925
 31
0.0
  0
LINE
  5
1B7
330
A
100
AcDbEntity
  8
1
  6
solid
 62
     0
100
AcDbLine
 10
5.697664659553005
 20
-0.4194958920231925
 30
0.0
 11
5.700115639945162
 21
-0.4098805074078078
 31
0.0
  0
LINE
  5
1B8
330
A
100
AcDbEntity
  8
1
  6
solid
 62
     0
100
AcDbLine
 10
5.700115639945162
 20
-0.4098805074078078
 30
0.0
 11
5.701586228180456
 21
-0.3990631997155001
 31
0.0
  0
LINE
  5
1B9
330
A
100
AcDbEntity
  8
1
  6
solid
 62
     0
100
AcDbLine
 10
5.701586228180456
 20
-0.3990631997155001
 30
0.0
 11
5.701586228180456
 21
-0.3918516612539617
 31
0.0
  0
LINE
  5
1BA
330
A
100
AcDbEntity
  8
1
  6
solid
 62
     0
100
AcDbLine
 10
5.701586228180456
 20
-0.3918516612539617
 30
0.0
 11
5.697664659553005
 21
-0.3762266612539617
 31
0.0
  0
LINE
  5
1BB
330
A
100
AcDbEntity
  8
1
  6
solid
 62
     0
100
AcDbLine
 10
5.697664659553005
 20
-0.3762266612539617
 30
0.0
 11
5.693252894847123
 21
-0.3678131997155001
 31
0.0
  0
LINE
  5
1BC
330
A
100
AcDbEntity
  8
1
  6
solid
 62
     0
100
AcDbLine
 10
5.693252894847123
 20
-0.3678131997155001
 30
0.0
 11
5.687860737984378
 21
-0.3606016612539617
 31
0.0
  0
LINE
  5
1BD
330
A
100
AcDbEntity
  8
1
  6
solid
 62
     0
100
AcDbLine
 10
5.687860737984378
 20
-0.3606016612539617
 30
0.0
 11
5.680997992886338
 21
-0.3533901227924232
 31
0.0
  0
LINE
  5
1BE
330
A
100
AcDbEntity
  8
1
  6
solid
 62
     0
100
AcDbLine
 10
5.680997992886338
 20
-0.3533901227924232
 30
0.0
 11
5.675605836023594
 21
-0.350986276638577
 31
0.0
  0
LINE
  5
1BF
330
A
100
AcDbEntity
  8
1
  6
solid
 62
     0
100
AcDbLine
 10
5.675605836023594
 20
-0.350986276638577
 30
0.0
 11
5.667762698768692
 21
-0.3485824304847309
 31
0.0
  0
LINE
  5
1C0
330
A
100
AcDbEntity
  8
1
  6
solid
 62
     0
100
AcDbLine
 10
5.667762698768692
 20
-0.3485824304847309
 30
0.0
 11
5.657958777200064
 21
-0.3485824304847309
 31
0.0
  0
LINE
  5
1C1
330
A
100
AcDbEntity
  8
1
  6
solid
 62
     0
100
AcDbLine
 10
5.657958777200064
 20
-0.3485824304847309
 30
0.0
 11
5.647174463474573
 21
-0.3521881997155001
 31
0.0
  0
LINE
  5
1C2
330
A
100
AcDbEntity
  8
1
  6
solid
 62
     0
100
AcDbLine
 10
5.647174463474573
 20
-0.3521881997155001
 30
0.0
 11
5.640311718376534
 21
-0.3569958920231924
 31
0.0
  0
LINE
  5
1C3
330
A
100
AcDbEntity
  8
1
  6
solid
 62
     0
100
AcDbLine
 10
5.640311718376534
 20
-0.3569958920231924
 30
0.0
 11
5.633448973278495
 21
-0.3642074304847308
 31
0.0
  0
LINE
  5
1C4
330
A
100
AcDbEntity
  8
1
  6
solid
 62
     0
100
AcDbLine
 10
5.633448973278495
 20
-0.3642074304847308
 30
0.0
 11
5.62805681641575
 21
-0.3750247381770386
 31
0.0
  0
LINE
  5
1C5
330
A
100
AcDbEntity
  8
1
  6
solid
 62
     0
100
AcDbLine
 10
5.62805681641575
 20
-0.3750247381770386
 30
0.0
 11
5.625605836023593
 21
-0.3834381997155001
 31
0.0
  0
LINE
  5
1C6
330
A
100
AcDbEntity
  8
1
  6
solid
 62
     0
100
AcDbLine
 10
5.625605836023593
 20
-0.3834381997155001
 30
0.0
 11
5.624135247788299
 21
-0.3918516612539617
 31
0.0
  0
LINE
  5
1C7
330
A
100
AcDbEntity
  8
1
  6
solid
 62
     0
100
AcDbLine
 10
5.624135247788299
 20
-0.3918516612539617
 30
0.0
 11
5.624135247788299
 21
-0.4026689689462694
 31
0.0
  0
LINE
  5
1C8
330
A
100
AcDbEntity
  8
1
  6
solid
 62
     0
100
AcDbLine
 10
5.624135247788299
 20
-0.4026689689462694
 30
0.0
 11
5.625605836023593
 21
-0.413486276638577
 31
0.0
  0
LINE
  5
1C9
330
A
100
AcDbEntity
  8
1
  6
solid
 62
     0
100
AcDbLine
 10
5.625605836023593
 20
-0.413486276638577
 30
0.0
 11
5.629527404651044
 21
-0.4255055074078078
 31
0.0
  0
LINE
  5
1CA
330
A
100
AcDbEntity
  8
1
  6
solid
 62
     0
100
AcDbLine
 10
5.629527404651044
 20
-0.4255055074078078
 30
0.0
 11
5.636390149749083
 21
-0.4339189689462694
 31
0.0
  0
LINE
  5
1CB
330
A
100
AcDbEntity
  8
1
  6
solid
 62
     0
100
AcDbLine
 10
5.636390149749083
 20
-0.4339189689462694
 30
0.0
 11
5.643252894847123
 21
-0.4411305074078078
 31
0.0
  0
LINE
  5
1CC
330
A
100
AcDbEntity
  8
1
  6
solid
 62
     0
100
AcDbLine
 10
5.643252894847123
 20
-0.4411305074078078
 30
0.0
 11
5.652566620337319
 21
-0.4459381997155001
 31
0.0
  0
LINE
  5
1CD
330
A
100
AcDbEntity
  8
1
  6
solid
 62
     0
100
AcDbLine
 10
5.652566620337319
 20
-0.4459381997155001
 30
0.0
 11
5.668743090925554
 21
-0.4459381997155001
 31
0.0
  0
LINE
  5
1CE
330
A
100
AcDbEntity
  8
1
  6
solid
 62
     0
100
AcDbLine
 10
5.666292110533397
 20
-0.3173324304847309
 30
0.0
 11
5.671684267396143
 21
-0.3161305074078078
 31
0.0
  0
LINE
  5
1CF
330
A
100
AcDbEntity
  8
1
  6
solid
 62
     0
100
AcDbLine
 10
5.671684267396143
 20
-0.3161305074078078
 30
0.0
 11
5.678547012494181
 21
-0.3101208920231924
 31
0.0
  0
LINE
  5
1D0
330
A
100
AcDbEntity
  8
1
  6
solid
 62
     0
100
AcDbLine
 10
5.678547012494181
 20
-0.3101208920231924
 30
0.0
 11
5.682468581121632
 21
-0.3041112766385769
 31
0.0
  0
LINE
  5
1D1
330
A
100
AcDbEntity
  8
1
  6
solid
 62
     0
100
AcDbLine
 10
5.682468581121632
 20
-0.3041112766385769
 30
0.0
 11
5.685409757592221
 21
-0.2968997381770385
 31
0.0
  0
LINE
  5
1D2
330
A
100
AcDbEntity
  8
1
  6
solid
 62
     0
100
AcDbLine
 10
5.685409757592221
 20
-0.2968997381770385
 30
0.0
 11
5.686390149749083
 21
-0.2896881997155001
 31
0.0
  0
LINE
  5
1D3
330
A
100
AcDbEntity
  8
1
  6
solid
 62
     0
100
AcDbLine
 10
5.686390149749083
 20
-0.2896881997155001
 30
0.0
 11
5.686390149749083
 21
-0.2848805074078078
 31
0.0
  0
LINE
  5
1D4
330
A
100
AcDbEntity
  8
1
  6
solid
 62
     0
100
AcDbLine
 10
5.686390149749083
 20
-0.2848805074078078
 30
0.0
 11
5.683939169356927
 21
-0.2740631997155001
 31
0.0
  0
LINE
  5
1D5
330
A
100
AcDbEntity
  8
1
  6
solid
 62
     0
100
AcDbLine
 10
5.683939169356927
 20
-0.2740631997155001
 30
0.0
 11
5.680017600729476
 21
-0.2668516612539617
 31
0.0
  0
LINE
  5
1D6
330
A
100
AcDbEntity
  8
1
  6
solid
 62
     0
100
AcDbLine
 10
5.680017600729476
 20
-0.2668516612539617
 30
0.0
 11
5.675605836023594
 21
-0.2620439689462693
 31
0.0
  0
LINE
  5
1D7
330
A
100
AcDbEntity
  8
1
  6
solid
 62
     0
100
AcDbLine
 10
5.675605836023594
 20
-0.2620439689462693
 30
0.0
 11
5.670213679160848
 21
-0.2584381997155001
 31
0.0
  0
LINE
  5
1D8
330
A
100
AcDbEntity
  8
1
  6
solid
 62
     0
100
AcDbLine
 10
5.670213679160848
 20
-0.2584381997155001
 30
0.0
 11
5.664821522298103
 21
-0.2572362766385769
 31
0.0
  0
LINE
  5
1D9
330
A
100
AcDbEntity
  8
1
  6
solid
 62
     0
100
AcDbLine
 10
5.664821522298103
 20
-0.2572362766385769
 30
0.0
 11
5.660899953670652
 21
-0.2572362766385769
 31
0.0
  0
LINE
  5
1DA
330
A
100
AcDbEntity
  8
1
  6
solid
 62
     0
100
AcDbLine
 10
5.660899953670652
 20
-0.2572362766385769
 30
0.0
 11
5.654037208572613
 21
-0.2584381997155001
 31
0.0
  0
LINE
  5
1DB
330
A
100
AcDbEntity
  8
1
  6
solid
 62
     0
100
AcDbLine
 10
5.654037208572613
 20
-0.2584381997155001
 30
0.0
 11
5.648645051709868
 21
-0.2620439689462693
 31
0.0
  0
LINE
  5
1DC
330
A
100
AcDbEntity
  8
1
  6
solid
 62
     0
100
AcDbLine
 10
5.648645051709868
 20
-0.2620439689462693
 30
0.0
 11
5.644233287003985
 21
-0.2668516612539617
 31
0.0
  0
LINE
  5
1DD
330
A
100
AcDbEntity
  8
1
  6
solid
 62
     0
100
AcDbLine
 10
5.644233287003985
 20
-0.2668516612539617
 30
0.0
 11
5.640311718376534
 21
-0.2740631997155001
 31
0.0
  0
LINE
  5
1DE
330
A
100
AcDbEntity
  8
1
  6
solid
 62
     0
100
AcDbLine
 10
5.640311718376534
 20
-0.2740631997155001
 30
0.0
 11
5.638841130141241
 21
-0.2812747381770385
 31
0.0
  0
LINE
  5
1DF
330
A
100
AcDbEntity
  8
1
  6
solid
 62
     0
100
AcDbLine
 10
5.638841130141241
 20
-0.2812747381770385
 30
0.0
 11
5.637860737984377
 21
-0.2860824304847308
 31
0.0
  0
LINE
  5
1E0
330
A
100
AcDbEntity
  8
1
  6
solid
 62
     0
100
AcDbLine
 10
5.637860737984377
 20
-0.2860824304847308
 30
0.0
 11
5.637860737984377
 21
-0.2896881997155001
 31
0.0
  0
LINE
  5
1E1
330
A
100
AcDbEntity
  8
1
  6
solid
 62
     0
100
AcDbLine
 10
5.637860737984377
 20
-0.2896881997155001
 30
0.0
 11
5.640311718376534
 21
-0.3005055074078078
 31
0.0
  0
LINE
  5
1E2
330
A
100
AcDbEntity
  8
1
  6
solid
 62
     0
100
AcDbLine
 10
5.640311718376534
 20
-0.3005055074078078
 30
0.0
 11
5.643252894847123
 21
-0.3053131997155001
 31
0.0
  0
LINE
  5
1E3
330
A
100
AcDbEntity
  8
1
  6
solid
 62
     0
100
AcDbLine
 10
5.643252894847123
 20
-0.3053131997155001
 30
0.0
 11
5.647174463474573
 21
-0.3125247381770385
 31
0.0
  0
LINE
  5
1E4
330
A
100
AcDbEntity
  8
1
  6
solid
 62
     0
100
AcDbLine
 10
5.647174463474573
 20
-0.3125247381770385
 30
0.0
 11
5.652566620337319
 21
-0.3161305074078078
 31
0.0
  0
LINE
  5
1E5
330
A
100
AcDbEntity
  8
1
  6
solid
 62
     0
100
AcDbLine
 10
5.652566620337319
 20
-0.3161305074078078
 30
0.0
 11
5.659429365435357
 21
-0.3173324304847309
 31
0.0
  0
LINE
  5
1E6
330
A
100
AcDbEntity
  8
1
  6
solid
 62
     0
100
AcDbLine
 10
5.659429365435357
 20
-0.3173324304847309
 30
0.0
 11
5.666292110533397
 21
-0.3173324304847309
 31
0.0
  0
LINE
  5
1E7
330
A
100
AcDbEntity
  8
1
  6
solid
 62
     0
100
AcDbLine
 10
5.793252894847123
 20
-0.2271881997155001
 30
0.0
 11
5.793252894847123
 21
-0.2632458920231924
 31
0.0
  0
LINE
  5
1E8
330
A
100
AcDbEntity
  8
1
  6
solid
 62
     0
100
AcDbLine
 10
5.793252894847123
 20
-0.2632458920231924
 30
0.0
 11
5.79962544386673
 21
-0.2632458920231924
 31
0.0
  0
LINE
  5
1E9
330
A
100
AcDbEntity
  8
1
  6
solid
 62
     0
100
AcDbLine
 10
5.79962544386673
 20
-0.2632458920231924
 30
0.0
 11
5.79962544386673
 21
-0.3017074304847308
 31
0.0
  0
LINE
  5
1EA
330
A
100
AcDbEntity
  8
1
  6
solid
 62
     0
100
AcDbLine
 10
5.79962544386673
 20
-0.3017074304847308
 30
0.0
 11
5.824625443866731
 21
-0.3017074304847308
 31
0.0
  0
LINE
  5
1EB
330
A
100
AcDbEntity
  8
1
  6
solid
 62
     0
100
AcDbLine
 10
5.824625443866731
 20
-0.3017074304847308
 30
0.0
 11
5.824625443866731
 21
-0.2632458920231924
 31
0.0
  0
LINE
  5
1EC
330
A
100
AcDbEntity
  8
1
  6
solid
 62
     0
100
AcDbLine
 10
5.824625443866731
 20
-0.2632458920231924
 30
0.0
 11
5.830997992886338
 21
-0.2632458920231924
 31
0.0
  0
LINE
  5
1ED
330
A
100
AcDbEntity
  8
1
  6
solid
 62
     0
100
AcDbLine
 10
5.830997992886338
 20
-0.2632458920231924
 30
0.0
 11
5.830997992886338
 21
-0.2271881997155001
 31
0.0
  0
LINE
  5
1EE
330
A
100
AcDbEntity
  8
1
  6
solid
 62
     0
100
AcDbLine
 10
5.830997992886338
 20
-0.2271881997155001
 30
0.0
 11
5.793252894847123
 21
-0.2271881997155001
 31
0.0
  0
LINE
  5
1EF
330
A
100
AcDbEntity
  8
1
  6
solid
 62
     0
100
AcDbLine
 10
4.533147325474139
 20
0.9405376191660117
 30
0.0
 11
4.533147325474139
 21
0.9729895422429347
 31
0.0
  0
LINE
  5
1F0
330
A
100
AcDbEntity
  8
1
  6
solid
 62
     0
100
AcDbLine
 10
4.533147325474139
 20
0.9729895422429347
 30
0.0
 11
4.556676737238845
 21
0.9729895422429347
 31
0.0
  0
LINE
  5
1F1
330
A
100
AcDbEntity
  8
1
  6
solid
 62
     0
100
AcDbLine
 10
4.556676737238845
 20
0.9729895422429347
 30
0.0
 11
4.556676737238845
 21
1.158085696089088
 31
0.0
  0
LINE
  5
1F2
330
A
100
AcDbEntity
  8
1
  6
solid
 62
     0
100
AcDbLine
 10
4.556676737238845
 20
1.158085696089088
 30
0.0
 11
4.533147325474139
 21
1.158085696089088
 31
0.0
  0
LINE
  5
1F3
330
A
100
AcDbEntity
  8
1
  6
solid
 62
     0
100
AcDbLine
 10
4.533147325474139
 20
1.158085696089088
 30
0.0
 11
4.533147325474139
 21
1.190537619166011
 31
0.0
  0
LINE
  5
1F4
330
A
100
AcDbEntity
  8
1
  6
solid
 62
     0
100
AcDbLine
 10
4.533147325474139
 20
1.190537619166011
 30
0.0
 11
4.604715952925119
 21
1.190537619166011
 31
0.0
  0
LINE
  5
1F5
330
A
100
AcDbEntity
  8
1
  6
solid
 62
     0
100
AcDbLine
 10
4.604715952925119
 20
1.190537619166011
 30
0.0
 11
4.604715952925119
 21
1.158085696089088
 31
0.0
  0
LINE
  5
1F6
330
A
100
AcDbEntity
  8
1
  6
solid
 62
     0
100
AcDbLine
 10
4.604715952925119
 20
1.158085696089088
 30
0.0
 11
4.584127717631002
 21
1.158085696089088
 31
0.0
  0
LINE
  5
1F7
330
A
100
AcDbEntity
  8
1
  6
solid
 62
     0
100
AcDbLine
 10
4.584127717631002
 20
1.158085696089088
 30
0.0
 11
4.584127717631002
 21
0.9729895422429347
 31
0.0
  0
LINE
  5
1F8
330
A
100
AcDbEntity
  8
1
  6
solid
 62
     0
100
AcDbLine
 10
4.584127717631002
 20
0.9729895422429347
 30
0.0
 11
4.634617913709433
 21
0.9729895422429347
 31
0.0
  0
LINE
  5
1F9
330
A
100
AcDbEntity
  8
1
  6
solid
 62
     0
100
AcDbLine
 10
4.634617913709433
 20
0.9729895422429347
 30
0.0
 11
4.634617913709433
 21
1.018662619166011
 31
0.0
  0
LINE
  5
1FA
330
A
100
AcDbEntity
  8
1
  6
solid
 62
     0
100
AcDbLine
 10
4.634617913709433
 20
1.018662619166011
 30
0.0
 11
4.658147325474139
 21
1.018662619166011
 31
0.0
  0
LINE
  5
1FB
330
A
100
AcDbEntity
  8
1
  6
solid
 62
     0
100
AcDbLine
 10
4.658147325474139
 20
1.018662619166011
 30
0.0
 11
4.658147325474139
 21
0.9405376191660117
 31
0.0
  0
LINE
  5
1FC
330
A
100
AcDbEntity
  8
1
  6
solid
 62
     0
100
AcDbLine
 10
4.658147325474139
 20
0.9405376191660117
 30
0.0
 11
4.533147325474139
 21
0.9405376191660117
 31
0.0
  0
LINE
  5
1FD
330
A
100
AcDbEntity
  8
1
  6
solid
 62
     0
100
AcDbLine
 10
4.700304188219237
 20
0.9405376191660117
 30
0.0
 11
4.700304188219237
 21
0.9729895422429347
 31
0.0
  0
LINE
  5
1FE
330
A
100
AcDbEntity
  8
1
  6
solid
 62
     0
100
AcDbLine
 10
4.700304188219237
 20
0.9729895422429347
 30
0.0
 11
4.727264972532963
 21
0.9729895422429347
 31
0.0
  0
LINE
  5
1FF
330
A
100
AcDbEntity
  8
1
  6
solid
 62
     0
100
AcDbLine
 10
4.727264972532963
 20
0.9729895422429347
 30
0.0
 11
4.727264972532963
 21
1.158085696089088
 31
0.0
  0
LINE
  5
200
330
A
100
AcDbEntity
  8
1
  6
solid
 62
     0
100
AcDbLine
 10
4.727264972532963
 20
1.158085696089088
 30
0.0
 11
4.698833599983943
 21
1.158085696089088
 31
0.0
  0
LINE
  5
201
330
A
100
AcDbEntity
  8
1
  6
solid
 62
     0
100
AcDbLine
 10
4.698833599983943
 20
1.158085696089088
 30
0.0
 11
4.698833599983943
 21
1.190537619166011
 31
0.0
  0
LINE
  5
202
330
A
100
AcDbEntity
  8
1
  6
solid
 62
     0
100
AcDbLine
 10
4.698833599983943
 20
1.190537619166011
 30
0.0
 11
4.762559090180022
 21
1.190537619166011
 31
0.0
  0
LINE
  5
203
330
A
100
AcDbEntity
  8
1
  6
solid
 62
     0
100
AcDbLine
 10
4.762559090180022
 20
1.190537619166011
 30
0.0
 11
4.762559090180022
 21
0.9729895422429347
 31
0.0
  0
LINE
  5
204
330
A
100
AcDbEntity
  8
1
  6
solid
 62
     0
100
AcDbLine
 10
4.762559090180022
 20
0.9729895422429347
 30
0.0
 11
4.792461050964336
 21
0.9729895422429347
 31
0.0
  0
LINE
  5
205
330
A
100
AcDbEntity
  8
1
  6
solid
 62
     0
100
AcDbLine
 10
4.792461050964336
 20
0.9729895422429347
 30
0.0
 11
4.792461050964336
 21
0.9405376191660117
 31
0.0
  0
LINE
  5
206
330
A
100
AcDbEntity
  8
1
  6
solid
 62
     0
100
AcDbLine
 10
4.792461050964336
 20
0.9405376191660117
 30
0.0
 11
4.700304188219237
 21
0.9405376191660117
 31
0.0
  0
LINE
  5
207
330
A
100
AcDbEntity
  8
1
  6
solid
 62
     0
100
AcDbLine
 10
4.850304188219237
 20
0.9405376191660117
 30
0.0
 11
4.850304188219237
 21
0.9729895422429347
 31
0.0
  0
LINE
  5
208
330
A
100
AcDbEntity
  8
1
  6
solid
 62
     0
100
AcDbLine
 10
4.850304188219237
 20
0.9729895422429347
 30
0.0
 11
4.877264972532962
 21
0.9729895422429347
 31
0.0
  0
LINE
  5
209
330
A
100
AcDbEntity
  8
1
  6
solid
 62
     0
100
AcDbLine
 10
4.877264972532962
 20
0.9729895422429347
 30
0.0
 11
4.877264972532962
 21
1.158085696089088
 31
0.0
  0
LINE
  5
20A
330
A
100
AcDbEntity
  8
1
  6
solid
 62
     0
100
AcDbLine
 10
4.877264972532962
 20
1.158085696089088
 30
0.0
 11
4.848833599983943
 21
1.158085696089088
 31
0.0
  0
LINE
  5
20B
330
A
100
AcDbEntity
  8
1
  6
solid
 62
     0
100
AcDbLine
 10
4.848833599983943
 20
1.158085696089088
 30
0.0
 11
4.848833599983943
 21
1.190537619166011
 31
0.0
  0
LINE
  5
20C
330
A
100
AcDbEntity
  8
1
  6
solid
 62
     0
100
AcDbLine
 10
4.848833599983943
 20
1.190537619166011
 30
0.0
 11
4.912559090180021
 21
1.190537619166011
 31
0.0
  0
LINE
  5
20D
330
A
100
AcDbEntity
  8
1
  6
solid
 62
     0
100
AcDbLine
 10
4.912559090180021
 20
1.190537619166011
 30
0.0
 11
4.912559090180021
 21
0.9729895422429347
 31
0.0
  0
LINE
  5
20E
330
A
100
AcDbEntity
  8
1
  6
solid
 62
     0
100
AcDbLine
 10
4.912559090180021
 20
0.9729895422429347
 30
0.0
 11
4.942461050964335
 21
0.9729895422429347
 31
0.0
  0
LINE
  5
20F
330
A
100
AcDbEntity
  8
1
  6
solid
 62
     0
100
AcDbLine
 10
4.942461050964335
 20
0.9729895422429347
 30
0.0
 11
4.942461050964335
 21
0.9405376191660117
 31
0.0
  0
LINE
  5
210
330
A
100
AcDbEntity
  8
1
  6
solid
 62
     0
100
AcDbLine
 10
4.942461050964335
 20
0.9405376191660117
 30
0.0
 11
4.850304188219237
 21
0.9405376191660117
 31
0.0
  0
LINE
  5
211
330
A
100
AcDbEntity
  8
1
  6
solid
 62
     0
100
AcDbLine
 10
5.051774776454531
 20
0.9405376191660117
 30
0.0
 11
5.064029678415316
 21
0.944143388396781
 31
0.0
  0
LINE
  5
212
330
A
100
AcDbEntity
  8
1
  6
solid
 62
     0
100
AcDbLine
 10
5.064029678415316
 20
0.944143388396781
 30
0.0
 11
5.076774776454532
 21
0.9513549268583194
 31
0.0
  0
LINE
  5
213
330
A
100
AcDbEntity
  8
1
  6
solid
 62
     0
100
AcDbLine
 10
5.076774776454532
 20
0.9513549268583194
 30
0.0
 11
5.084617913709434
 21
0.9573645422429347
 31
0.0
  0
LINE
  5
214
330
A
100
AcDbEntity
  8
1
  6
solid
 62
     0
100
AcDbLine
 10
5.084617913709434
 20
0.9573645422429347
 30
0.0
 11
5.092951247042766
 21
0.9681818499352424
 31
0.0
  0
LINE
  5
215
330
A
100
AcDbEntity
  8
1
  6
solid
 62
     0
100
AcDbLine
 10
5.092951247042766
 20
0.9681818499352424
 30
0.0
 11
5.098343403905512
 21
0.976595311473704
 31
0.0
  0
LINE
  5
216
330
A
100
AcDbEntity
  8
1
  6
solid
 62
     0
100
AcDbLine
 10
5.098343403905512
 20
0.976595311473704
 30
0.0
 11
5.104225756846688
 21
0.9886145422429349
 31
0.0
  0
LINE
  5
217
330
A
100
AcDbEntity
  8
1
  6
solid
 62
     0
100
AcDbLine
 10
5.104225756846688
 20
0.9886145422429349
 30
0.0
 11
5.108147325474139
 21
1.01024915762755
 31
0.0
  0
LINE
  5
218
330
A
100
AcDbEntity
  8
1
  6
solid
 62
     0
100
AcDbLine
 10
5.108147325474139
 20
1.01024915762755
 30
0.0
 11
5.108147325474139
 21
1.120826080704473
 31
0.0
  0
LINE
  5
219
330
A
100
AcDbEntity
  8
1
  6
solid
 62
     0
100
AcDbLine
 10
5.108147325474139
 20
1.120826080704473
 30
0.0
 11
5.105206149003551
 21
1.138854926858319
 31
0.0
  0
LINE
  5
21A
330
A
100
AcDbEntity
  8
1
  6
solid
 62
     0
100
AcDbLine
 10
5.105206149003551
 20
1.138854926858319
 30
0.0
 11
5.099813992140806
 21
1.152076080704473
 31
0.0
  0
LINE
  5
21B
330
A
100
AcDbEntity
  8
1
  6
solid
 62
     0
100
AcDbLine
 10
5.099813992140806
 20
1.152076080704473
 30
0.0
 11
5.092951247042766
 21
1.16289338839678
 31
0.0
  0
LINE
  5
21C
330
A
100
AcDbEntity
  8
1
  6
solid
 62
     0
100
AcDbLine
 10
5.092951247042766
 20
1.16289338839678
 30
0.0
 11
5.086088501944727
 21
1.173710696089088
 31
0.0
  0
LINE
  5
21D
330
A
100
AcDbEntity
  8
1
  6
solid
 62
     0
100
AcDbLine
 10
5.086088501944727
 20
1.173710696089088
 30
0.0
 11
5.077755168611394
 21
1.179720311473704
 31
0.0
  0
LINE
  5
21E
330
A
100
AcDbEntity
  8
1
  6
solid
 62
     0
100
AcDbLine
 10
5.077755168611394
 20
1.179720311473704
 30
0.0
 11
5.068441443121198
 21
1.185729926858319
 31
0.0
  0
LINE
  5
21F
330
A
100
AcDbEntity
  8
1
  6
solid
 62
     0
100
AcDbLine
 10
5.068441443121198
 20
1.185729926858319
 30
0.0
 11
5.060108109787865
 21
1.189335696089088
 31
0.0
  0
LINE
  5
220
330
A
100
AcDbEntity
  8
1
  6
solid
 62
     0
100
AcDbLine
 10
5.060108109787865
 20
1.189335696089088
 30
0.0
 11
5.051774776454531
 21
1.190537619166011
 31
0.0
  0
LINE
  5
221
330
A
100
AcDbEntity
  8
1
  6
solid
 62
     0
100
AcDbLine
 10
5.051774776454531
 20
1.190537619166011
 30
0.0
 11
5.036578698023159
 21
1.190537619166011
 31
0.0
  0
LINE
  5
222
330
A
100
AcDbEntity
  8
1
  6
solid
 62
     0
100
AcDbLine
 10
5.036578698023159
 20
1.190537619166011
 30
0.0
 11
5.02285320782708
 21
1.185729926858319
 31
0.0
  0
LINE
  5
223
330
A
100
AcDbEntity
  8
1
  6
solid
 62
     0
100
AcDbLine
 10
5.02285320782708
 20
1.185729926858319
 30
0.0
 11
5.014519874493747
 21
1.179720311473704
 31
0.0
  0
LINE
  5
224
330
A
100
AcDbEntity
  8
1
  6
solid
 62
     0
100
AcDbLine
 10
5.014519874493747
 20
1.179720311473704
 30
0.0
 11
5.006676737238845
 21
1.173710696089088
 31
0.0
  0
LINE
  5
225
330
A
100
AcDbEntity
  8
1
  6
solid
 62
     0
100
AcDbLine
 10
5.006676737238845
 20
1.173710696089088
 30
0.0
 11
4.999813992140806
 21
1.164095311473704
 31
0.0
  0
LINE
  5
226
330
A
100
AcDbEntity
  8
1
  6
solid
 62
     0
100
AcDbLine
 10
4.999813992140806
 20
1.164095311473704
 30
0.0
 11
4.992951247042767
 21
1.154479926858319
 31
0.0
  0
LINE
  5
227
330
A
100
AcDbEntity
  8
1
  6
solid
 62
     0
100
AcDbLine
 10
4.992951247042767
 20
1.154479926858319
 30
0.0
 11
4.98706889410159
 21
1.142460696089088
 31
0.0
  0
LINE
  5
228
330
A
100
AcDbEntity
  8
1
  6
solid
 62
     0
100
AcDbLine
 10
4.98706889410159
 20
1.142460696089088
 30
0.0
 11
4.984617913709433
 21
1.129239542242934
 31
0.0
  0
LINE
  5
229
330
A
100
AcDbEntity
  8
1
  6
solid
 62
     0
100
AcDbLine
 10
4.984617913709433
 20
1.129239542242934
 30
0.0
 11
4.983147325474139
 21
1.112412619166011
 31
0.0
  0
LINE
  5
22A
330
A
100
AcDbEntity
  8
1
  6
solid
 62
     0
100
AcDbLine
 10
4.983147325474139
 20
1.112412619166011
 30
0.0
 11
4.983147325474139
 21
1.019864542242934
 31
0.0
  0
LINE
  5
22B
330
A
100
AcDbEntity
  8
1
  6
solid
 62
     0
100
AcDbLine
 10
4.983147325474139
 20
1.019864542242934
 30
0.0
 11
4.984617913709433
 21
1.001835696089088
 31
0.0
  0
LINE
  5
22C
330
A
100
AcDbEntity
  8
1
  6
solid
 62
     0
100
AcDbLine
 10
4.984617913709433
 20
1.001835696089088
 30
0.0
 11
4.988539482336884
 21
0.9874126191660117
 31
0.0
  0
LINE
  5
22D
330
A
100
AcDbEntity
  8
1
  6
solid
 62
     0
100
AcDbLine
 10
4.988539482336884
 20
0.9874126191660117
 30
0.0
 11
4.995402227434923
 21
0.9729895422429347
 31
0.0
  0
LINE
  5
22E
330
A
100
AcDbEntity
  8
1
  6
solid
 62
     0
100
AcDbLine
 10
4.995402227434923
 20
0.9729895422429347
 30
0.0
 11
5.000794384297669
 21
0.9633741576275502
 31
0.0
  0
LINE
  5
22F
330
A
100
AcDbEntity
  8
1
  6
solid
 62
     0
100
AcDbLine
 10
5.000794384297669
 20
0.9633741576275502
 30
0.0
 11
5.01206889410159
 21
0.9525568499352424
 31
0.0
  0
LINE
  5
230
330
A
100
AcDbEntity
  8
1
  6
solid
 62
     0
100
AcDbLine
 10
5.01206889410159
 20
0.9525568499352424
 30
0.0
 11
5.02285320782708
 21
0.945345311473704
 31
0.0
  0
LINE
  5
231
330
A
100
AcDbEntity
  8
1
  6
solid
 62
     0
100
AcDbLine
 10
5.02285320782708
 20
0.945345311473704
 30
0.0
 11
5.039519874493747
 21
0.9405376191660117
 31
0.0
  0
LINE
  5
232
330
A
100
AcDbEntity
  8
1
  6
solid
 62
     0
100
AcDbLine
 10
5.039519874493747
 20
0.9405376191660117
 30
0.0
 11
5.051774776454531
 21
0.9405376191660117
 31
0.0
  0
LINE
  5
233
330
A
100
AcDbEntity
  8
1
  6
solid
 62
     0
100
AcDbLine
 10
5.084617913709434
 20
1.117220311473704
 30
0.0
 11
5.080696345081983
 21
1.132845311473704
 31
0.0
  0
LINE
  5
234
330
A
100
AcDbEntity
  8
1
  6
solid
 62
     0
100
AcDbLine
 10
5.080696345081983
 20
1.132845311473704
 30
0.0
 11
5.076774776454532
 21
1.142460696089088
 31
0.0
  0
LINE
  5
235
330
A
100
AcDbEntity
  8
1
  6
solid
 62
     0
100
AcDbLine
 10
5.076774776454532
 20
1.142460696089088
 30
0.0
 11
5.070892423513355
 21
1.148470311473704
 31
0.0
  0
LINE
  5
236
330
A
100
AcDbEntity
  8
1
  6
solid
 62
     0
100
AcDbLine
 10
5.070892423513355
 20
1.148470311473704
 30
0.0
 11
5.064029678415316
 21
1.155681849935242
 31
0.0
  0
LINE
  5
237
330
A
100
AcDbEntity
  8
1
  6
solid
 62
     0
100
AcDbLine
 10
5.064029678415316
 20
1.155681849935242
 30
0.0
 11
5.054715952925119
 21
1.159287619166011
 31
0.0
  0
LINE
  5
238
330
A
100
AcDbEntity
  8
1
  6
solid
 62
     0
100
AcDbLine
 10
5.054715952925119
 20
1.159287619166011
 30
0.0
 11
5.046382619591787
 21
1.160489542242934
 31
0.0
  0
LINE
  5
239
330
A
100
AcDbEntity
  8
1
  6
solid
 62
     0
100
AcDbLine
 10
5.046382619591787
 20
1.160489542242934
 30
0.0
 11
5.041970854885904
 21
1.160489542242934
 31
0.0
  0
LINE
  5
23A
330
A
100
AcDbEntity
  8
1
  6
solid
 62
     0
100
AcDbLine
 10
5.041970854885904
 20
1.160489542242934
 30
0.0
 11
5.034127717631002
 21
1.159287619166011
 31
0.0
  0
LINE
  5
23B
330
A
100
AcDbEntity
  8
1
  6
solid
 62
     0
100
AcDbLine
 10
5.034127717631002
 20
1.159287619166011
 30
0.0
 11
5.025794384297668
 21
1.154479926858319
 31
0.0
  0
LINE
  5
23C
330
A
100
AcDbEntity
  8
1
  6
solid
 62
     0
100
AcDbLine
 10
5.025794384297668
 20
1.154479926858319
 30
0.0
 11
5.018931639199629
 21
1.14726838839678
 31
0.0
  0
LINE
  5
23D
330
A
100
AcDbEntity
  8
1
  6
solid
 62
     0
100
AcDbLine
 10
5.018931639199629
 20
1.14726838839678
 30
0.0
 11
5.013539482336884
 21
1.138854926858319
 31
0.0
  0
LINE
  5
23E
330
A
100
AcDbEntity
  8
1
  6
solid
 62
     0
100
AcDbLine
 10
5.013539482336884
 20
1.138854926858319
 30
0.0
 11
5.009127717631002
 21
1.129239542242934
 31
0.0
  0
LINE
  5
23F
330
A
100
AcDbEntity
  8
1
  6
solid
 62
     0
100
AcDbLine
 10
5.009127717631002
 20
1.129239542242934
 30
0.0
 11
5.006676737238845
 21
1.113614542242934
 31
0.0
  0
LINE
  5
240
330
A
100
AcDbEntity
  8
1
  6
solid
 62
     0
100
AcDbLine
 10
5.006676737238845
 20
1.113614542242934
 30
0.0
 11
5.006676737238845
 21
1.02226838839678
 31
0.0
  0
LINE
  5
241
330
A
100
AcDbEntity
  8
1
  6
solid
 62
     0
100
AcDbLine
 10
5.006676737238845
 20
1.02226838839678
 30
0.0
 11
5.007657129395708
 21
1.00664338839678
 31
0.0
  0
LINE
  5
242
330
A
100
AcDbEntity
  8
1
  6
solid
 62
     0
100
AcDbLine
 10
5.007657129395708
 20
1.00664338839678
 30
0.0
 11
5.01206889410159
 21
0.9946241576275502
 31
0.0
  0
LINE
  5
243
330
A
100
AcDbEntity
  8
1
  6
solid
 62
     0
100
AcDbLine
 10
5.01206889410159
 20
0.9946241576275502
 30
0.0
 11
5.018931639199629
 21
0.9838068499352424
 31
0.0
  0
LINE
  5
244
330
A
100
AcDbEntity
  8
1
  6
solid
 62
     0
100
AcDbLine
 10
5.018931639199629
 20
0.9838068499352424
 30
0.0
 11
5.027264972532963
 21
0.976595311473704
 31
0.0
  0
LINE
  5
245
330
A
100
AcDbEntity
  8
1
  6
solid
 62
     0
100
AcDbLine
 10
5.027264972532963
 20
0.976595311473704
 30
0.0
 11
5.035108109787865
 21
0.9717876191660117
 31
0.0
  0
LINE
  5
246
330
A
100
AcDbEntity
  8
1
  6
solid
 62
     0
100
AcDbLine
 10
5.035108109787865
 20
0.9717876191660117
 30
0.0
 11
5.041970854885904
 21
0.9705856960890885
 31
0.0
  0
LINE
  5
247
330
A
100
AcDbEntity
  8
1
  6
solid
 62
     0
100
AcDbLine
 10
5.041970854885904
 20
0.9705856960890885
 30
0.0
 11
5.046382619591787
 21
0.9705856960890885
 31
0.0
  0
LINE
  5
248
330
A
100
AcDbEntity
  8
1
  6
solid
 62
     0
100
AcDbLine
 10
5.046382619591787
 20
0.9705856960890885
 30
0.0
 11
5.057166933317276
 21
0.9717876191660117
 31
0.0
  0
LINE
  5
249
330
A
100
AcDbEntity
  8
1
  6
solid
 62
     0
100
AcDbLine
 10
5.057166933317276
 20
0.9717876191660117
 30
0.0
 11
5.06550026665061
 21
0.976595311473704
 31
0.0
  0
LINE
  5
24A
330
A
100
AcDbEntity
  8
1
  6
solid
 62
     0
100
AcDbLine
 10
5.06550026665061
 20
0.976595311473704
 30
0.0
 11
5.072363011748649
 21
0.9838068499352424
 31
0.0
  0
LINE
  5
24B
330
A
100
AcDbEntity
  8
1
  6
solid
 62
     0
100
AcDbLine
 10
5.072363011748649
 20
0.9838068499352424
 30
0.0
 11
5.079225756846688
 21
0.9946241576275502
 31
0.0
  0
LINE
  5
24C
330
A
100
AcDbEntity
  8
1
  6
solid
 62
     0
100
AcDbLine
 10
5.079225756846688
 20
0.9946241576275502
 30
0.0
 11
5.083637521552571
 21
1.004239542242934
 31
0.0
  0
LINE
  5
24D
330
A
100
AcDbEntity
  8
1
  6
solid
 62
     0
100
AcDbLine
 10
5.083637521552571
 20
1.004239542242934
 30
0.0
 11
5.084617913709434
 21
1.019864542242934
 31
0.0
  0
LINE
  5
24E
330
A
100
AcDbEntity
  8
1
  6
solid
 62
     0
100
AcDbLine
 10
5.084617913709434
 20
1.019864542242934
 30
0.0
 11
5.084617913709434
 21
1.117220311473704
 31
0.0
  0
LINE
  5
24F
330
A
100
AcDbEntity
  8
1
  6
solid
 62
     0
100
AcDbLine
 10
5.133147325474139
 20
0.9405376191660117
 30
0.0
 11
5.133147325474139
 21
0.9729895422429347
 31
0.0
  0
LINE
  5
250
330
A
100
AcDbEntity
  8
1
  6
solid
 62
     0
100
AcDbLine
 10
5.133147325474139
 20
0.9729895422429347
 30
0.0
 11
5.147363011748649
 21
0.9729895422429347
 31
0.0
  0
LINE
  5
251
330
A
100
AcDbEntity
  8
1
  6
solid
 62
     0
100
AcDbLine
 10
5.147363011748649
 20
0.9729895422429347
 30
0.0
 11
5.182657129395708
 21
1.158085696089088
 31
0.0
  0
LINE
  5
252
330
A
100
AcDbEntity
  8
1
  6
solid
 62
     0
100
AcDbLine
 10
5.182657129395708
 20
1.158085696089088
 30
0.0
 11
5.167461050964336
 21
1.158085696089088
 31
0.0
  0
LINE
  5
253
330
A
100
AcDbEntity
  8
1
  6
solid
 62
     0
100
AcDbLine
 10
5.167461050964336
 20
1.158085696089088
 30
0.0
 11
5.167461050964336
 21
1.190537619166011
 31
0.0
  0
LINE
  5
254
330
A
100
AcDbEntity
  8
1
  6
solid
 62
     0
100
AcDbLine
 10
5.167461050964336
 20
1.190537619166011
 30
0.0
 11
5.203245364689825
 21
1.190537619166011
 31
0.0
  0
LINE
  5
255
330
A
100
AcDbEntity
  8
1
  6
solid
 62
     0
100
AcDbLine
 10
5.203245364689825
 20
1.190537619166011
 30
0.0
 11
5.243441443121198
 21
0.9729895422429347
 31
0.0
  0
LINE
  5
256
330
A
100
AcDbEntity
  8
1
  6
solid
 62
     0
100
AcDbLine
 10
5.243441443121198
 20
0.9729895422429347
 30
0.0
 11
5.258147325474139
 21
0.9729895422429347
 31
0.0
  0
LINE
  5
257
330
A
100
AcDbEntity
  8
1
  6
solid
 62
     0
100
AcDbLine
 10
5.258147325474139
 20
0.9729895422429347
 30
0.0
 11
5.258147325474139
 21
0.9405376191660117
 31
0.0
  0
LINE
  5
258
330
A
100
AcDbEntity
  8
1
  6
solid
 62
     0
100
AcDbLine
 10
5.258147325474139
 20
0.9405376191660117
 30
0.0
 11
5.213539482336885
 21
0.9405376191660117
 31
0.0
  0
LINE
  5
259
330
A
100
AcDbEntity
  8
1
  6
solid
 62
     0
100
AcDbLine
 10
5.213539482336885
 20
0.9405376191660117
 30
0.0
 11
5.213539482336885
 21
0.9729895422429347
 31
0.0
  0
LINE
  5
25A
330
A
100
AcDbEntity
  8
1
  6
solid
 62
     0
100
AcDbLine
 10
5.213539482336885
 20
0.9729895422429347
 30
0.0
 11
5.225304188219237
 21
0.9729895422429347
 31
0.0
  0
LINE
  5
25B
330
A
100
AcDbEntity
  8
1
  6
solid
 62
     0
100
AcDbLine
 10
5.225304188219237
 20
0.9729895422429347
 30
0.0
 11
5.216970854885904
 21
1.015056849935242
 31
0.0
  0
LINE
  5
25C
330
A
100
AcDbEntity
  8
1
  6
solid
 62
     0
100
AcDbLine
 10
5.216970854885904
 20
1.015056849935242
 30
0.0
 11
5.17285320782708
 21
1.015056849935242
 31
0.0
  0
LINE
  5
25D
330
A
100
AcDbEntity
  8
1
  6
solid
 62
     0
100
AcDbLine
 10
5.17285320782708
 20
1.015056849935242
 30
0.0
 11
5.164519874493747
 21
0.9729895422429347
 31
0.0
  0
LINE
  5
25E
330
A
100
AcDbEntity
  8
1
  6
solid
 62
     0
100
AcDbLine
 10
5.164519874493747
 20
0.9729895422429347
 30
0.0
 11
5.177755168611394
 21
0.9729895422429347
 31
0.0
  0
LINE
  5
25F
330
A
100
AcDbEntity
  8
1
  6
solid
 62
     0
100
AcDbLine
 10
5.177755168611394
 20
0.9729895422429347
 30
0.0
 11
5.177755168611394
 21
0.9405376191660117
 31
0.0
  0
LINE
  5
260
330
A
100
AcDbEntity
  8
1
  6
solid
 62
     0
100
AcDbLine
 10
5.177755168611394
 20
0.9405376191660117
 30
0.0
 11
5.133147325474139
 21
0.9405376191660117
 31
0.0
  0
LINE
  5
261
330
A
100
AcDbEntity
  8
1
  6
solid
 62
     0
100
AcDbLine
 10
5.178245364689825
 20
1.045104926858319
 30
0.0
 11
5.194912031356492
 21
1.134047234550627
 31
0.0
  0
LINE
  5
262
330
A
100
AcDbEntity
  8
1
  6
solid
 62
     0
100
AcDbLine
 10
5.194912031356492
 20
1.134047234550627
 30
0.0
 11
5.21206889410159
 21
1.045104926858319
 31
0.0
  0
LINE
  5
263
330
A
100
AcDbEntity
  8
1
  6
solid
 62
     0
100
AcDbLine
 10
5.21206889410159
 20
1.045104926858319
 30
0.0
 11
5.178245364689825
 21
1.045104926858319
 31
0.0
  0
LINE
  5
2D6
330
A
100
AcDbEntity
  8
1
  6
solid
 62
     0
370
     0
100
AcDbLine
 10
10.42830887402831
 20
0.0
 30
0.0
 11
10.90652355799252
 21
0.0
 31
0.0
  0
LINE
  5
2D7
330
A
100
AcDbEntity
  8
1
  6
solid
 62
     0
370
     0
100
AcDbLine
 10
10.42830887402831
 20
2.625
 30
0.0
 11
10.90652355799252
 21
2.625
 31
0.0
  0
LINE
  5
2D8
330
A
100
AcDbEntity
  8
1
  6
solid
 62
     0
370
     0
100
AcDbLine
 10
10.78152355799252
 20
0.0
 30
0.0
 11
10.78152355799252
 21
1.052687499999999
 31
0.0
  0
LINE
  5
2D9
330
A
100
AcDbEntity
  8
1
  6
solid
 62
     0
370
     0
100
AcDbLine
 10
10.78152355799252
 20
2.625
 30
0.0
 11
10.78152355799252
 21
1.5723125
 31
0.0
  0
MTEXT
  5
2DA
330
A
100
AcDbEntity
  8
1
  6
solid
 62
     0
370
     0
100
AcDbMText
 10
10.78152355799252
 20
1.3125
 30
0.0
 40
0.25
 41
0.0
 71
     5
 72
     1
  1
{\H0.250000;2 5/8}
 73
     1
 44
1.0
  0
SOLID
  5
2DB
330
A
100
AcDbEntity
  8
1
  6
solid
 62
     0
370
     0
100
AcDbTrace
 10
10.73989855799251
 20
0.25
 30
0.0
 11
10.82314855799252
 21
0.25
 31
0.0
 12
10.78152355799252
 22
0.0
 32
0.0
 13
10.78152355799252
 23
0.0
 33
0.0
  0
SOLID
  5
2DC
330
A
100
AcDbEntity
  8
1
  6
solid
 62
     0
370
     0
100
AcDbTrace
 10
10.82314855799252
 20
2.374999999999999
 30
0.0
 11
10.73989855799252
 21
2.375
 31
0.0
 12
10.78152355799252
 22
2.625
 32
0.0
 13
10.78152355799252
 23
2.625
 33
0.0
  0
VIEWPORT
  5
2C2
102
{ACAD_XDICTIONARY
360
2C3
102
}
330
B
100
AcDbEntity
 67
     1
  8
0
  6
Continuous
370
     0
100
AcDbViewport
 10
5.171905305196538
 20
3.9681931355475
 30
0.0
 40
16.99659283974028
 41
8.992999745766949
 68
     1
 69
     1
 12
5.171905305196538
 22
3.9681931355475
 13
0.0
 23
0.0
 14
0.5
 24
0.5
 15
0.5
 25
0.5
 16
0.0
 26
0.0
 36
1.0
 17
0.0
 27
0.0
 37
0.0
 42
50.0
 43
0.0
 44
0.0
 45
8.992999745766949
 50
0.0
 51
0.0
 72
   100
 90
   819232
  1

281
     0
 71
     1
 74
     0
110
0.0
120
0.0
130
0.0
111
1.0
121
0.0
131
0.0
112
0.0
122
1.0
132
0.0
 79
     0
146
0.0
170
     0
  0
VIEWPORT
  5
2C7
102
{ACAD_XDICTIONARY
360
2C8
102
}
330
B
100
AcDbEntity
 67
     1
  8
0
  6
Continuous
370
     0
100
AcDbViewport
 10
5.092481985958215
 20
4.056359789153894
 30
0.0
 40
10.36033233889952
 41
7.98789979236939
 68
     2
 69
     2
 12
5.500815804036108
 22
1.195358821970862
 13
0.0
 23
0.0
 14
1.0
 24
1.0
 15
0.0
 25
0.0
 16
0.0
 26
0.0
 36
1.0
 17
0.0
 27
0.0
 37
0.0
 42
50.0
 43
0.0
 44
0.0
 45
10.96926814480183
 50
0.0
 51
0.0
 72
   100
 90
   819232
  1

281
     0
 71
     1
 74
     0
110
0.0
120
0.0
130
0.0
111
1.0
121
0.0
131
0.0
112
0.0
122
1.0
132
0.0
 79
     0
146
0.0
170
     0
  0
ENDSEC
  0
SECTION
  2
OBJECTS
  0
DICTIONARY
  5
19
330
0
100
AcDbDictionary
281
     1
  3
ACAD_COLOR
350
266
  3
ACAD_GROUP
350
1A
  3
ACAD_LAYOUT
350
1E
  3
ACAD_MATERIAL
350
265
  3
ACAD_MLEADERSTYLE
350
2BA
  3
ACAD_MLINESTYLE
350
1B
  3
ACAD_PLOTSETTINGS
350
22
  3
ACAD_PLOTSTYLENAME
350
1F
  3
ACAD_SCALELIST
350
298
  3
ACAD_TABLESTYLE
350
267
  3
ACAD_VISUALSTYLE
350
287
  3
ACAD_WIPEOUT_VARS
350
23
  3
ACDB_RECOMPOSE_DATA
350
2F0
  3
AcDbVariableDictionary
350
26C
  0
DICTIONARY
  5
2CA
330
14
100
AcDbDictionary
280
     1
281
     1
  3
ADSK_XREC_LAYER_RECONCILED
360
2CB
  0
DICTIONARY
  5
2CC
330
27
100
AcDbDictionary
280
     1
281
     1
  3
ADSK_XREC_LAYER_RECONCILED
360
2CD
  0
DICTIONARY
  5
2DD
330
A
100
AcDbDictionary
280
     1
281
     1
  3
ACAD_SORTENTS
360
2DE
  0
DICTIONARY
  5
2C3
330
2C2
100
AcDbDictionary
280
     1
281
     1
  3
ASDK_XREC_ANNOTATION_SCALE_INFO
360
2C4
  0
DICTIONARY
  5
2C8
330
2C7
100
AcDbDictionary
280
     1
281
     1
  3
ASDK_XREC_ANNOTATION_SCALE_INFO
360
2C9
  0
DICTIONARY
  5
266
102
{ACAD_REACTORS
330
19
102
}
330
19
100
AcDbDictionary
281
     1
  0
DICTIONARY
  5
1A
102
{ACAD_REACTORS
330
19
102
}
330
19
100
AcDbDictionary
281
     1
  0
DICTIONARY
  5
1E
102
{ACAD_REACTORS
330
19
102
}
330
19
100
AcDbDictionary
281
     1
  3
Layout1
350
21
  3
Model
350
20
  0
DICTIONARY
  5
265
102
{ACAD_REACTORS
330
19
102
}
330
19
100
AcDbDictionary
281
     1
  3
ByBlock
350
277
  3
ByLayer
350
26F
  3
Global
350
27F
  0
DICTIONARY
  5
2BA
102
{ACAD_REACTORS
330
19
102
}
330
19
100
AcDbDictionary
281
     1
  3
Standard
350
2BB
  0
DICTIONARY
  5
1B
102
{ACAD_REACTORS
330
19
102
}
330
19
100
AcDbDictionary
281
     1
  3
Standard
350
1C
  0
DICTIONARY
  5
22
102
{ACAD_REACTORS
330
19
102
}
330
19
100
AcDbDictionary
281
     1
  0
ACDBDICTIONARYWDFLT
  5
1F
102
{ACAD_REACTORS
330
19
102
}
330
19
100
AcDbDictionary
281
     1
  3
Normal
350
1D
100
AcDbDictionaryWithDefault
340
1D
  0
DICTIONARY
  5
298
102
{ACAD_REACTORS
330
19
102
}
330
19
100
AcDbDictionary
281
     1
  3
A0
350
299
  3
A1
350
29A
  3
A2
350
29B
  3
A3
350
29C
  3
A4
350
29D
  3
A5
350
29E
  3
A6
350
29F
  3
A7
350
2A0
  3
A8
350
2A1
  3
A9
350
2A2
  3
B0
350
2A3
  3
B1
350
2A4
  3
B2
350
2A5
  3
B3
350
2A6
  3
B4
350
2A7
  3
B5
350
2A8
  3
B6
350
2A9
  3
B7
350
2AA
  3
B8
350
2AB
  3
B9
350
2AC
  3
C0
350
2AD
  3
C1
350
2AE
  3
C2
350
2AF
  3
C3
350
2B0
  3
C4
350
2B1
  3
C5
350
2B2
  3
C6
350
2B3
  3
C7
350
2B4
  3
C8
350
2B5
  3
C9
350
2B6
  3
D0
350
2B7
  3
D1
350
2B8
  3
D2
350
2B9
  0
DICTIONARY
  5
267
102
{ACAD_REACTORS
330
19
102
}
330
19
100
AcDbDictionary
281
     1
  3
Standard
350
268
  0
DICTIONARY
  5
287
102
{ACAD_REACTORS
330
19
102
}
330
19
100
AcDbDictionary
281
     1
  3
2dWireframe
350
28D
  3
3D Hidden
350
28F
  3
3dWireframe
350
28E
  3
Basic
350
28C
  3
Brighten
350
293
  3
ColorChange
350
297
  3
Conceptual
350
290
  3
Dim
350
292
  3
Facepattern
350
296
  3
Flat
350
288
  3
FlatWithEdges
350
289
  3
Gouraud
350
28A
  3
GouraudWithEdges
350
28B
  3
Linepattern
350
295
  3
Realistic
350
291
  3
Thicken
350
294
  0
WIPEOUTVARIABLES
  5
23
330
19
100
AcDbWipeoutVariables
 70
     1
  0
XRECORD
  5
2F0
102
{ACAD_REACTORS
330
19
102
}
330
19
100
AcDbXrecord
280
     1
 90
        1
330
268
  0
DICTIONARY
  5
26C
102
{ACAD_REACTORS
330
19
102
}
330
19
100
AcDbDictionary
281
     1
  3
CANNOSCALE
350
2ED
  3
CMLEADERSTYLE
350
2EC
  3
CTABLESTYLE
350
26D
  0
XRECORD
  5
2CB
102
{ACAD_REACTORS
330
2CA
102
}
330
2CA
100
AcDbXrecord
280
     1
290
     1
  0
XRECORD
  5
2CD
102
{ACAD_REACTORS
330
2CC
102
}
330
2CC
100
AcDbXrecord
280
     1
290
     1
  0
SORTENTSTABLE
  5
2DE
102
{ACAD_REACTORS
330
2DD
102
}
330
2DD
100
AcDbSortentsTable
330
A
331
1E0
  5
1E7
331
25A
  5
261
331
202
  5
209
331
F1
  5
F8
331
224
  5
22B
331
113
  5
11A
331
43
  5
4A
331
246
  5
24D
331
135
  5
13C
331
171
  5
178
331
82
  5
89
331
193
  5
19A
331
1B5
  5
1BC
331
A4
  5
AB
331
1D7
  5
1DE
331
1F1
  5
1F8
331
E8
  5
EF
331
213
  5
21A
331
235
  5
23C
331
124
  5
12B
331
54
  5
5B
331
102
  5
109
331
C6
  5
CD
331
2DA
  5
41
331
157
  5
15E
331
257
  5
25E
331
146
  5
14D
331
1A4
  5
1AB
331
93
  5
9A
331
1C6
  5
1CD
331
D7
  5
DE
331
B5
  5
BC
331
182
  5
189
331
76
  5
7D
331
65
  5
6C
331
258
  5
25F
331
200
  5
207
331
222
  5
229
331
111
  5
118
331
41
  5
48
331
244
  5
24B
331
133
  5
13A
331
16F
  5
176
331
80
  5
87
331
191
  5
198
331
1B3
  5
1BA
331
A2
  5
A9
331
1D5
  5
1DC
331
1EF
  5
1F6
331
E6
  5
ED
331
C4
  5
CB
331
2D8
  5
3F
331
155
  5
15C
331
63
  5
6A
331
211
  5
218
331
100
  5
107
331
233
  5
23A
331
122
  5
129
331
52
  5
59
331
255
  5
25C
331
144
  5
14B
331
180
  5
187
331
1A2
  5
1A9
331
91
  5
98
331
1C4
  5
1CB
331
D5
  5
DC
331
B3
  5
BA
331
166
  5
16D
331
74
  5
7B
331
30
  5
30
331
220
  5
227
331
242
  5
249
331
131
  5
138
331
61
  5
68
331
16D
  5
174
331
7E
  5
85
331
18F
  5
196
331
1B1
  5
1B8
331
A0
  5
A7
331
1D3
  5
1DA
331
1ED
  5
1F4
331
E4
  5
EB
331
C2
  5
C9
331
2D6
  5
3D
331
153
  5
15A
331
20F
  5
216
331
FE
  5
105
331
231
  5
238
331
120
  5
127
331
50
  5
57
331
253
  5
25A
331
142
  5
149
331
17E
  5
185
331
1A0
  5
1A7
331
8F
  5
96
331
1C2
  5
1C9
331
1FE
  5
205
331
D3
  5
DA
331
10F
  5
116
331
3F
  5
46
331
B1
  5
B8
331
164
  5
16B
331
72
  5
79
331
2E
  5
2E
331
240
  5
247
331
16B
  5
172
331
151
  5
158
331
18D
  5
194
331
7C
  5
83
331
1AF
  5
1B6
331
1D1
  5
1D8
331
C0
  5
C7
331
1EB
  5
1F2
331
E2
  5
E9
331
9E
  5
A5
331
20D
  5
214
331
FC
  5
103
331
22F
  5
236
331
11E
  5
125
331
4E
  5
55
331
251
  5
258
331
140
  5
147
331
17C
  5
183
331
19E
  5
1A5
331
8D
  5
94
331
1C0
  5
1C7
331
1FC
  5
203
331
D1
  5
D8
331
21E
  5
225
331
10D
  5
114
331
3D
  5
44
331
AF
  5
B6
331
162
  5
169
331
70
  5
77
331
12F
  5
136
331
5F
  5
66
331
2C
  5
2C
331
169
  5
170
331
18B
  5
192
331
7A
  5
81
331
1AD
  5
1B4
331
1CF
  5
1D6
331
BE
  5
C5
331
1E9
  5
1F0
331
E0
  5
E7
331
9C
  5
A3
331
263
  5
2DC
331
20B
  5
212
331
FA
  5
101
331
22D
  5
234
331
11C
  5
123
331
4C
  5
53
331
24F
  5
256
331
13E
  5
145
331
17A
  5
181
331
19C
  5
1A3
331
8B
  5
92
331
1BE
  5
1C5
331
1FA
  5
201
331
CF
  5
D6
331
21C
  5
223
331
23E
  5
245
331
12D
  5
134
331
5D
  5
64
331
10B
  5
112
331
AD
  5
B4
331
160
  5
167
331
14F
  5
156
331
6E
  5
75
331
2A
  5
2A
331
189
  5
190
331
78
  5
7F
331
1AB
  5
1B2
331
9A
  5
A1
331
1CD
  5
1D4
331
1E7
  5
1EE
331
DE
  5
E5
331
BC
  5
C3
331
261
  5
2DA
331
209
  5
210
331
F8
  5
FF
331
22B
  5
232
331
11A
  5
121
331
4A
  5
51
331
24D
  5
254
331
13C
  5
143
331
178
  5
17F
331
19A
  5
1A1
331
89
  5
90
331
1BC
  5
1C3
331
1DE
  5
1E5
331
CD
  5
D4
331
1F8
  5
1FF
331
21A
  5
221
331
109
  5
110
331
23C
  5
243
331
12B
  5
132
331
5B
  5
62
331
EF
  5
F6
331
AB
  5
B2
331
15E
  5
165
331
14D
  5
154
331
6C
  5
73
331
28
  5
28
331
1A9
  5
1B0
331
98
  5
9F
331
1CB
  5
1D2
331
BA
  5
C1
331
1E5
  5
1EC
331
25F
  5
2D8
331
207
  5
20E
331
F6
  5
FD
331
229
  5
230
331
118
  5
11F
331
48
  5
4F
331
DC
  5
E3
331
24B
  5
252
331
13A
  5
141
331
176
  5
17D
331
198
  5
19F
331
87
  5
8E
331
1BA
  5
1C1
331
1DC
  5
1E3
331
CB
  5
D2
331
1F6
  5
1FD
331
218
  5
21F
331
107
  5
10E
331
23A
  5
241
331
129
  5
130
331
59
  5
60
331
ED
  5
F4
331
A9
  5
B0
331
15C
  5
163
331
187
  5
18E
331
14B
  5
152
331
6A
  5
71
331
1C9
  5
1D0
331
B8
  5
BF
331
1E3
  5
1EA
331
DA
  5
E1
331
25D
  5
2D6
331
205
  5
20C
331
227
  5
22E
331
116
  5
11D
331
46
  5
4D
331
F4
  5
FB
331
249
  5
250
331
138
  5
13F
331
174
  5
17B
331
196
  5
19D
331
85
  5
8C
331
1B8
  5
1BF
331
1DA
  5
1E1
331
C9
  5
D0
331
1F4
  5
1FB
331
216
  5
21D
331
105
  5
10C
331
238
  5
23F
331
127
  5
12E
331
57
  5
5E
331
EB
  5
F2
331
A7
  5
AE
331
15A
  5
161
331
185
  5
18C
331
1A7
  5
1AE
331
96
  5
9D
331
149
  5
150
331
68
  5
6F
331
1E1
  5
1E8
331
D8
  5
DF
331
25B
  5
262
331
203
  5
20A
331
F2
  5
F9
331
225
  5
22C
331
114
  5
11B
331
44
  5
4B
331
247
  5
24E
331
136
  5
13D
331
172
  5
179
331
83
  5
8A
331
194
  5
19B
331
1B6
  5
1BD
331
A5
  5
AC
331
1D8
  5
1DF
331
1F2
  5
1F9
331
E9
  5
F0
331
214
  5
21B
331
236
  5
23D
331
125
  5
12C
331
55
  5
5C
331
103
  5
10A
331
C7
  5
CE
331
2DB
  5
42
331
158
  5
15F
331
183
  5
18A
331
147
  5
14E
331
1A5
  5
1AC
331
1C7
  5
1CE
331
B6
  5
BD
331
94
  5
9B
331
77
  5
7E
331
66
  5
6D
331
259
  5
260
331
201
  5
208
331
F0
  5
F7
331
223
  5
22A
331
112
  5
119
331
42
  5
49
331
245
  5
24C
331
134
  5
13B
331
170
  5
177
331
81
  5
88
331
192
  5
199
331
1B4
  5
1BB
331
A3
  5
AA
331
1D6
  5
1DD
331
1F0
  5
1F7
331
E7
  5
EE
331
C5
  5
CC
331
2D9
  5
40
331
156
  5
15D
331
64
  5
6B
331
212
  5
219
331
101
  5
108
331
234
  5
23B
331
123
  5
12A
331
53
  5
5A
331
256
  5
25D
331
145
  5
14C
331
181
  5
188
331
1A3
  5
1AA
331
92
  5
99
331
1C5
  5
1CC
331
D6
  5
DD
331
B4
  5
BB
331
167
  5
16E
331
75
  5
7C
331
31
  5
31
331
221
  5
228
331
110
  5
117
331
40
  5
47
331
243
  5
24A
331
132
  5
139
331
62
  5
69
331
16E
  5
175
331
7F
  5
86
331
190
  5
197
331
1B2
  5
1B9
331
A1
  5
A8
331
1D4
  5
1DB
331
1EE
  5
1F5
331
E5
  5
EC
331
C3
  5
CA
331
2D7
  5
3E
331
154
  5
15B
331
210
  5
217
331
FF
  5
106
331
232
  5
239
331
121
  5
128
331
51
  5
58
331
254
  5
25B
331
143
  5
14A
331
17F
  5
186
331
1A1
  5
1A8
331
90
  5
97
331
1C3
  5
1CA
331
1FF
  5
206
331
D4
  5
DB
331
B2
  5
B9
331
165
  5
16C
331
73
  5
7A
331
2F
  5
2F
331
241
  5
248
331
130
  5
137
331
60
  5
67
331
16C
  5
173
331
18E
  5
195
331
7D
  5
84
331
152
  5
159
331
1B0
  5
1B7
331
1D2
  5
1D9
331
C1
  5
C8
331
1EC
  5
1F3
331
E3
  5
EA
331
9F
  5
A6
331
20E
  5
215
331
FD
  5
104
331
230
  5
237
331
11F
  5
126
331
4F
  5
56
331
252
  5
259
331
141
  5
148
331
17D
  5
184
331
19F
  5
1A6
331
8E
  5
95
331
1C1
  5
1C8
331
1FD
  5
204
331
D2
  5
D9
331
21F
  5
226
331
10E
  5
115
331
3E
  5
45
331
B0
  5
B7
331
163
  5
16A
331
71
  5
78
331
2D
  5
2D
331
16A
  5
171
331
150
  5
157
331
18C
  5
193
331
7B
  5
82
331
1AE
  5
1B5
331
1D0
  5
1D7
331
BF
  5
C6
331
1EA
  5
1F1
331
E1
  5
E8
331
9D
  5
A4
331
20C
  5
213
331
FB
  5
102
331
22E
  5
235
331
11D
  5
124
331
4D
  5
54
331
250
  5
257
331
13F
  5
146
331
17B
  5
182
331
19D
  5
1A4
331
8C
  5
93
331
1BF
  5
1C6
331
1FB
  5
202
331
D0
  5
D7
331
AE
  5
B5
331
161
  5
168
331
6F
  5
76
331
21D
  5
224
331
10C
  5
113
331
23F
  5
246
331
12E
  5
135
331
5E
  5
65
331
2B
  5
2B
331
168
  5
16F
331
18A
  5
191
331
79
  5
80
331
1AC
  5
1B3
331
1CE
  5
1D5
331
BD
  5
C4
331
1E8
  5
1EF
331
DF
  5
E6
331
9B
  5
A2
331
262
  5
2DB
331
20A
  5
211
331
F9
  5
100
331
22C
  5
233
331
11B
  5
122
331
4B
  5
52
331
24E
  5
255
331
13D
  5
144
331
179
  5
180
331
19B
  5
1A2
331
8A
  5
91
331
1BD
  5
1C4
331
1F9
  5
200
331
1DF
  5
1E6
331
CE
  5
D5
331
21B
  5
222
331
23D
  5
244
331
12C
  5
133
331
5C
  5
63
331
10A
  5
111
331
AC
  5
B3
331
15F
  5
166
331
14E
  5
155
331
6D
  5
74
331
29
  5
29
331
188
  5
18F
331
1AA
  5
1B1
331
99
  5
A0
331
1CC
  5
1D3
331
1E6
  5
1ED
331
DD
  5
E4
331
260
  5
2D9
331
208
  5
20F
331
22A
  5
231
331
119
  5
120
331
49
  5
50
331
F7
  5
FE
331
BB
  5
C2
331
24C
  5
253
331
13B
  5
142
331
177
  5
17E
331
199
  5
1A0
331
88
  5
8F
331
1BB
  5
1C2
331
1DD
  5
1E4
331
CC
  5
D3
331
1F7
  5
1FE
331
219
  5
220
331
108
  5
10F
331
23B
  5
242
331
12A
  5
131
331
5A
  5
61
331
EE
  5
F5
331
AA
  5
B1
331
15D
  5
164
331
14C
  5
153
331
6B
  5
72
331
1A8
  5
1AF
331
1CA
  5
1D1
331
B9
  5
C0
331
1E4
  5
1EB
331
25E
  5
2D7
331
206
  5
20D
331
F5
  5
FC
331
228
  5
22F
331
117
  5
11E
331
47
  5
4E
331
DB
  5
E2
331
24A
  5
251
331
139
  5
140
331
175
  5
17C
331
197
  5
19E
331
86
  5
8D
331
1B9
  5
1C0
331
1DB
  5
1E2
331
CA
  5
D1
331
1F5
  5
1FC
331
217
  5
21E
331
106
  5
10D
331
239
  5
240
331
128
  5
12F
331
58
  5
5F
331
EC
  5
F3
331
A8
  5
AF
331
15B
  5
162
331
186
  5
18D
331
97
  5
9E
331
14A
  5
151
331
69
  5
70
331
1C8
  5
1CF
331
1E2
  5
1E9
331
D9
  5
E0
331
25C
  5
263
331
204
  5
20B
331
226
  5
22D
331
115
  5
11C
331
45
  5
4C
331
F3
  5
FA
331
248
  5
24F
331
137
  5
13E
331
173
  5
17A
331
84
  5
8B
331
195
  5
19C
331
1B7
  5
1BE
331
A6
  5
AD
331
1D9
  5
1E0
331
1F3
  5
1FA
331
EA
  5
F1
331
215
  5
21C
331
237
  5
23E
331
126
  5
12D
331
56
  5
5D
331
104
  5
10B
331
C8
  5
CF
331
2DC
  5
43
331
159
  5
160
331
184
  5
18B
331
1A6
  5
1AD
331
95
  5
9C
331
B7
  5
BE
331
148
  5
14F
331
67
  5
6E
  0
XRECORD
  5
2C4
102
{ACAD_REACTORS
330
2C3
102
}
330
2C3
100
AcDbXrecord
280
     1
 90
        1
340
299
  0
XRECORD
  5
2C9
102
{ACAD_REACTORS
330
2C8
102
}
330
2C8
100
AcDbXrecord
280
     1
 90
        1
340
299
  0
LAYOUT
  5
21
102
{ACAD_REACTORS
330
1E
102
}
330
1E
100
AcDbPlotSettings
  1

  2
Foxit PDF Printer
  4
Letter
  6

 40
3.174999952316284
 41
3.174999952316284
 42
3.17498779296875
 43
3.175003051757812
 44
279.3999938964844
 45
215.8999938964844
 46
31.4267670466818
 47
24.13747564896765
 48
0.0
 49
0.0
140
0.0
141
0.0
142
1.0
143
1.0
 70
     4
 72
     0
 73
     0
 74
     1
  7

 75
    16
147
1.0
 76
     1
 77
     2
 78
   300
148
-26.26816480274797
149
-20.15458429594825
100
AcDbLayout
  1
Layout1
 70
     0
 71
     1
 10
-0.3280945746555161
 20
-0.2818067443045545
 11
10.67190518504859
 21
8.218193015399554
 12
0.0
 22
0.0
 32
0.0
 14
-0.0876841834915467
 24
0.0624098929691996
 34
-0.0015258207003583
 15
10.27264815540798
 25
8.050309685338589
 35
0.0000000349246037
146
0.0
 13
0.0
 23
0.0
 33
0.0
 16
1.0
 26
0.0
 36
0.0
 17
0.0
 27
1.0
 37
0.0
 76
     0
330
B
331
2C2
1001
ACAD_PSEXT
1000
Foxit PDF Printer
1000
Foxit PDF Printer Driver
1000
FOXIT_PDF
1000

1070
     0
  0
LAYOUT
  5
20
102
{ACAD_REACTORS
330
1E
102
}
330
1E
100
AcDbPlotSettings
  1

  2

  4

  6

 40
0.0
 41
0.0
 42
0.0
 43
0.0
 44
0.0
 45
0.0
 46
0.0
 47
0.0
 48
0.0
 49
0.0
140
0.0
141
0.0
142
1.0
143
1.0
 70
  1024
 72
     0
 73
     0
 74
     0
  7

 75
     0
147
1.0
 76
     0
 77
     2
 78
   300
148
0.0
149
0.0
100
AcDbLayout
  1
Model
 70
     0
 71
     0
 10
0.0
 20
0.0
 11
0.0
 21
0.0
 12
0.0
 22
0.0
 32
0.0
 14
0.0
 24
0.0
 34
0.0
 15
0.0
 25
0.0
 35
0.0
146
0.0
 13
0.0
 23
0.0
 33
0.0
 16
0.0
 26
0.0
 36
0.0
 17
0.0
 27
0.0
 37
0.0
 76
     0
330
A
  0
MATERIAL
  5
277
102
{ACAD_XDICTIONARY
360
278
102
}
102
{ACAD_REACTORS
330
265
102
}
330
265
100
AcDbMaterial
  1
ByBlock
 72
     0
 43
0.0208333333333333
 43
0.0
 43
0.0
 43
0.0
 43
0.0
 43
0.0208333333333333
 43
0.0
 43
0.0
 43
0.0
 43
0.0
 43
1.0
 43
0.0
 43
0.0
 43
0.0
 43
0.0
 43
1.0
 77
     0
 47
0.0208333333333333
 47
0.0
 47
0.0
 47
0.0
 47
0.0
 47
0.0208333333333333
 47
0.0
 47
0.0
 47
0.0
 47
0.0
 47
1.0
 47
0.0
 47
0.0
 47
0.0
 47
0.0
 47
1.0
171
     0
 49
0.0208333333333333
 49
0.0
 49
0.0
 49
0.0
 49
0.0
 49
0.0208333333333333
 49
0.0
 49
0.0
 49
0.0
 49
0.0
 49
1.0
 49
0.0
 49
0.0
 49
0.0
 49
0.0
 49
1.0
175
     0
142
0.0208333333333333
142
0.0
142
0.0
142
0.0
142
0.0
142
0.0208333333333333
142
0.0
142
0.0
142
0.0
142
0.0
142
1.0
142
0.0
142
0.0
142
0.0
142
0.0
142
1.0
179
     0
144
0.0208333333333333
144
0.0
144
0.0
144
0.0
144
0.0
144
0.0208333333333333
144
0.0
144
0.0
144
0.0
144
0.0
144
1.0
144
0.0
144
0.0
144
0.0
144
0.0
144
1.0
147
0.0208333333333333
147
0.0
147
0.0
147
0.0
147
0.0
147
0.0208333333333333
147
0.0
147
0.0
147
0.0
147
0.0
147
1.0
147
0.0
147
0.0
147
0.0
147
0.0
147
1.0
  0
MATERIAL
  5
26F
102
{ACAD_XDICTIONARY
360
270
102
}
102
{ACAD_REACTORS
330
265
102
}
330
265
100
AcDbMaterial
  1
ByLayer
 72
     0
 43
0.0208333333333333
 43
0.0
 43
0.0
 43
0.0
 43
0.0
 43
0.0208333333333333
 43
0.0
 43
0.0
 43
0.0
 43
0.0
 43
1.0
 43
0.0
 43
0.0
 43
0.0
 43
0.0
 43
1.0
 77
     0
 47
0.0208333333333333
 47
0.0
 47
0.0
 47
0.0
 47
0.0
 47
0.0208333333333333
 47
0.0
 47
0.0
 47
0.0
 47
0.0
 47
1.0
 47
0.0
 47
0.0
 47
0.0
 47
0.0
 47
1.0
171
     0
 49
0.0208333333333333
 49
0.0
 49
0.0
 49
0.0
 49
0.0
 49
0.0208333333333333
 49
0.0
 49
0.0
 49
0.0
 49
0.0
 49
1.0
 49
0.0
 49
0.0
 49
0.0
 49
0.0
 49
1.0
175
     0
142
0.0208333333333333
142
0.0
142
0.0
142
0.0
142
0.0
142
0.0208333333333333
142
0.0
142
0.0
142
0.0
142
0.0
142
1.0
142
0.0
142
0.0
142
0.0
142
0.0
142
1.0
179
     0
144
0.0208333333333333
144
0.0
144
0.0
144
0.0
144
0.0
144
0.0208333333333333
144
0.0
144
0.0
144
0.0
144
0.0
144
1.0
144
0.0
144
0.0
144
0.0
144
0.0
144
1.0
147
0.0208333333333333
147
0.0
147
0.0
147
0.0
147
0.0
147
0.0208333333333333
147
0.0
147
0.0
147
0.0
147
0.0
147
1.0
147
0.0
147
0.0
147
0.0
147
0.0
147
1.0
  0
MATERIAL
  5
27F
102
{ACAD_XDICTIONARY
360
280
102
}
102
{ACAD_REACTORS
330
265
102
}
330
265
100
AcDbMaterial
  1
Global
 72
     0
 43
0.0208333333333333
 43
0.0
 43
0.0
 43
0.0
 43
0.0
 43
0.0208333333333333
 43
0.0
 43
0.0
 43
0.0
 43
0.0
 43
1.0
 43
0.0
 43
0.0
 43
0.0
 43
0.0
 43
1.0
 77
     0
 47
0.0208333333333333
 47
0.0
 47
0.0
 47
0.0
 47
0.0
 47
0.0208333333333333
 47
0.0
 47
0.0
 47
0.0
 47
0.0
 47
1.0
 47
0.0
 47
0.0
 47
0.0
 47
0.0
 47
1.0
171
     0
 49
0.0208333333333333
 49
0.0
 49
0.0
 49
0.0
 49
0.0
 49
0.0208333333333333
 49
0.0
 49
0.0
 49
0.0
 49
0.0
 49
1.0
 49
0.0
 49
0.0
 49
0.0
 49
0.0
 49
1.0
175
     0
142
0.0208333333333333
142
0.0
142
0.0
142
0.0
142
0.0
142
0.0208333333333333
142
0.0
142
0.0
142
0.0
142
0.0
142
1.0
142
0.0
142
0.0
142
0.0
142
0.0
142
1.0
179
     0
144
0.0208333333333333
144
0.0
144
0.0
144
0.0
144
0.0
144
0.0208333333333333
144
0.0
144
0.0
144
0.0
144
0.0
144
1.0
144
0.0
144
0.0
144
0.0
144
0.0
144
1.0
147
0.0208333333333333
147
0.0
147
0.0
147
0.0
147
0.0
147
0.0208333333333333
147
0.0
147
0.0
147
0.0
147
0.0
147
1.0
147
0.0
147
0.0
147
0.0
147
0.0
147
1.0
  0
MLEADERSTYLE
  5
2BB
102
{ACAD_REACTORS
330
2BA
102
}
330
2BA
100
AcDbMLeaderStyle
170
     2
171
     1
172
     0
 90
        2
 40
0.0
 41
0.0
173
     1
 91
-1056964608
340
11
 92
       -2
290
     1
 42
0.09
291
     1
 43
0.36
  3
Standard
 44
0.18
300

342
17
174
     1
178
     6
175
     1
176
     0
 93
-1056964608
 45
0.18
292
     0
297
     0
 46
0.18
 94
-1056964608
 47
1.0
 49
1.0
140
1.0
293
     1
141
0.0
294
     1
177
     0
142
1.0
295
     0
296
     0
143
0.125
1001
ACAD_MLEADERVER
1070
     2
  0
MLINESTYLE
  5
1C
102
{ACAD_REACTORS
330
1B
102
}
330
1B
100
AcDbMlineStyle
  2
STANDARD
 70
     0
  3

 62
     0
 51
90.0
 52
90.0
 71
     2
 49
0.5
 62
   256
  6
BYLAYER
 49
-0.5
 62
   256
  6
BYLAYER
  0
ACDBPLACEHOLDER
  5
1D
102
{ACAD_REACTORS
330
1F
102
}
330
1F
  0
SCALE
  5
299
102
{ACAD_REACTORS
330
298
102
}
330
298
100
AcDbScale
 70
     0
300
1:1
140
1.0
141
1.0
290
     1
  0
SCALE
  5
29A
102
{ACAD_REACTORS
330
298
102
}
330
298
100
AcDbScale
 70
     0
300
1:2
140
1.0
141
2.0
290
     0
  0
SCALE
  5
29B
102
{ACAD_REACTORS
330
298
102
}
330
298
100
AcDbScale
 70
     0
300
1:4
140
1.0
141
4.0
290
     0
  0
SCALE
  5
29C
102
{ACAD_REACTORS
330
298
102
}
330
298
100
AcDbScale
 70
     0
300
1:5
140
1.0
141
5.0
290
     0
  0
SCALE
  5
29D
102
{ACAD_REACTORS
330
298
102
}
330
298
100
AcDbScale
 70
     0
300
1:8
140
1.0
141
8.0
290
     0
  0
SCALE
  5
29E
102
{ACAD_REACTORS
330
298
102
}
330
298
100
AcDbScale
 70
     0
300
1:10
140
1.0
141
10.0
290
     0
  0
SCALE
  5
29F
102
{ACAD_REACTORS
330
298
102
}
330
298
100
AcDbScale
 70
     0
300
1:16
140
1.0
141
16.0
290
     0
  0
SCALE
  5
2A0
102
{ACAD_REACTORS
330
298
102
}
330
298
100
AcDbScale
 70
     0
300
1:20
140
1.0
141
20.0
290
     0
  0
SCALE
  5
2A1
102
{ACAD_REACTORS
330
298
102
}
330
298
100
AcDbScale
 70
     0
300
1:30
140
1.0
141
30.0
290
     0
  0
SCALE
  5
2A2
102
{ACAD_REACTORS
330
298
102
}
330
298
100
AcDbScale
 70
     0
300
1:40
140
1.0
141
40.0
290
     0
  0
SCALE
  5
2A3
102
{ACAD_REACTORS
330
298
102
}
330
298
100
AcDbScale
 70
     0
300
1:50
140
1.0
141
50.0
290
     0
  0
SCALE
  5
2A4
102
{ACAD_REACTORS
330
298
102
}
330
298
100
AcDbScale
 70
     0
300
1:100
140
1.0
141
100.0
290
     0
  0
SCALE
  5
2A5
102
{ACAD_REACTORS
330
298
102
}
330
298
100
AcDbScale
 70
     0
300
2:1
140
2.0
141
1.0
290
     0
  0
SCALE
  5
2A6
102
{ACAD_REACTORS
330
298
102
}
330
298
100
AcDbScale
 70
     0
300
4:1
140
4.0
141
1.0
290
     0
  0
SCALE
  5
2A7
102
{ACAD_REACTORS
330
298
102
}
330
298
100
AcDbScale
 70
     0
300
8:1
140
8.0
141
1.0
290
     0
  0
SCALE
  5
2A8
102
{ACAD_REACTORS
330
298
102
}
330
298
100
AcDbScale
 70
     0
300
10:1
140
10.0
141
1.0
290
     0
  0
SCALE
  5
2A9
102
{ACAD_REACTORS
330
298
102
}
330
298
100
AcDbScale
 70
     0
300
100:1
140
100.0
141
1.0
290
     0
  0
SCALE
  5
2AA
102
{ACAD_REACTORS
330
298
102
}
330
298
100
AcDbScale
 70
     0
300
1/128" = 1'-0"
140
0.0078125
141
12.0
290
     0
  0
SCALE
  5
2AB
102
{ACAD_REACTORS
330
298
102
}
330
298
100
AcDbScale
 70
     0
300
1/64" = 1'-0"
140
0.015625
141
12.0
290
     0
  0
SCALE
  5
2AC
102
{ACAD_REACTORS
330
298
102
}
330
298
100
AcDbScale
 70
     0
300
1/32" = 1'-0"
140
0.03125
141
12.0
290
     0
  0
SCALE
  5
2AD
102
{ACAD_REACTORS
330
298
102
}
330
298
100
AcDbScale
 70
     0
300
1/16" = 1'-0"
140
0.0625
141
12.0
290
     0
  0
SCALE
  5
2AE
102
{ACAD_REACTORS
330
298
102
}
330
298
100
AcDbScale
 70
     0
300
3/32" = 1'-0"
140
0.09375
141
12.0
290
     0
  0
SCALE
  5
2AF
102
{ACAD_REACTORS
330
298
102
}
330
298
100
AcDbScale
 70
     0
300
1/8" = 1'-0"
140
0.125
141
12.0
290
     0
  0
SCALE
  5
2B0
102
{ACAD_REACTORS
330
298
102
}
330
298
100
AcDbScale
 70
     0
300
3/16" = 1'-0"
140
0.1875
141
12.0
290
     0
  0
SCALE
  5
2B1
102
{ACAD_REACTORS
330
298
102
}
330
298
100
AcDbScale
 70
     0
300
1/4" = 1'-0"
140
0.25
141
12.0
290
     0
  0
SCALE
  5
2B2
102
{ACAD_REACTORS
330
298
102
}
330
298
100
AcDbScale
 70
     0
300
3/8" = 1'-0"
140
0.375
141
12.0
290
     0
  0
SCALE
  5
2B3
102
{ACAD_REACTORS
330
298
102
}
330
298
100
AcDbScale
 70
     0
300
1/2" = 1'-0"
140
0.5
141
12.0
290
     0
  0
SCALE
  5
2B4
102
{ACAD_REACTORS
330
298
102
}
330
298
100
AcDbScale
 70
     0
300
3/4" = 1'-0"
140
0.75
141
12.0
290
     0
  0
SCALE
  5
2B5
102
{ACAD_REACTORS
330
298
102
}
330
298
100
AcDbScale
 70
     0
300
1" = 1'-0"
140
1.0
141
12.0
290
     0
  0
SCALE
  5
2B6
102
{ACAD_REACTORS
330
298
102
}
330
298
100
AcDbScale
 70
     0
300
1-1/2" = 1'-0"
140
1.5
141
12.0
290
     0
  0
SCALE
  5
2B7
102
{ACAD_REACTORS
330
298
102
}
330
298
100
AcDbScale
 70
     0
300
3" = 1'-0"
140
3.0
141
12.0
290
     0
  0
SCALE
  5
2B8
102
{ACAD_REACTORS
330
298
102
}
330
298
100
AcDbScale
 70
     0
300
6" = 1'-0"
140
6.0
141
12.0
290
     0
  0
SCALE
  5
2B9
102
{ACAD_REACTORS
330
298
102
}
330
298
100
AcDbScale
 70
     0
300
1'-0" = 1'-0"
140
12.0
141
12.0
290
     0
  0
TABLESTYLE
  5
268
102
{ACAD_XDICTIONARY
360
2EE
102
}
102
{ACAD_REACTORS
330
267
102
}
330
267
100
AcDbTableStyle
  3
Standard
 70
     0
 71
     0
 40
0.06
 41
0.06
280
     0
281
     0
  7
Standard
140
0.18
170
     2
 62
     0
 63
     7
283
     0
274
    -2
284
     1
 64
     0
275
    -2
285
     1
 65
     0
276
    -2
286
     1
 66
     0
277
    -2
287
     1
 67
     0
278
    -2
288
     1
 68
     0
279
    -2
289
     1
 69
     0
  7
Standard
140
0.25
170
     5
 62
     0
 63
     7
283
     0
274
    -2
284
     1
 64
     0
275
    -2
285
     1
 65
     0
276
    -2
286
     1
 66
     0
277
    -2
287
     1
 67
     0
278
    -2
288
     1
 68
     0
279
    -2
289
     1
 69
     0
  7
Standard
140
0.18
170
     5
 62
     0
 63
     7
283
     0
274
    -2
284
     1
 64
     0
275
    -2
285
     1
 65
     0
276
    -2
286
     1
 66
     0
277
    -2
287
     1
 67
     0
278
    -2
288
     1
 68
     0
279
    -2
289
     1
 69
     0
  0
VISUALSTYLE
  5
28D
102
{ACAD_REACTORS
330
287
102
}
330
287
100
AcDbVisualStyle
  2
2dWireframe
 70
     4
 71
     0
 72
     2
 73
     0
 90
        0
 40
-0.6
 41
-30.0
 62
     5
 63
     7
421
 16777215
 74
     1
 91
        4
 64
     7
 65
   257
 75
     1
175
     1
 42
1.0
 92
        0
 66
   257
 43
1.0
 76
     1
 77
     6
 78
     2
 67
     7
 79
     5
170
     0
171
     0
290
     0
174
     0
 93
        1
 44
0.0
173
     0
291
     0
 45
0.0
1001
ACAD
1000
AcDbSavedByObjectVersion
1070
     0
  0
VISUALSTYLE
  5
28F
102
{ACAD_REACTORS
330
287
102
}
330
287
100
AcDbVisualStyle
  2
3D Hidden
 70
     6
 71
     1
 72
     2
 73
     2
 90
        0
 40
-0.6
 41
-30.0
 62
     5
 63
     7
421
 16777215
 74
     2
 91
        2
 64
     7
 65
   257
 75
     2
175
     1
 42
40.0
 92
        0
 66
   257
 43
1.0
 76
     1
 77
     6
 78
     2
 67
     7
 79
     3
170
     0
171
     0
290
     0
174
     0
 93
        1
 44
0.0
173
     0
291
     0
 45
0.0
1001
ACAD
1000
AcDbSavedByObjectVersion
1070
     0
  0
VISUALSTYLE
  5
28E
102
{ACAD_REACTORS
330
287
102
}
330
287
100
AcDbVisualStyle
  2
3dWireframe
 70
     5
 71
     0
 72
     2
 73
     0
 90
        0
 40
-0.6
 41
-30.0
 62
     5
 63
     7
421
 16777215
 74
     1
 91
        4
 64
     7
 65
   257
 75
     1
175
     1
 42
1.0
 92
        0
 66
   257
 43
1.0
 76
     1
 77
     6
 78
     2
 67
     7
 79
     5
170
     0
171
     0
290
     0
174
     0
 93
        1
 44
0.0
173
     0
291
     0
 45
0.0
1001
ACAD
1000
AcDbSavedByObjectVersion
1070
     0
  0
VISUALSTYLE
  5
28C
102
{ACAD_REACTORS
330
287
102
}
330
287
100
AcDbVisualStyle
  2
Basic
 70
     7
 71
     1
 72
     0
 73
     1
 90
        0
 40
-0.6
 41
-30.0
 62
     5
 63
     7
421
 16777215
 74
     0
 91
        4
 64
     7
 65
   257
 75
     1
175
     1
 42
1.0
 92
        8
 66
     7
 43
1.0
 76
     1
 77
     6
 78
     2
 67
     7
 79
     5
170
     0
171
     0
290
     0
174
     0
 93
        1
 44
0.0
173
     0
291
     1
 45
0.0
1001
ACAD
1000
AcDbSavedByObjectVersion
1070
     0
  0
VISUALSTYLE
  5
293
102
{ACAD_REACTORS
330
287
102
}
330
287
100
AcDbVisualStyle
  2
Brighten
 70
    12
 71
     2
 72
     2
 73
     0
 90
        0
 40
-0.6
 41
-30.0
 62
     5
 63
     7
421
 16777215
 74
     1
 91
        4
 64
     7
 65
   257
 75
     1
175
     1
 42
1.0
 92
        8
 66
     7
 43
1.0
 76
     1
 77
     6
 78
     2
 67
     7
 79
     5
170
     0
171
     0
290
     0
174
     0
 93
        1
 44
50.0
173
     0
291
     1
 45
0.0
1001
ACAD
1000
AcDbSavedByObjectVersion
1070
     0
  0
VISUALSTYLE
  5
297
102
{ACAD_REACTORS
330
287
102
}
330
287
100
AcDbVisualStyle
  2
ColorChange
 70
    16
 71
     2
 72
     2
 73
     3
 90
        0
 40
-0.6
 41
-30.0
 62
     5
 63
     8
421
  8421504
 74
     1
 91
        4
 64
     7
 65
   257
 75
     1
175
     1
 42
1.0
 92
        8
 66
     8
424
  8421504
 43
1.0
 76
     1
 77
     6
 78
     2
 67
     7
 79
     5
170
     0
171
     0
290
     0
174
     0
 93
        1
 44
0.0
173
     0
291
     1
 45
0.0
1001
ACAD
1000
AcDbSavedByObjectVersion
1070
     0
  0
VISUALSTYLE
  5
290
102
{ACAD_REACTORS
330
287
102
}
330
287
100
AcDbVisualStyle
  2
Conceptual
 70
     9
 71
     3
 72
     2
 73
     0
 90
        0
 40
-0.6
 41
-30.0
 62
     5
 63
     7
421
 16777215
 74
     2
 91
        2
 64
     7
 65
   257
 75
     1
175
     1
 42
40.0
 92
        8
 66
     7
 43
1.0
 76
     1
 77
     6
 78
     2
 67
     7
 79
     3
170
     0
171
     0
290
     0
174
     0
 93
        1
 44
0.0
173
     0
291
     0
 45
0.0
1001
ACAD
1000
AcDbSavedByObjectVersion
1070
     0
  0
VISUALSTYLE
  5
292
102
{ACAD_REACTORS
330
287
102
}
330
287
100
AcDbVisualStyle
  2
Dim
 70
    11
 71
     2
 72
     2
 73
     0
 90
        0
 40
-0.6
 41
-30.0
 62
     5
 63
     7
421
 16777215
 74
     1
 91
        4
 64
     7
 65
   257
 75
     1
175
     1
 42
1.0
 92
        8
 66
     7
 43
1.0
 76
     1
 77
     6
 78
     2
 67
     7
 79
     5
170
     0
171
     0
290
     0
174
     0
 93
        1
 44
-50.0
173
     0
291
     1
 45
0.0
1001
ACAD
1000
AcDbSavedByObjectVersion
1070
     0
  0
VISUALSTYLE
  5
296
102
{ACAD_REACTORS
330
287
102
}
330
287
100
AcDbVisualStyle
  2
Facepattern
 70
    15
 71
     2
 72
     2
 73
     0
 90
        0
 40
-0.6
 41
-30.0
 62
     5
 63
     7
421
 16777215
 74
     1
 91
        4
 64
     7
 65
   257
 75
     1
175
     1
 42
1.0
 92
        8
 66
     7
 43
1.0
 76
     1
 77
     6
 78
     2
 67
     7
 79
     5
170
     0
171
     0
290
     0
174
     0
 93
        1
 44
0.0
173
     0
291
     1
 45
0.0
1001
ACAD
1000
AcDbSavedByObjectVersion
1070
     0
  0
VISUALSTYLE
  5
288
102
{ACAD_REACTORS
330
287
102
}
330
287
100
AcDbVisualStyle
  2
Flat
 70
     0
 71
     2
 72
     1
 73
     1
 90
        2
 40
-0.6
 41
30.0
 62
     5
 63
     7
421
 16777215
 74
     0
 91
        4
 64
     7
 65
   257
 75
     1
175
     1
 42
1.0
 92
        8
 66
     7
 43
1.0
 76
     1
 77
     6
 78
     2
 67
     7
 79
     5
170
     0
171
     0
290
     0
174
     0
 93
       13
 44
0.0
173
     0
291
     1
 45
0.0
1001
ACAD
1000
AcDbSavedByObjectVersion
1070
     0
  0
VISUALSTYLE
  5
289
102
{ACAD_REACTORS
330
287
102
}
330
287
100
AcDbVisualStyle
  2
FlatWithEdges
 70
     1
 71
     2
 72
     1
 73
     1
 90
        2
 40
-0.6
 41
30.0
 62
     5
 63
     7
421
 16777215
 74
     1
 91
        4
 64
     7
 65
   257
 75
     1
175
     1
 42
1.0
 92
        0
 66
   257
 43
1.0
 76
     1
 77
     6
 78
     2
 67
     7
 79
     5
170
     0
171
     0
290
     0
174
     0
 93
       13
 44
0.0
173
     0
291
     1
 45
0.0
1001
ACAD
1000
AcDbSavedByObjectVersion
1070
     0
  0
VISUALSTYLE
  5
28A
102
{ACAD_REACTORS
330
287
102
}
330
287
100
AcDbVisualStyle
  2
Gouraud
 70
     2
 71
     2
 72
     2
 73
     1
 90
        2
 40
-0.6
 41
30.0
 62
     5
 63
     7
421
 16777215
 74
     0
 91
        4
 64
     7
 65
   257
 75
     1
175
     1
 42
1.0
 92
        0
 66
     7
 43
1.0
 76
     1
 77
     6
 78
     2
 67
     7
 79
     5
170
     0
171
     0
290
     0
174
     0
 93
       13
 44
0.0
173
     0
291
     1
 45
0.0
1001
ACAD
1000
AcDbSavedByObjectVersion
1070
     0
  0
VISUALSTYLE
  5
28B
102
{ACAD_REACTORS
330
287
102
}
330
287
100
AcDbVisualStyle
  2
GouraudWithEdges
 70
     3
 71
     2
 72
     2
 73
     1
 90
        2
 40
-0.6
 41
30.0
 62
     5
 63
     7
421
 16777215
 74
     1
 91
        4
 64
     7
 65
   257
 75
     1
175
     1
 42
1.0
 92
        0
 66
   257
 43
1.0
 76
     1
 77
     6
 78
     2
 67
     7
 79
     5
170
     0
171
     0
290
     0
174
     0
 93
       13
 44
0.0
173
     0
291
     1
 45
0.0
1001
ACAD
1000
AcDbSavedByObjectVersion
1070
     0
  0
VISUALSTYLE
  5
295
102
{ACAD_REACTORS
330
287
102
}
330
287
100
AcDbVisualStyle
  2
Linepattern
 70
    14
 71
     2
 72
     2
 73
     0
 90
        0
 40
-0.6
 41
-30.0
 62
     5
 63
     7
421
 16777215
 74
     1
 91
        4
 64
     7
 65
   257
 75
     7
175
     7
 42
1.0
 92
        8
 66
     7
 43
1.0
 76
     1
 77
     6
 78
     2
 67
     7
 79
     5
170
     0
171
     0
290
     0
174
     0
 93
        1
 44
0.0
173
     0
291
     1
 45
0.0
1001
ACAD
1000
AcDbSavedByObjectVersion
1070
     0
  0
VISUALSTYLE
  5
291
102
{ACAD_REACTORS
330
287
102
}
330
287
100
AcDbVisualStyle
  2
Realistic
 70
     8
 71
     2
 72
     2
 73
     0
 90
        0
 40
-0.6
 41
-30.0
 62
     5
 63
     7
421
 16777215
 74
     1
 91
        0
 64
     7
 65
   257
 75
     1
175
     1
 42
1.0
 92
        8
 66
     8
424
  7895160
 43
1.0
 76
     1
 77
     6
 78
     2
 67
     7
 79
     5
170
     0
171
     0
290
     0
174
     0
 93
       13
 44
0.0
173
     0
291
     0
 45
0.0
1001
ACAD
1000
AcDbSavedByObjectVersion
1070
     0
  0
VISUALSTYLE
  5
294
102
{ACAD_REACTORS
330
287
102
}
330
287
100
AcDbVisualStyle
  2
Thicken
 70
    13
 71
     2
 72
     2
 73
     0
 90
        0
 40
-0.6
 41
-30.0
 62
     5
 63
     7
421
 16777215
 74
     1
 91
        4
 64
     7
 65
   257
 75
     1
175
     1
 42
1.0
 92
       12
 66
     7
 43
1.0
 76
     1
 77
     6
 78
     2
 67
     7
 79
     5
170
     0
171
     0
290
     0
174
     0
 93
        1
 44
0.0
173
     0
291
     1
 45
0.0
1001
ACAD
1000
AcDbSavedByObjectVersion
1070
     0
  0
DICTIONARYVAR
  5
2ED
102
{ACAD_REACTORS
330
26C
102
}
330
26C
100
DictionaryVariables
280
     0
  1
1:1
  0
DICTIONARYVAR
  5
2EC
102
{ACAD_REACTORS
330
26C
102
}
330
26C
100
DictionaryVariables
280
     0
  1
STANDARD
  0
DICTIONARYVAR
  5
26D
102
{ACAD_REACTORS
330
26C
102
}
330
26C
100
DictionaryVariables
280
     0
  1
STANDARD
  0
DICTIONARY
  5
278
330
277
100
AcDbDictionary
280
     1
281
     1
  3
ACAD_XREC_ROUNDTRIP
360
2F3
  3
BUMPTILE
360
27A
  3
DIFFUSETILE
360
279
  3
OPACITYTILE
360
27D
  3
REFLECTIONTILE
360
27C
  3
REFRACTIONTILE
360
27E
  3
SPECULARTILE
360
27B
  0
DICTIONARY
  5
270
330
26F
100
AcDbDictionary
280
     1
281
     1
  3
ACAD_XREC_ROUNDTRIP
360
2F2
  3
BUMPTILE
360
272
  3
DIFFUSETILE
360
271
  3
OPACITYTILE
360
275
  3
REFLECTIONTILE
360
274
  3
REFRACTIONTILE
360
276
  3
SPECULARTILE
360
273
  0
DICTIONARY
  5
280
330
27F
100
AcDbDictionary
280
     1
281
     1
  3
ACAD_XREC_ROUNDTRIP
360
2F4
  3
BUMPTILE
360
282
  3
DIFFUSETILE
360
281
  3
OPACITYTILE
360
285
  3
REFLECTIONTILE
360
284
  3
REFRACTIONTILE
360
286
  3
SPECULARTILE
360
283
  0
DICTIONARY
  5
2EE
330
268
100
AcDbDictionary
280
     1
281
     1
  3
ACAD_ROUNDTRIP_2008_TABLESTYLE_CELLSTYLEMAP
360
2EF
  3
ACAD_XREC_ROUNDTRIP
360
2F1
  0
XRECORD
  5
2F3
102
{ACAD_REACTORS
330
278
102
}
330
278
100
AcDbXrecord
280
     1
102
MATERIAL
148
0.0
149
0.0
149
0.0
 93
        0
 94
      127
282
     0
 72
     0
 77
     0
171
     0
175
     0
179
     0
273
     0
  0
XRECORD
  5
27A
102
{ACAD_REACTORS
330
278
102
}
330
278
100
AcDbXrecord
280
     1
270
     1
271
     1
  0
XRECORD
  5
279
102
{ACAD_REACTORS
330
278
102
}
330
278
100
AcDbXrecord
280
     1
270
     1
271
     1
  0
XRECORD
  5
27D
102
{ACAD_REACTORS
330
278
102
}
330
278
100
AcDbXrecord
280
     1
270
     1
271
     1
  0
XRECORD
  5
27C
102
{ACAD_REACTORS
330
278
102
}
330
278
100
AcDbXrecord
280
     1
270
     1
271
     1
  0
XRECORD
  5
27E
102
{ACAD_REACTORS
330
278
102
}
330
278
100
AcDbXrecord
280
     1
270
     1
271
     1
  0
XRECORD
  5
27B
102
{ACAD_REACTORS
330
278
102
}
330
278
100
AcDbXrecord
280
     1
270
     1
271
     1
  0
XRECORD
  5
2F2
102
{ACAD_REACTORS
330
270
102
}
330
270
100
AcDbXrecord
280
     1
102
MATERIAL
148
0.0
149
0.0
149
0.0
 93
        0
 94
      127
282
     0
 72
     0
 77
     0
171
     0
175
     0
179
     0
273
     0
  0
XRECORD
  5
272
102
{ACAD_REACTORS
330
270
102
}
330
270
100
AcDbXrecord
280
     1
270
     1
271
     1
  0
XRECORD
  5
271
102
{ACAD_REACTORS
330
270
102
}
330
270
100
AcDbXrecord
280
     1
270
     1
271
     1
  0
XRECORD
  5
275
102
{ACAD_REACTORS
330
270
102
}
330
270
100
AcDbXrecord
280
     1
270
     1
271
     1
  0
XRECORD
  5
274
102
{ACAD_REACTORS
330
270
102
}
330
270
100
AcDbXrecord
280
     1
270
     1
271
     1
  0
XRECORD
  5
276
102
{ACAD_REACTORS
330
270
102
}
330
270
100
AcDbXrecord
280
     1
270
     1
271
     1
  0
XRECORD
  5
273
102
{ACAD_REACTORS
330
270
102
}
330
270
100
AcDbXrecord
280
     1
270
     1
271
     1
  0
XRECORD
  5
2F4
102
{ACAD_REACTORS
330
280
102
}
330
280
100
AcDbXrecord
280
     1
102
MATERIAL
148
0.0
149
0.0
149
0.0
 93
        0
 94
      127
282
     0
 72
     0
 77
     0
171
     0
175
     0
179
     0
273
     0
  0
XRECORD
  5
282
102
{ACAD_REACTORS
330
280
102
}
330
280
100
AcDbXrecord
280
     1
270
     1
271
     1
  0
XRECORD
  5
281
102
{ACAD_REACTORS
330
280
102
}
330
280
100
AcDbXrecord
280
     1
270
     1
271
     1
  0
XRECORD
  5
285
102
{ACAD_REACTORS
330
280
102
}
330
280
100
AcDbXrecord
280
     1
270
     1
271
     1
  0
XRECORD
  5
284
102
{ACAD_REACTORS
330
280
102
}
330
280
100
AcDbXrecord
280
     1
270
     1
271
     1
  0
XRECORD
  5
286
102
{ACAD_REACTORS
330
280
102
}
330
280
100
AcDbXrecord
280
     1
270
     1
271
     1
  0
XRECORD
  5
283
102
{ACAD_REACTORS
330
280
102
}
330
280
100
AcDbXrecord
280
     1
270
     1
271
     1
  0
CELLSTYLEMAP
  5
2EF
102
{ACAD_REACTORS
330
2EE
102
}
330
2EE
100
AcDbCellStyleMap
 90
        3
300
CELLSTYLE
  1
TABLEFORMAT_BEGIN
 90
        5
170
     1
 91
        0
 92
    32768
 62
   257
 93
        1
300
CONTENTFORMAT
  1
CONTENTFORMAT_BEGIN
 90
        0
 91
        0
 92
        4
 93
        0
300

 40
0.0
140
1.0
 94
        5
 62
     0
340
17
144
0.25
309
CONTENTFORMAT_END
171
     0
 94
        6
 95
        1
302
GRIDFORMAT
  1
GRIDFORMAT_BEGIN
 90
        0
 91
        1
 62
     0
 92
       -2
340
0
 93
        0
 40
0.045
309
GRIDFORMAT_END
 95
        2
302
GRIDFORMAT
  1
GRIDFORMAT_BEGIN
 90
        0
 91
        1
 62
     0
 92
       -2
340
0
 93
        0
 40
0.045
309
GRIDFORMAT_END
 95
        4
302
GRIDFORMAT
  1
GRIDFORMAT_BEGIN
 90
        0
 91
        1
 62
     0
 92
       -2
340
0
 93
        0
 40
0.045
309
GRIDFORMAT_END
 95
        8
302
GRIDFORMAT
  1
GRIDFORMAT_BEGIN
 90
        0
 91
        1
 62
     0
 92
       -2
340
0
 93
        0
 40
0.045
309
GRIDFORMAT_END
 95
       16
302
GRIDFORMAT
  1
GRIDFORMAT_BEGIN
 90
        0
 91
        1
 62
     0
 92
       -2
340
0
 93
        0
 40
0.045
309
GRIDFORMAT_END
 95
       32
302
GRIDFORMAT
  1
GRIDFORMAT_BEGIN
 90
        0
 91
        1
 62
     0
 92
       -2
340
0
 93
        0
 40
0.045
309
GRIDFORMAT_END
309
TABLEFORMAT_END
  1
CELLSTYLE_BEGIN
 90
        1
 91
        1
300
_TITLE
309
CELLSTYLE_END
300
CELLSTYLE
  1
TABLEFORMAT_BEGIN
 90
        5
170
     1
 91
        0
 92
        0
 62
   257
 93
        1
300
CONTENTFORMAT
  1
CONTENTFORMAT_BEGIN
 90
        0
 91
        0
 92
        4
 93
        0
300

 40
0.0
140
1.0
 94
        5
 62
     0
340
17
144
0.18
309
CONTENTFORMAT_END
171
     0
 94
        6
 95
        1
302
GRIDFORMAT
  1
GRIDFORMAT_BEGIN
 90
        0
 91
        1
 62
     0
 92
       -2
340
0
 93
        0
 40
0.045
309
GRIDFORMAT_END
 95
        2
302
GRIDFORMAT
  1
GRIDFORMAT_BEGIN
 90
        0
 91
        1
 62
     0
 92
       -2
340
0
 93
        0
 40
0.045
309
GRIDFORMAT_END
 95
        4
302
GRIDFORMAT
  1
GRIDFORMAT_BEGIN
 90
        0
 91
        1
 62
     0
 92
       -2
340
0
 93
        0
 40
0.045
309
GRIDFORMAT_END
 95
        8
302
GRIDFORMAT
  1
GRIDFORMAT_BEGIN
 90
        0
 91
        1
 62
     0
 92
       -2
340
0
 93
        0
 40
0.045
309
GRIDFORMAT_END
 95
       16
302
GRIDFORMAT
  1
GRIDFORMAT_BEGIN
 90
        0
 91
        1
 62
     0
 92
       -2
340
0
 93
        0
 40
0.045
309
GRIDFORMAT_END
 95
       32
302
GRIDFORMAT
  1
GRIDFORMAT_BEGIN
 90
        0
 91
        1
 62
     0
 92
       -2
340
0
 93
        0
 40
0.045
309
GRIDFORMAT_END
309
TABLEFORMAT_END
  1
CELLSTYLE_BEGIN
 90
        2
 91
        1
300
_HEADER
309
CELLSTYLE_END
300
CELLSTYLE
  1
TABLEFORMAT_BEGIN
 90
        5
170
     1
 91
        0
 92
        0
 62
   257
 93
        1
300
CONTENTFORMAT
  1
CONTENTFORMAT_BEGIN
 90
        0
 91
        0
 92
        4
 93
        0
300

 40
0.0
140
1.0
 94
        2
 62
     0
340
17
144
0.18
309
CONTENTFORMAT_END
171
     0
 94
        6
 95
        1
302
GRIDFORMAT
  1
GRIDFORMAT_BEGIN
 90
        0
 91
        1
 62
     0
 92
       -2
340
0
 93
        0
 40
0.045
309
GRIDFORMAT_END
 95
        2
302
GRIDFORMAT
  1
GRIDFORMAT_BEGIN
 90
        0
 91
        1
 62
     0
 92
       -2
340
0
 93
        0
 40
0.045
309
GRIDFORMAT_END
 95
        4
302
GRIDFORMAT
  1
GRIDFORMAT_BEGIN
 90
        0
 91
        1
 62
     0
 92
       -2
340
0
 93
        0
 40
0.045
309
GRIDFORMAT_END
 95
        8
302
GRIDFORMAT
  1
GRIDFORMAT_BEGIN
 90
        0
 91
        1
 62
     0
 92
       -2
340
0
 93
        0
 40
0.045
309
GRIDFORMAT_END
 95
       16
302
GRIDFORMAT
  1
GRIDFORMAT_BEGIN
 90
        0
 91
        1
 62
     0
 92
       -2
340
0
 93
        0
 40
0.045
309
GRIDFORMAT_END
 95
       32
302
GRIDFORMAT
  1
GRIDFORMAT_BEGIN
 90
        0
 91
        1
 62
     0
 92
       -2
340
0
 93
        0
 40
0.045
309
GRIDFORMAT_END
309
TABLEFORMAT_END
  1
CELLSTYLE_BEGIN
 90
        3
 91
        2
300
_DATA
309
CELLSTYLE_END
  0
XRECORD
  5
2F1
102
{ACAD_REACTORS
330
2EE
102
}
330
2EE
100
AcDbXrecord
280
     1
102
ACAD_ROUNDTRIP_PRE2007_TABLESTYLE
 90
        4
 91
        0
  1

 92
        4
 93
        0
  2

 94
        4
 95
        0
  3

  0
ENDSEC
  0
EOF
