  0
SECTION
  2
HEADER
  9
$ACADVER
  1
AC1018
  9
$ACADMAINTVER
 70
   104
  9
$DWGCODEPAGE
  3
ANSI_1252
  9
$LASTSAVEDBY
  1
EARL
  9
$INSBASE
 10
0.0
 20
0.0
 30
0.0
  9
$EXTMIN
 10
-0.0000000000000012
 20
-0.6010251732781777
 30
0.0
  9
$EXTMAX
 10
9.544247716818937
 20
2.625
 30
0.0
  9
$LIMMIN
 10
0.0
 20
0.0
  9
$LIMMAX
 10
0.0
 20
0.0
  9
$ORTHOMODE
 70
     0
  9
$REGENMODE
 70
     1
  9
$FILLMODE
 70
     1
  9
$QTEXTMODE
 70
     0
  9
$MIRRTEXT
 70
     1
  9
$LTSCALE
 40
1.0
  9
$ATTMODE
 70
     1
  9
$TEXTSIZE
 40
0.0
  9
$TRACEWID
 40
0.05
  9
$TEXTSTYLE
  7
Standard
  9
$CLAYER
  8
0
  9
$CELTYPE
  6
Continuous
  9
$CECOLOR
 62
   256
  9
$CELTSCALE
 40
1.0
  9
$DISPSILH
 70
     0
  9
$DIMSCALE
 40
1.0
  9
$DIMASZ
 40
0.18
  9
$DIMEXO
 40
0.0625
  9
$DIMDLI
 40
0.38
  9
$DIMRND
 40
0.0
  9
$DIMDLE
 40
0.0
  9
$DIMEXE
 40
0.18
  9
$DIMTP
 40
0.0
  9
$DIMTM
 40
0.0
  9
$DIMTXT
 40
0.18
  9
$DIMCEN
 40
0.09
  9
$DIMTSZ
 40
0.0
  9
$DIMTOL
 70
     0
  9
$DIMLIM
 70
     0
  9
$DIMTIH
 70
     1
  9
$DIMTOH
 70
     1
  9
$DIMSE1
 70
     0
  9
$DIMSE2
 70
     0
  9
$DIMTAD
 70
     0
  9
$DIMZIN
 70
     0
  9
$DIMBLK
  1

  9
$DIMASO
 70
     1
  9
$DIMSHO
 70
     1
  9
$DIMPOST
  1

  9
$DIMAPOST
  1

  9
$DIMALT
 70
     0
  9
$DIMALTD
 70
     2
  9
$DIMALTF
 40
25.4
  9
$DIMLFAC
 40
1.0
  9
$DIMTOFL
 70
     0
  9
$DIMTVP
 40
0.0
  9
$DIMTIX
 70
     0
  9
$DIMSOXD
 70
     0
  9
$DIMSAH
 70
     0
  9
$DIMBLK1
  1

  9
$DIMBLK2
  1

  9
$DIMSTYLE
  2
Standard
  9
$DIMCLRD
 70
     0
  9
$DIMCLRE
 70
     0
  9
$DIMCLRT
 70
     0
  9
$DIMTFAC
 40
1.0
  9
$DIMGAP
 40
0.09
  9
$DIMJUST
 70
     0
  9
$DIMSD1
 70
     0
  9
$DIMSD2
 70
     0
  9
$DIMTOLJ
 70
     1
  9
$DIMTZIN
 70
     0
  9
$DIMALTZ
 70
     0
  9
$DIMALTTZ
 70
     0
  9
$DIMUPT
 70
     0
  9
$DIMDEC
 70
     4
  9
$DIMTDEC
 70
     4
  9
$DIMALTU
 70
     2
  9
$DIMALTTD
 70
     2
  9
$DIMTXSTY
  7
Standard
  9
$DIMAUNIT
 70
     0
  9
$DIMADEC
 70
     0
  9
$DIMALTRND
 40
0.0
  9
$DIMAZIN
 70
     0
  9
$DIMDSEP
 70
    46
  9
$DIMATFIT
 70
     0
  9
$DIMFRAC
 70
     0
  9
$DIMLDRBLK
  1

  9
$DIMLUNIT
 70
     2
  9
$DIMLWD
 70
    -2
  9
$DIMLWE
 70
    -2
  9
$DIMTMOVE
 70
     0
  9
$LUNITS
 70
     2
  9
$LUPREC
 70
     4
  9
$SKETCHINC
 40
0.1
  9
$FILLETRAD
 40
0.0
  9
$AUNITS
 70
     0
  9
$AUPREC
 70
     0
  9
$MENU
  1
acad
  9
$ELEVATION
 40
0.0
  9
$PELEVATION
 40
0.0
  9
$THICKNESS
 40
0.0
  9
$LIMCHECK
 70
     0
  9
$CHAMFERA
 40
0.0
  9
$CHAMFERB
 40
0.0
  9
$CHAMFERC
 40
0.0
  9
$CHAMFERD
 40
0.0
  9
$SKPOLY
 70
     0
  9
$TDCREATE
 40
2454510.605578704
  9
$TDUCREATE
 40
2454510.772245370
  9
$TDUPDATE
 40
2455105.506129549
  9
$TDUUPDATE
 40
2455105.672796215
  9
$TDINDWG
 40
0.0009074884
  9
$TDUSRTIMER
 40
0.0009074884
  9
$USRTIMER
 70
     1
  9
$ANGBASE
 50
0.0
  9
$ANGDIR
 70
     0
  9
$PDMODE
 70
     0
  9
$PDSIZE
 40
0.0
  9
$PLINEWID
 40
0.0
  9
$SPLFRAME
 70
     0
  9
$SPLINETYPE
 70
     6
  9
$SPLINESEGS
 70
     8
  9
$HANDSEED
  5
2DD
  9
$SURFTAB1
 70
     6
  9
$SURFTAB2
 70
     6
  9
$SURFTYPE
 70
     6
  9
$SURFU
 70
     6
  9
$SURFV
 70
     6
  9
$UCSBASE
  2

  9
$UCSNAME
  2

  9
$UCSORG
 10
0.0
 20
0.0
 30
0.0
  9
$UCSXDIR
 10
1.0
 20
0.0
 30
0.0
  9
$UCSYDIR
 10
0.0
 20
1.0
 30
0.0
  9
$UCSORTHOREF
  2

  9
$UCSORTHOVIEW
 70
     0
  9
$UCSORGTOP
 10
0.0
 20
0.0
 30
0.0
  9
$UCSORGBOTTOM
 10
0.0
 20
0.0
 30
0.0
  9
$UCSORGLEFT
 10
0.0
 20
0.0
 30
0.0
  9
$UCSORGRIGHT
 10
0.0
 20
0.0
 30
0.0
  9
$UCSORGFRONT
 10
0.0
 20
0.0
 30
0.0
  9
$UCSORGBACK
 10
0.0
 20
0.0
 30
0.0
  9
$PUCSBASE
  2

  9
$PUCSNAME
  2

  9
$PUCSORG
 10
0.0
 20
0.0
 30
0.0
  9
$PUCSXDIR
 10
1.0
 20
0.0
 30
0.0
  9
$PUCSYDIR
 10
0.0
 20
1.0
 30
0.0
  9
$PUCSORTHOREF
  2

  9
$PUCSORTHOVIEW
 70
     0
  9
$PUCSORGTOP
 10
0.0
 20
0.0
 30
0.0
  9
$PUCSORGBOTTOM
 10
0.0
 20
0.0
 30
0.0
  9
$PUCSORGLEFT
 10
0.0
 20
0.0
 30
0.0
  9
$PUCSORGRIGHT
 10
0.0
 20
0.0
 30
0.0
  9
$PUCSORGFRONT
 10
0.0
 20
0.0
 30
0.0
  9
$PUCSORGBACK
 10
0.0
 20
0.0
 30
0.0
  9
$USERI1
 70
     0
  9
$USERI2
 70
     0
  9
$USERI3
 70
     0
  9
$USERI4
 70
     0
  9
$USERI5
 70
     0
  9
$USERR1
 40
0.0
  9
$USERR2
 40
0.0
  9
$USERR3
 40
0.0
  9
$USERR4
 40
0.0
  9
$USERR5
 40
0.0
  9
$WORLDVIEW
 70
     1
  9
$SHADEDGE
 70
     3
  9
$SHADEDIF
 70
    70
  9
$TILEMODE
 70
     0
  9
$MAXACTVP
 70
    16
  9
$PINSBASE
 10
0.0
 20
0.0
 30
0.0
  9
$PLIMCHECK
 70
     0
  9
$PEXTMIN
 10
-0.0876841834915467
 20
-0.0610234381733861
 30
-0.0015258207003583
  9
$PEXTMAX
 10
10.36089630497103
 20
8.015043016304314
 30
0.0000000349246037
  9
$PLIMMIN
 10
-0.3280945746555161
 20
-0.2818067443045545
  9
$PLIMMAX
 10
10.67190518504859
 20
8.218193015399554
  9
$UNITMODE
 70
     0
  9
$VISRETAIN
 70
     0
  9
$PLINEGEN
 70
     1
  9
$PSLTSCALE
 70
     0
  9
$TREEDEPTH
 70
  3020
  9
$CMLSTYLE
  2
Standard
  9
$CMLJUST
 70
     0
  9
$CMLSCALE
 40
1.0
  9
$PROXYGRAPHICS
 70
     0
  9
$MEASUREMENT
 70
     0
  9
$CELWEIGHT
370
     0
  9
$ENDCAPS
280
     0
  9
$JOINSTYLE
280
     0
  9
$LWDISPLAY
290
     0
  9
$INSUNITS
 70
     0
  9
$HYPERLINKBASE
  1

  9
$STYLESHEET
  1

  9
$XEDIT
290
     1
  9
$CEPSNTYPE
380
     0
  9
$PSTYLEMODE
290
     1
  9
$FINGERPRINTGUID
  2

  9
$VERSIONGUID
  2
{AA0ACA37-9D05-463C-9F2A-F0774A075F7D}
  9
$EXTNAMES
290
     1
  9
$PSVPSCALE
 40
0.0
  9
$OLESTARTUP
290
     0
  9
$SORTENTS
280
   127
  9
$INDEXCTL
280
     0
  9
$HIDETEXT
280
     0
  9
$XCLIPFRAME
290
     0
  9
$HALOGAP
280
     0
  9
$OBSCOLOR
 70
   257
  9
$OBSLTYPE
280
     0
  9
$INTERSECTIONDISPLAY
280
     0
  9
$INTERSECTIONCOLOR
 70
   257
  9
$DIMASSOC
280
     1
  9
$PROJECTNAME
  1

  0
ENDSEC
  0
SECTION
  2
CLASSES
  0
CLASS
  1
IMAGE
  2
AcDbRasterImage
  3
ISM
 90
     2175
 91
        0
280
     0
281
     1
  0
CLASS
  1
DICTIONARYVAR
  2
AcDbDictionaryVar
  3
ObjectDBX Classes
 90
        0
 91
        5
280
     0
281
     0
  0
CLASS
  1
RASTERVARIABLES
  2
AcDbRasterVariables
  3
ISM
 90
        0
 91
        0
280
     0
281
     0
  0
CLASS
  1
IMAGEDEF
  2
AcDbRasterImageDef
  3
ISM
 90
        0
 91
        0
280
     0
281
     0
  0
CLASS
  1
IMAGEDEF_REACTOR
  2
AcDbRasterImageDefReactor
  3
ISM
 90
        1
 91
        0
280
     0
281
     0
  0
CLASS
  1
IDBUFFER
  2
AcDbIdBuffer
  3
ObjectDBX Classes
 90
        0
 91
        0
280
     0
281
     0
  0
CLASS
  1
SPATIAL_FILTER
  2
AcDbSpatialFilter
  3
ObjectDBX Classes
 90
        0
 91
        0
280
     0
281
     0
  0
CLASS
  1
SORTENTSTABLE
  2
AcDbSortentsTable
  3
ObjectDBX Classes
 90
        0
 91
        1
280
     0
281
     0
  0
CLASS
  1
LAYER_INDEX
  2
AcDbLayerIndex
  3
ObjectDBX Classes
 90
        0
 91
        0
280
     0
281
     0
  0
CLASS
  1
SPATIAL_INDEX
  2
AcDbSpatialIndex
  3
ObjectDBX Classes
 90
        0
 91
        0
280
     0
281
     0
  0
CLASS
  1
OBJECT_PTR
  2
CAseDLPNTableRecord
  3
"ASE-LPNTableRecord"
 90
        1
 91
        0
280
     0
281
     0
  0
CLASS
  1
PLOTSETTINGS
  2
AcDbPlotSettings
  3
ObjectDBX Classes
 90
        0
 91
        0
280
     0
281
     0
  0
CLASS
  1
ACDBDICTIONARYWDFLT
  2
AcDbDictionaryWithDefault
  3
ObjectDBX Classes
 90
        0
 91
        1
280
     0
281
     0
  0
CLASS
  1
WIPEOUT
  2
AcDbWipeout
  3
"WipeOut|Product Desc: Object Enabler for WipeOut entity                        |Company: Autodesk, Inc.                        |WEB Address: www.autodesk.com"
 90
     2175
 91
        0
280
     0
281
     1
  0
CLASS
  1
WIPEOUTVARIABLES
  2
AcDbWipeoutVariables
  3
"WipeOut|Product Desc:     WipeOut Dbx Application|Company:          Autodesk, Inc.|WEB Address:      www.autodesk.com"
 90
        0
 91
        1
280
     0
281
     0
  0
CLASS
  1
RTEXT
  2
RText
  3
RText|AutoCAD Express Tool|expresstools@autodesk.com
 90
        0
 91
        0
280
     0
281
     1
  0
CLASS
  1
ARCALIGNEDTEXT
  2
AcDbArcAlignedText
  3
ATEXT|AutoCAD Express Tool|expresstools@autodesk.com
 90
        0
 91
        0
280
     0
281
     1
  0
CLASS
  1
TABLESTYLE
  2
AcDbTableStyle
  3
ObjectDBX Classes
 90
     4095
 91
        1
280
     0
281
     0
  0
CLASS
  1
MATERIAL
  2
AcDbMaterial
  3
ObjectDBX Classes
 90
     1153
 91
        3
280
     0
281
     0
  0
CLASS
  1
VISUALSTYLE
  2
AcDbVisualStyle
  3
ObjectDBX Classes
 90
     4095
 91
       16
280
     0
281
     0
  0
CLASS
  1
SCALE
  2
AcDbScale
  3
ObjectDBX Classes
 90
     1153
 91
       33
280
     0
281
     0
  0
CLASS
  1
MLEADERSTYLE
  2
AcDbMLeaderStyle
  3
ACDB_MLEADERSTYLE_CLASS
 90
     4095
 91
        1
280
     0
281
     0
  0
CLASS
  1
CELLSTYLEMAP
  2
AcDbCellStyleMap
  3
ObjectDBX Classes
 90
     1152
 91
        2
280
     0
281
     0
  0
ENDSEC
  0
SECTION
  2
TABLES
  0
TABLE
  2
VPORT
  5
7
330
0
100
AcDbSymbolTable
 70
     1
  0
VPORT
  5
253
330
7
100
AcDbSymbolTableRecord
100
AcDbViewportTableRecord
  2
*Active
 70
     0
 10
0.0
 20
0.0
 11
1.0
 21
1.0
 12
4.88157163899447
 22
0.7968150648809953
 13
0.0
 23
0.0
 14
1.0
 24
1.0
 15
0.0
 25
0.0
 16
0.0
 26
0.0
 36
1.0
 17
0.0
 27
0.0
 37
0.0
 40
9.29147228412394
 41
1.889980353634577
 42
50.0
 43
0.0
 44
0.0
 50
0.0
 51
0.0
 71
     0
 72
   100
 73
     1
 74
     1
 75
     0
 76
     0
 77
     0
 78
     0
281
     0
 65
     0
110
0.0
120
0.0
130
0.0
111
1.0
121
0.0
131
0.0
112
0.0
122
1.0
132
0.0
 79
     0
146
0.0
  0
ENDTAB
  0
TABLE
  2
LTYPE
  5
4
330
0
100
AcDbSymbolTable
 70
     4
  0
LTYPE
  5
11
330
4
100
AcDbSymbolTableRecord
100
AcDbLinetypeTableRecord
  2
ByBlock
 70
     0
  3

 72
    65
 73
     0
 40
0.0
  0
LTYPE
  5
12
330
4
100
AcDbSymbolTableRecord
100
AcDbLinetypeTableRecord
  2
ByLayer
 70
     0
  3

 72
    65
 73
     0
 40
0.0
  0
LTYPE
  5
13
330
4
100
AcDbSymbolTableRecord
100
AcDbLinetypeTableRecord
  2
Continuous
 70
     0
  3
Solid line
 72
    65
 73
     0
 40
0.0
  0
LTYPE
  5
24
330
4
100
AcDbSymbolTableRecord
100
AcDbLinetypeTableRecord
  2
solid
 70
     0
  3

 72
    65
 73
     0
 40
0.0
  0
LTYPE
  5
25
330
4
100
AcDbSymbolTableRecord
100
AcDbLinetypeTableRecord
  2
dashed
 70
     0
  3

 72
    65
 73
     0
 40
0.0
  0
LTYPE
  5
26
330
4
100
AcDbSymbolTableRecord
100
AcDbLinetypeTableRecord
  2
center
 70
     0
  3

 72
    65
 73
     0
 40
0.0
  0
ENDTAB
  0
TABLE
  2
LAYER
  5
2
330
0
100
AcDbSymbolTable
 70
     2
  0
LAYER
  5
14
102
{ACAD_XDICTIONARY
360
2B2
102
}
330
2
100
AcDbSymbolTableRecord
100
AcDbLayerTableRecord
  2
0
 70
     0
 62
     7
  6
Continuous
370
    -3
390
1D
  0
LAYER
  5
27
102
{ACAD_XDICTIONARY
360
2B4
102
}
330
2
100
AcDbSymbolTableRecord
100
AcDbLayerTableRecord
  2
1
 70
     0
 62
     1
  6
solid
370
    -3
390
1D
  0
ENDTAB
  0
TABLE
  2
STYLE
  5
3
330
0
100
AcDbSymbolTable
 70
     2
  0
STYLE
  5
17
330
3
100
AcDbSymbolTableRecord
100
AcDbTextStyleTableRecord
  2
Standard
 70
     0
 40
0.0
 41
1.0
 50
0.0
 71
     0
 42
0.0
  3
txt
  4

  0
ENDTAB
  0
TABLE
  2
VIEW
  5
5
330
0
100
AcDbSymbolTable
 70
     0
  0
ENDTAB
  0
TABLE
  2
UCS
  5
6
330
0
100
AcDbSymbolTable
 70
     0
  0
ENDTAB
  0
TABLE
  2
APPID
  5
8
330
0
100
AcDbSymbolTable
 70
     3
  0
APPID
  5
16
330
8
100
AcDbSymbolTableRecord
100
AcDbRegAppTableRecord
  2
ACAD
 70
     0
  0
APPID
  5
2A4
330
8
100
AcDbSymbolTableRecord
100
AcDbRegAppTableRecord
  2
ACAD_MLEADERVER
 70
     0
  0
APPID
  5
2AD
330
8
100
AcDbSymbolTableRecord
100
AcDbRegAppTableRecord
  2
ACAD_PSEXT
 70
     0
  0
ENDTAB
  0
TABLE
  2
DIMSTYLE
  5
9
330
0
100
AcDbSymbolTable
 70
     2
100
AcDbDimStyleTable
 71
     1
340
18
  0
DIMSTYLE
105
18
330
9
100
AcDbSymbolTableRecord
100
AcDbDimStyleTableRecord
  2
Standard
 70
     0
289
     0
340
17
  0
ENDTAB
  0
TABLE
  2
BLOCK_RECORD
  5
1
330
0
100
AcDbSymbolTable
 70
     2
  0
BLOCK_RECORD
  5
A
102
{ACAD_XDICTIONARY
360
2C5
102
}
330
1
100
AcDbSymbolTableRecord
100
AcDbBlockTableRecord
  2
*MODEL_SPACE
340
20
  0
BLOCK_RECORD
  5
B
330
1
100
AcDbSymbolTableRecord
100
AcDbBlockTableRecord
  2
*PAPER_SPACE
340
21
  0
BLOCK_RECORD
  5
2F
330
1
100
AcDbSymbolTableRecord
100
AcDbBlockTableRecord
  2
*D0
340
0
  0
ENDTAB
  0
ENDSEC
  0
SECTION
  2
BLOCKS
  0
BLOCK
  5
D
330
A
100
AcDbEntity
  8
0
100
AcDbBlockBegin
  2
*MODEL_SPACE
 70
     0
 10
0.0
 20
0.0
 30
0.0
  3
*MODEL_SPACE
  1

  0
ENDBLK
  5
E
330
A
100
AcDbEntity
  8
0
100
AcDbBlockEnd
  0
BLOCK
  5
F
330
B
100
AcDbEntity
 67
     1
  8
0
100
AcDbBlockBegin
  2
*PAPER_SPACE
 70
     0
 10
0.0
 20
0.0
 30
0.0
  3
*PAPER_SPACE
  1

  0
ENDBLK
  5
10
330
B
100
AcDbEntity
 67
     1
  8
0
100
AcDbBlockEnd
  0
BLOCK
  5
30
330
2F
100
AcDbEntity
  8
1
  6
solid
 62
     0
100
AcDbBlockBegin
  2
*D0
 70
     0
 10
0.0
 20
0.0
 30
0.0
  3
*D0
  1

  0
LINE
  5
31
330
2F
100
AcDbEntity
  8
1
  6
solid
 62
     0
100
AcDbLine
 10
8.405354499816894
 20
0.0
 30
0.0
 11
8.845150434346139
 21
0.0
 31
0.0
  0
LINE
  5
32
330
2F
100
AcDbEntity
  8
1
  6
solid
 62
     0
100
AcDbLine
 10
8.405354499816894
 20
2.625
 30
0.0
 11
8.845150434346143
 21
2.625
 31
0.0
  0
LINE
  5
33
330
2F
100
AcDbEntity
  8
1
  6
solid
 62
     0
100
AcDbLine
 10
8.720150434346139
 20
0.0
 30
0.0
 11
8.720150434346141
 21
1.052687499999999
 31
0.0
  0
LINE
  5
34
330
2F
100
AcDbEntity
  8
1
  6
solid
 62
     0
100
AcDbLine
 10
8.720150434346143
 20
2.625
 30
0.0
 11
8.720150434346141
 21
1.572312500000001
 31
0.0
  0
MTEXT
  5
35
330
2F
100
AcDbEntity
  8
1
  6
solid
 62
     0
100
AcDbMText
 10
8.720150434346141
 20
1.3125
 30
0.0
 40
0.25
 41
0.0
 71
     5
 72
     1
  1
{\H0.250000;2 5/8}
 73
     1
 44
1.0
  0
SOLID
  5
36
330
2F
100
AcDbEntity
  8
1
  6
solid
 62
     0
100
AcDbTrace
 10
8.678525434346139
 20
0.25
 30
0.0
 11
8.761775434346139
 21
0.25
 31
0.0
 12
8.720150434346139
 22
0.0
 32
0.0
 13
8.720150434346139
 23
0.0
 33
0.0
  0
SOLID
  5
37
330
2F
100
AcDbEntity
  8
1
  6
solid
 62
     0
100
AcDbTrace
 10
8.761775434346141
 20
2.375
 30
0.0
 11
8.678525434346141
 21
2.375
 31
0.0
 12
8.720150434346143
 22
2.625
 32
0.0
 13
8.720150434346143
 23
2.625
 33
0.0
  0
ENDBLK
  5
38
330
2F
100
AcDbEntity
  8
1
  6
solid
 62
     0
100
AcDbBlockEnd
  0
ENDSEC
  0
SECTION
  2
ENTITIES
  0
ARC
  5
28
330
A
100
AcDbEntity
  8
1
  6
solid
 62
     0
100
AcDbCircle
 10
8.155354437016281
 20
1.577465928252951
 30
0.0
 40
1.577465886138613
100
AcDbArc
 50
210.4974804515599
 51
270.0000022803929
  0
ARC
  5
29
330
A
100
AcDbEntity
  8
1
  6
solid
 62
     0
100
AcDbCircle
 10
5.436902937077316
 20
1.577465928252951
 30
0.0
 40
1.577465886138613
100
AcDbArc
 50
210.4974804515599
 51
329.50251954844
  0
ARC
  5
2A
330
A
100
AcDbEntity
  8
1
  6
solid
 62
     0
100
AcDbCircle
 10
2.718451437138352
 20
1.577465928252951
 30
0.0
 40
1.577465886138613
100
AcDbArc
 50
210.4974804515599
 51
329.50251954844
  0
ARC
  5
2B
330
A
100
AcDbEntity
  8
1
  6
solid
 62
     0
100
AcDbCircle
 10
-0.0000000628006127
 20
1.577465928252951
 30
0.0
 40
1.577465886138613
100
AcDbArc
 50
270.0000022810065
 51
329.50251954844
  0
LINE
  5
2C
330
A
100
AcDbEntity
  8
1
  6
solid
 62
     0
100
AcDbLine
 10
0.0
 20
0.0000000421143398
 30
0.0
 11
0.0
 21
2.625
 31
0.0
  0
LINE
  5
2D
330
A
100
AcDbEntity
  8
1
  6
solid
 62
     0
100
AcDbLine
 10
8.155354499799999
 20
0.0000000421143398
 30
0.0
 11
8.155354499799999
 21
2.625
 31
0.0
  0
LINE
  5
2E
330
A
100
AcDbEntity
  8
1
  6
solid
 62
     0
100
AcDbLine
 10
0.0
 20
2.625
 30
0.0
 11
8.155354499816894
 21
2.625
 31
0.0
  0
LINE
  5
3A
330
A
100
AcDbEntity
  8
1
  6
solid
 62
     0
100
AcDbLine
 10
3.675402250249128
 20
1.529946042417974
 30
0.0
 11
3.675402250249128
 21
1.562397965494897
 31
0.0
  0
LINE
  5
3B
330
A
100
AcDbEntity
  8
1
  6
solid
 62
     0
100
AcDbLine
 10
3.675402250249128
 20
1.562397965494897
 30
0.0
 11
3.698931662013833
 21
1.562397965494897
 31
0.0
  0
LINE
  5
3C
330
A
100
AcDbEntity
  8
1
  6
solid
 62
     0
100
AcDbLine
 10
3.698931662013833
 20
1.562397965494897
 30
0.0
 11
3.698931662013833
 21
1.747494119341051
 31
0.0
  0
LINE
  5
3D
330
A
100
AcDbEntity
  8
1
  6
solid
 62
     0
100
AcDbLine
 10
3.698931662013833
 20
1.747494119341051
 30
0.0
 11
3.675402250249128
 21
1.747494119341051
 31
0.0
  0
LINE
  5
3E
330
A
100
AcDbEntity
  8
1
  6
solid
 62
     0
100
AcDbLine
 10
3.675402250249128
 20
1.747494119341051
 30
0.0
 11
3.675402250249128
 21
1.779946042417974
 31
0.0
  0
LINE
  5
3F
330
A
100
AcDbEntity
  8
1
  6
solid
 62
     0
100
AcDbLine
 10
3.675402250249128
 20
1.779946042417974
 30
0.0
 11
3.746970877700108
 21
1.779946042417974
 31
0.0
  0
LINE
  5
40
330
A
100
AcDbEntity
  8
1
  6
solid
 62
     0
100
AcDbLine
 10
3.746970877700108
 20
1.779946042417974
 30
0.0
 11
3.746970877700108
 21
1.747494119341051
 31
0.0
  0
LINE
  5
41
330
A
100
AcDbEntity
  8
1
  6
solid
 62
     0
100
AcDbLine
 10
3.746970877700108
 20
1.747494119341051
 30
0.0
 11
3.72638264240599
 21
1.747494119341051
 31
0.0
  0
LINE
  5
42
330
A
100
AcDbEntity
  8
1
  6
solid
 62
     0
100
AcDbLine
 10
3.72638264240599
 20
1.747494119341051
 30
0.0
 11
3.72638264240599
 21
1.562397965494897
 31
0.0
  0
LINE
  5
43
330
A
100
AcDbEntity
  8
1
  6
solid
 62
     0
100
AcDbLine
 10
3.72638264240599
 20
1.562397965494897
 30
0.0
 11
3.776872838484422
 21
1.562397965494897
 31
0.0
  0
LINE
  5
44
330
A
100
AcDbEntity
  8
1
  6
solid
 62
     0
100
AcDbLine
 10
3.776872838484422
 20
1.562397965494897
 30
0.0
 11
3.776872838484422
 21
1.608071042417974
 31
0.0
  0
LINE
  5
45
330
A
100
AcDbEntity
  8
1
  6
solid
 62
     0
100
AcDbLine
 10
3.776872838484422
 20
1.608071042417974
 30
0.0
 11
3.800402250249128
 21
1.608071042417974
 31
0.0
  0
LINE
  5
46
330
A
100
AcDbEntity
  8
1
  6
solid
 62
     0
100
AcDbLine
 10
3.800402250249128
 20
1.608071042417974
 30
0.0
 11
3.800402250249128
 21
1.529946042417974
 31
0.0
  0
LINE
  5
47
330
A
100
AcDbEntity
  8
1
  6
solid
 62
     0
100
AcDbLine
 10
3.800402250249128
 20
1.529946042417974
 30
0.0
 11
3.675402250249128
 21
1.529946042417974
 31
0.0
  0
LINE
  5
48
330
A
100
AcDbEntity
  8
1
  6
solid
 62
     0
100
AcDbLine
 10
3.842559112994226
 20
1.529946042417974
 30
0.0
 11
3.842559112994226
 21
1.562397965494897
 31
0.0
  0
LINE
  5
49
330
A
100
AcDbEntity
  8
1
  6
solid
 62
     0
100
AcDbLine
 10
3.842559112994226
 20
1.562397965494897
 30
0.0
 11
3.869519897307951
 21
1.562397965494897
 31
0.0
  0
LINE
  5
4A
330
A
100
AcDbEntity
  8
1
  6
solid
 62
     0
100
AcDbLine
 10
3.869519897307951
 20
1.562397965494897
 30
0.0
 11
3.869519897307951
 21
1.747494119341051
 31
0.0
  0
LINE
  5
4B
330
A
100
AcDbEntity
  8
1
  6
solid
 62
     0
100
AcDbLine
 10
3.869519897307951
 20
1.747494119341051
 30
0.0
 11
3.841088524758932
 21
1.747494119341051
 31
0.0
  0
LINE
  5
4C
330
A
100
AcDbEntity
  8
1
  6
solid
 62
     0
100
AcDbLine
 10
3.841088524758932
 20
1.747494119341051
 30
0.0
 11
3.841088524758932
 21
1.779946042417974
 31
0.0
  0
LINE
  5
4D
330
A
100
AcDbEntity
  8
1
  6
solid
 62
     0
100
AcDbLine
 10
3.841088524758932
 20
1.779946042417974
 30
0.0
 11
3.90481401495501
 21
1.779946042417974
 31
0.0
  0
LINE
  5
4E
330
A
100
AcDbEntity
  8
1
  6
solid
 62
     0
100
AcDbLine
 10
3.90481401495501
 20
1.779946042417974
 30
0.0
 11
3.90481401495501
 21
1.562397965494897
 31
0.0
  0
LINE
  5
4F
330
A
100
AcDbEntity
  8
1
  6
solid
 62
     0
100
AcDbLine
 10
3.90481401495501
 20
1.562397965494897
 30
0.0
 11
3.934715975739324
 21
1.562397965494897
 31
0.0
  0
LINE
  5
50
330
A
100
AcDbEntity
  8
1
  6
solid
 62
     0
100
AcDbLine
 10
3.934715975739324
 20
1.562397965494897
 30
0.0
 11
3.934715975739324
 21
1.529946042417974
 31
0.0
  0
LINE
  5
51
330
A
100
AcDbEntity
  8
1
  6
solid
 62
     0
100
AcDbLine
 10
3.934715975739324
 20
1.529946042417974
 30
0.0
 11
3.842559112994226
 21
1.529946042417974
 31
0.0
  0
LINE
  5
52
330
A
100
AcDbEntity
  8
1
  6
solid
 62
     0
100
AcDbLine
 10
3.992559112994226
 20
1.529946042417974
 30
0.0
 11
3.992559112994226
 21
1.562397965494897
 31
0.0
  0
LINE
  5
53
330
A
100
AcDbEntity
  8
1
  6
solid
 62
     0
100
AcDbLine
 10
3.992559112994226
 20
1.562397965494897
 30
0.0
 11
4.019519897307951
 21
1.562397965494897
 31
0.0
  0
LINE
  5
54
330
A
100
AcDbEntity
  8
1
  6
solid
 62
     0
100
AcDbLine
 10
4.019519897307951
 20
1.562397965494897
 30
0.0
 11
4.019519897307951
 21
1.747494119341051
 31
0.0
  0
LINE
  5
55
330
A
100
AcDbEntity
  8
1
  6
solid
 62
     0
100
AcDbLine
 10
4.019519897307951
 20
1.747494119341051
 30
0.0
 11
3.991088524758931
 21
1.747494119341051
 31
0.0
  0
LINE
  5
56
330
A
100
AcDbEntity
  8
1
  6
solid
 62
     0
100
AcDbLine
 10
3.991088524758931
 20
1.747494119341051
 30
0.0
 11
3.991088524758931
 21
1.779946042417974
 31
0.0
  0
LINE
  5
57
330
A
100
AcDbEntity
  8
1
  6
solid
 62
     0
100
AcDbLine
 10
3.991088524758931
 20
1.779946042417974
 30
0.0
 11
4.05481401495501
 21
1.779946042417974
 31
0.0
  0
LINE
  5
58
330
A
100
AcDbEntity
  8
1
  6
solid
 62
     0
100
AcDbLine
 10
4.05481401495501
 20
1.779946042417974
 30
0.0
 11
4.05481401495501
 21
1.562397965494897
 31
0.0
  0
LINE
  5
59
330
A
100
AcDbEntity
  8
1
  6
solid
 62
     0
100
AcDbLine
 10
4.05481401495501
 20
1.562397965494897
 30
0.0
 11
4.084715975739324
 21
1.562397965494897
 31
0.0
  0
LINE
  5
5A
330
A
100
AcDbEntity
  8
1
  6
solid
 62
     0
100
AcDbLine
 10
4.084715975739324
 20
1.562397965494897
 30
0.0
 11
4.084715975739324
 21
1.529946042417974
 31
0.0
  0
LINE
  5
5B
330
A
100
AcDbEntity
  8
1
  6
solid
 62
     0
100
AcDbLine
 10
4.084715975739324
 20
1.529946042417974
 30
0.0
 11
3.992559112994226
 21
1.529946042417974
 31
0.0
  0
LINE
  5
5C
330
A
100
AcDbEntity
  8
1
  6
solid
 62
     0
100
AcDbLine
 10
4.19402970122952
 20
1.529946042417974
 30
0.0
 11
4.206284603190304
 21
1.533551811648743
 31
0.0
  0
LINE
  5
5D
330
A
100
AcDbEntity
  8
1
  6
solid
 62
     0
100
AcDbLine
 10
4.206284603190304
 20
1.533551811648743
 30
0.0
 11
4.21902970122952
 21
1.540763350110282
 31
0.0
  0
LINE
  5
5E
330
A
100
AcDbEntity
  8
1
  6
solid
 62
     0
100
AcDbLine
 10
4.21902970122952
 20
1.540763350110282
 30
0.0
 11
4.226872838484422
 21
1.546772965494897
 31
0.0
  0
LINE
  5
5F
330
A
100
AcDbEntity
  8
1
  6
solid
 62
     0
100
AcDbLine
 10
4.226872838484422
 20
1.546772965494897
 30
0.0
 11
4.235206171817755
 21
1.557590273187205
 31
0.0
  0
LINE
  5
60
330
A
100
AcDbEntity
  8
1
  6
solid
 62
     0
100
AcDbLine
 10
4.235206171817755
 20
1.557590273187205
 30
0.0
 11
4.2405983286805
 21
1.566003734725667
 31
0.0
  0
LINE
  5
61
330
A
100
AcDbEntity
  8
1
  6
solid
 62
     0
100
AcDbLine
 10
4.2405983286805
 20
1.566003734725667
 30
0.0
 11
4.246480681621677
 21
1.578022965494897
 31
0.0
  0
LINE
  5
62
330
A
100
AcDbEntity
  8
1
  6
solid
 62
     0
100
AcDbLine
 10
4.246480681621677
 20
1.578022965494897
 30
0.0
 11
4.250402250249128
 21
1.599657580879513
 31
0.0
  0
LINE
  5
63
330
A
100
AcDbEntity
  8
1
  6
solid
 62
     0
100
AcDbLine
 10
4.250402250249128
 20
1.599657580879513
 30
0.0
 11
4.250402250249128
 21
1.710234503956436
 31
0.0
  0
LINE
  5
64
330
A
100
AcDbEntity
  8
1
  6
solid
 62
     0
100
AcDbLine
 10
4.250402250249128
 20
1.710234503956436
 30
0.0
 11
4.24746107377854
 21
1.728263350110282
 31
0.0
  0
LINE
  5
65
330
A
100
AcDbEntity
  8
1
  6
solid
 62
     0
100
AcDbLine
 10
4.24746107377854
 20
1.728263350110282
 30
0.0
 11
4.242068916915794
 21
1.741484503956436
 31
0.0
  0
LINE
  5
66
330
A
100
AcDbEntity
  8
1
  6
solid
 62
     0
100
AcDbLine
 10
4.242068916915794
 20
1.741484503956436
 30
0.0
 11
4.235206171817755
 21
1.752301811648743
 31
0.0
  0
LINE
  5
67
330
A
100
AcDbEntity
  8
1
  6
solid
 62
     0
100
AcDbLine
 10
4.235206171817755
 20
1.752301811648743
 30
0.0
 11
4.228343426719716
 21
1.763119119341051
 31
0.0
  0
LINE
  5
68
330
A
100
AcDbEntity
  8
1
  6
solid
 62
     0
100
AcDbLine
 10
4.228343426719716
 20
1.763119119341051
 30
0.0
 11
4.220010093386383
 21
1.769128734725667
 31
0.0
  0
LINE
  5
69
330
A
100
AcDbEntity
  8
1
  6
solid
 62
     0
100
AcDbLine
 10
4.220010093386383
 20
1.769128734725667
 30
0.0
 11
4.210696367896186
 21
1.775138350110282
 31
0.0
  0
LINE
  5
6A
330
A
100
AcDbEntity
  8
1
  6
solid
 62
     0
100
AcDbLine
 10
4.210696367896186
 20
1.775138350110282
 30
0.0
 11
4.202363034562853
 21
1.778744119341051
 31
0.0
  0
LINE
  5
6B
330
A
100
AcDbEntity
  8
1
  6
solid
 62
     0
100
AcDbLine
 10
4.202363034562853
 20
1.778744119341051
 30
0.0
 11
4.19402970122952
 21
1.779946042417974
 31
0.0
  0
LINE
  5
6C
330
A
100
AcDbEntity
  8
1
  6
solid
 62
     0
100
AcDbLine
 10
4.19402970122952
 20
1.779946042417974
 30
0.0
 11
4.178833622798148
 21
1.779946042417974
 31
0.0
  0
LINE
  5
6D
330
A
100
AcDbEntity
  8
1
  6
solid
 62
     0
100
AcDbLine
 10
4.178833622798148
 20
1.779946042417974
 30
0.0
 11
4.165108132602068
 21
1.775138350110282
 31
0.0
  0
LINE
  5
6E
330
A
100
AcDbEntity
  8
1
  6
solid
 62
     0
100
AcDbLine
 10
4.165108132602068
 20
1.775138350110282
 30
0.0
 11
4.156774799268736
 21
1.769128734725667
 31
0.0
  0
LINE
  5
6F
330
A
100
AcDbEntity
  8
1
  6
solid
 62
     0
100
AcDbLine
 10
4.156774799268736
 20
1.769128734725667
 30
0.0
 11
4.148931662013834
 21
1.763119119341051
 31
0.0
  0
LINE
  5
70
330
A
100
AcDbEntity
  8
1
  6
solid
 62
     0
100
AcDbLine
 10
4.148931662013834
 20
1.763119119341051
 30
0.0
 11
4.142068916915794
 21
1.753503734725667
 31
0.0
  0
LINE
  5
71
330
A
100
AcDbEntity
  8
1
  6
solid
 62
     0
100
AcDbLine
 10
4.142068916915794
 20
1.753503734725667
 30
0.0
 11
4.135206171817755
 21
1.743888350110282
 31
0.0
  0
LINE
  5
72
330
A
100
AcDbEntity
  8
1
  6
solid
 62
     0
100
AcDbLine
 10
4.135206171817755
 20
1.743888350110282
 30
0.0
 11
4.129323818876579
 21
1.731869119341051
 31
0.0
  0
LINE
  5
73
330
A
100
AcDbEntity
  8
1
  6
solid
 62
     0
100
AcDbLine
 10
4.129323818876579
 20
1.731869119341051
 30
0.0
 11
4.126872838484421
 21
1.718647965494897
 31
0.0
  0
LINE
  5
74
330
A
100
AcDbEntity
  8
1
  6
solid
 62
     0
100
AcDbLine
 10
4.126872838484421
 20
1.718647965494897
 30
0.0
 11
4.125402250249128
 21
1.701821042417974
 31
0.0
  0
LINE
  5
75
330
A
100
AcDbEntity
  8
1
  6
solid
 62
     0
100
AcDbLine
 10
4.125402250249128
 20
1.701821042417974
 30
0.0
 11
4.125402250249128
 21
1.609272965494897
 31
0.0
  0
LINE
  5
76
330
A
100
AcDbEntity
  8
1
  6
solid
 62
     0
100
AcDbLine
 10
4.125402250249128
 20
1.609272965494897
 30
0.0
 11
4.126872838484421
 21
1.591244119341051
 31
0.0
  0
LINE
  5
77
330
A
100
AcDbEntity
  8
1
  6
solid
 62
     0
100
AcDbLine
 10
4.126872838484421
 20
1.591244119341051
 30
0.0
 11
4.130794407111872
 21
1.576821042417974
 31
0.0
  0
LINE
  5
78
330
A
100
AcDbEntity
  8
1
  6
solid
 62
     0
100
AcDbLine
 10
4.130794407111872
 20
1.576821042417974
 30
0.0
 11
4.137657152209912
 21
1.562397965494897
 31
0.0
  0
LINE
  5
79
330
A
100
AcDbEntity
  8
1
  6
solid
 62
     0
100
AcDbLine
 10
4.137657152209912
 20
1.562397965494897
 30
0.0
 11
4.143049309072657
 21
1.552782580879513
 31
0.0
  0
LINE
  5
7A
330
A
100
AcDbEntity
  8
1
  6
solid
 62
     0
100
AcDbLine
 10
4.143049309072657
 20
1.552782580879513
 30
0.0
 11
4.154323818876578
 21
1.541965273187205
 31
0.0
  0
LINE
  5
7B
330
A
100
AcDbEntity
  8
1
  6
solid
 62
     0
100
AcDbLine
 10
4.154323818876578
 20
1.541965273187205
 30
0.0
 11
4.165108132602068
 21
1.534753734725667
 31
0.0
  0
LINE
  5
7C
330
A
100
AcDbEntity
  8
1
  6
solid
 62
     0
100
AcDbLine
 10
4.165108132602068
 20
1.534753734725667
 30
0.0
 11
4.181774799268735
 21
1.529946042417974
 31
0.0
  0
LINE
  5
7D
330
A
100
AcDbEntity
  8
1
  6
solid
 62
     0
100
AcDbLine
 10
4.181774799268735
 20
1.529946042417974
 30
0.0
 11
4.19402970122952
 21
1.529946042417974
 31
0.0
  0
LINE
  5
7E
330
A
100
AcDbEntity
  8
1
  6
solid
 62
     0
100
AcDbLine
 10
4.226872838484422
 20
1.706628734725667
 30
0.0
 11
4.222951269856971
 21
1.722253734725667
 31
0.0
  0
LINE
  5
7F
330
A
100
AcDbEntity
  8
1
  6
solid
 62
     0
100
AcDbLine
 10
4.222951269856971
 20
1.722253734725667
 30
0.0
 11
4.21902970122952
 21
1.731869119341051
 31
0.0
  0
LINE
  5
80
330
A
100
AcDbEntity
  8
1
  6
solid
 62
     0
100
AcDbLine
 10
4.21902970122952
 20
1.731869119341051
 30
0.0
 11
4.213147348288344
 21
1.737878734725667
 31
0.0
  0
LINE
  5
81
330
A
100
AcDbEntity
  8
1
  6
solid
 62
     0
100
AcDbLine
 10
4.213147348288344
 20
1.737878734725667
 30
0.0
 11
4.206284603190304
 21
1.745090273187205
 31
0.0
  0
LINE
  5
82
330
A
100
AcDbEntity
  8
1
  6
solid
 62
     0
100
AcDbLine
 10
4.206284603190304
 20
1.745090273187205
 30
0.0
 11
4.196970877700108
 21
1.748696042417974
 31
0.0
  0
LINE
  5
83
330
A
100
AcDbEntity
  8
1
  6
solid
 62
     0
100
AcDbLine
 10
4.196970877700108
 20
1.748696042417974
 30
0.0
 11
4.188637544366775
 21
1.749897965494897
 31
0.0
  0
LINE
  5
84
330
A
100
AcDbEntity
  8
1
  6
solid
 62
     0
100
AcDbLine
 10
4.188637544366775
 20
1.749897965494897
 30
0.0
 11
4.184225779660892
 21
1.749897965494897
 31
0.0
  0
LINE
  5
85
330
A
100
AcDbEntity
  8
1
  6
solid
 62
     0
100
AcDbLine
 10
4.184225779660892
 20
1.749897965494897
 30
0.0
 11
4.17638264240599
 21
1.748696042417974
 31
0.0
  0
LINE
  5
86
330
A
100
AcDbEntity
  8
1
  6
solid
 62
     0
100
AcDbLine
 10
4.17638264240599
 20
1.748696042417974
 30
0.0
 11
4.168049309072657
 21
1.743888350110282
 31
0.0
  0
LINE
  5
87
330
A
100
AcDbEntity
  8
1
  6
solid
 62
     0
100
AcDbLine
 10
4.168049309072657
 20
1.743888350110282
 30
0.0
 11
4.161186563974617
 21
1.736676811648743
 31
0.0
  0
LINE
  5
88
330
A
100
AcDbEntity
  8
1
  6
solid
 62
     0
100
AcDbLine
 10
4.161186563974617
 20
1.736676811648743
 30
0.0
 11
4.155794407111873
 21
1.728263350110282
 31
0.0
  0
LINE
  5
89
330
A
100
AcDbEntity
  8
1
  6
solid
 62
     0
100
AcDbLine
 10
4.155794407111873
 20
1.728263350110282
 30
0.0
 11
4.15138264240599
 21
1.718647965494897
 31
0.0
  0
LINE
  5
8A
330
A
100
AcDbEntity
  8
1
  6
solid
 62
     0
100
AcDbLine
 10
4.15138264240599
 20
1.718647965494897
 30
0.0
 11
4.148931662013834
 21
1.703022965494897
 31
0.0
  0
LINE
  5
8B
330
A
100
AcDbEntity
  8
1
  6
solid
 62
     0
100
AcDbLine
 10
4.148931662013834
 20
1.703022965494897
 30
0.0
 11
4.148931662013834
 21
1.611676811648743
 31
0.0
  0
LINE
  5
8C
330
A
100
AcDbEntity
  8
1
  6
solid
 62
     0
100
AcDbLine
 10
4.148931662013834
 20
1.611676811648743
 30
0.0
 11
4.149912054170696
 21
1.596051811648743
 31
0.0
  0
LINE
  5
8D
330
A
100
AcDbEntity
  8
1
  6
solid
 62
     0
100
AcDbLine
 10
4.149912054170696
 20
1.596051811648743
 30
0.0
 11
4.154323818876578
 21
1.584032580879513
 31
0.0
  0
LINE
  5
8E
330
A
100
AcDbEntity
  8
1
  6
solid
 62
     0
100
AcDbLine
 10
4.154323818876578
 20
1.584032580879513
 30
0.0
 11
4.161186563974617
 21
1.573215273187205
 31
0.0
  0
LINE
  5
8F
330
A
100
AcDbEntity
  8
1
  6
solid
 62
     0
100
AcDbLine
 10
4.161186563974617
 20
1.573215273187205
 30
0.0
 11
4.169519897307951
 21
1.566003734725667
 31
0.0
  0
LINE
  5
90
330
A
100
AcDbEntity
  8
1
  6
solid
 62
     0
100
AcDbLine
 10
4.169519897307951
 20
1.566003734725667
 30
0.0
 11
4.177363034562853
 21
1.561196042417974
 31
0.0
  0
LINE
  5
91
330
A
100
AcDbEntity
  8
1
  6
solid
 62
     0
100
AcDbLine
 10
4.177363034562853
 20
1.561196042417974
 30
0.0
 11
4.184225779660892
 21
1.559994119341051
 31
0.0
  0
LINE
  5
92
330
A
100
AcDbEntity
  8
1
  6
solid
 62
     0
100
AcDbLine
 10
4.184225779660892
 20
1.559994119341051
 30
0.0
 11
4.188637544366775
 21
1.559994119341051
 31
0.0
  0
LINE
  5
93
330
A
100
AcDbEntity
  8
1
  6
solid
 62
     0
100
AcDbLine
 10
4.188637544366775
 20
1.559994119341051
 30
0.0
 11
4.199421858092264
 21
1.561196042417974
 31
0.0
  0
LINE
  5
94
330
A
100
AcDbEntity
  8
1
  6
solid
 62
     0
100
AcDbLine
 10
4.199421858092264
 20
1.561196042417974
 30
0.0
 11
4.207755191425598
 21
1.566003734725667
 31
0.0
  0
LINE
  5
95
330
A
100
AcDbEntity
  8
1
  6
solid
 62
     0
100
AcDbLine
 10
4.207755191425598
 20
1.566003734725667
 30
0.0
 11
4.214617936523637
 21
1.573215273187205
 31
0.0
  0
LINE
  5
96
330
A
100
AcDbEntity
  8
1
  6
solid
 62
     0
100
AcDbLine
 10
4.214617936523637
 20
1.573215273187205
 30
0.0
 11
4.221480681621677
 21
1.584032580879513
 31
0.0
  0
LINE
  5
97
330
A
100
AcDbEntity
  8
1
  6
solid
 62
     0
100
AcDbLine
 10
4.221480681621677
 20
1.584032580879513
 30
0.0
 11
4.225892446327559
 21
1.593647965494897
 31
0.0
  0
LINE
  5
98
330
A
100
AcDbEntity
  8
1
  6
solid
 62
     0
100
AcDbLine
 10
4.225892446327559
 20
1.593647965494897
 30
0.0
 11
4.226872838484422
 21
1.609272965494897
 31
0.0
  0
LINE
  5
99
330
A
100
AcDbEntity
  8
1
  6
solid
 62
     0
100
AcDbLine
 10
4.226872838484422
 20
1.609272965494897
 30
0.0
 11
4.226872838484422
 21
1.706628734725667
 31
0.0
  0
LINE
  5
9A
330
A
100
AcDbEntity
  8
1
  6
solid
 62
     0
100
AcDbLine
 10
2.768413432717833
 20
-0.6010251732781777
 30
0.0
 11
2.768413432717833
 21
-0.5685732502012547
 31
0.0
  0
LINE
  5
9B
330
A
100
AcDbEntity
  8
1
  6
solid
 62
     0
100
AcDbLine
 10
2.768413432717833
 20
-0.5685732502012547
 30
0.0
 11
2.795374217031558
 21
-0.5685732502012547
 31
0.0
  0
LINE
  5
9C
330
A
100
AcDbEntity
  8
1
  6
solid
 62
     0
100
AcDbLine
 10
2.795374217031558
 20
-0.5685732502012547
 30
0.0
 11
2.795374217031558
 21
-0.3834770963551008
 31
0.0
  0
LINE
  5
9D
330
A
100
AcDbEntity
  8
1
  6
solid
 62
     0
100
AcDbLine
 10
2.795374217031558
 20
-0.3834770963551008
 30
0.0
 11
2.766942844482539
 21
-0.3834770963551008
 31
0.0
  0
LINE
  5
9E
330
A
100
AcDbEntity
  8
1
  6
solid
 62
     0
100
AcDbLine
 10
2.766942844482539
 20
-0.3834770963551008
 30
0.0
 11
2.766942844482539
 21
-0.3510251732781777
 31
0.0
  0
LINE
  5
9F
330
A
100
AcDbEntity
  8
1
  6
solid
 62
     0
100
AcDbLine
 10
2.766942844482539
 20
-0.3510251732781777
 30
0.0
 11
2.830668334678617
 21
-0.3510251732781777
 31
0.0
  0
LINE
  5
A0
330
A
100
AcDbEntity
  8
1
  6
solid
 62
     0
100
AcDbLine
 10
2.830668334678617
 20
-0.3510251732781777
 30
0.0
 11
2.830668334678617
 21
-0.5685732502012547
 31
0.0
  0
LINE
  5
A1
330
A
100
AcDbEntity
  8
1
  6
solid
 62
     0
100
AcDbLine
 10
2.830668334678617
 20
-0.5685732502012547
 30
0.0
 11
2.860570295462931
 21
-0.5685732502012547
 31
0.0
  0
LINE
  5
A2
330
A
100
AcDbEntity
  8
1
  6
solid
 62
     0
100
AcDbLine
 10
2.860570295462931
 20
-0.5685732502012547
 30
0.0
 11
2.860570295462931
 21
-0.6010251732781777
 31
0.0
  0
LINE
  5
A3
330
A
100
AcDbEntity
  8
1
  6
solid
 62
     0
100
AcDbLine
 10
2.860570295462931
 20
-0.6010251732781777
 30
0.0
 11
2.768413432717833
 21
-0.6010251732781777
 31
0.0
  0
LINE
  5
A4
330
A
100
AcDbEntity
  8
1
  6
solid
 62
     0
100
AcDbLine
 10
3.026256569972735
 20
-0.3510251732781777
 30
0.0
 11
2.920374217031558
 21
-0.6010251732781777
 31
0.0
  0
LINE
  5
A5
330
A
100
AcDbEntity
  8
1
  6
solid
 62
     0
100
AcDbLine
 10
2.920374217031558
 20
-0.6010251732781777
 30
0.0
 11
2.901256569972735
 21
-0.6010251732781777
 31
0.0
  0
LINE
  5
A6
330
A
100
AcDbEntity
  8
1
  6
solid
 62
     0
100
AcDbLine
 10
2.901256569972735
 20
-0.6010251732781777
 30
0.0
 11
3.007138922913911
 21
-0.3510251732781777
 31
0.0
  0
LINE
  5
A7
330
A
100
AcDbEntity
  8
1
  6
solid
 62
     0
100
AcDbLine
 10
3.007138922913911
 20
-0.3510251732781777
 30
0.0
 11
3.026256569972735
 21
-0.3510251732781777
 31
0.0
  0
LINE
  5
A8
330
A
100
AcDbEntity
  8
1
  6
solid
 62
     0
100
AcDbLine
 10
3.107629118992343
 20
-0.6010251732781777
 30
0.0
 11
3.107629118992343
 21
-0.5685732502012547
 31
0.0
  0
LINE
  5
A9
330
A
100
AcDbEntity
  8
1
  6
solid
 62
     0
100
AcDbLine
 10
3.107629118992343
 20
-0.5685732502012547
 30
0.0
 11
3.128707550364892
 21
-0.5685732502012547
 31
0.0
  0
LINE
  5
AA
330
A
100
AcDbEntity
  8
1
  6
solid
 62
     0
100
AcDbLine
 10
3.128707550364892
 20
-0.5685732502012547
 30
0.0
 11
3.128707550364892
 21
-0.5397270963551009
 31
0.0
  0
LINE
  5
AB
330
A
100
AcDbEntity
  8
1
  6
solid
 62
     0
100
AcDbLine
 10
3.128707550364892
 20
-0.5397270963551009
 30
0.0
 11
3.051256569972735
 21
-0.5397270963551009
 31
0.0
  0
LINE
  5
AC
330
A
100
AcDbEntity
  8
1
  6
solid
 62
     0
100
AcDbLine
 10
3.051256569972735
 20
-0.5397270963551009
 30
0.0
 11
3.051256569972735
 21
-0.5084770963551009
 31
0.0
  0
LINE
  5
AD
330
A
100
AcDbEntity
  8
1
  6
solid
 62
     0
100
AcDbLine
 10
3.051256569972735
 20
-0.5084770963551009
 30
0.0
 11
3.128707550364892
 21
-0.3510251732781777
 31
0.0
  0
LINE
  5
AE
330
A
100
AcDbEntity
  8
1
  6
solid
 62
     0
100
AcDbLine
 10
3.128707550364892
 20
-0.3510251732781777
 30
0.0
 11
3.154197746443323
 21
-0.3510251732781777
 31
0.0
  0
LINE
  5
AF
330
A
100
AcDbEntity
  8
1
  6
solid
 62
     0
100
AcDbLine
 10
3.154197746443323
 20
-0.3510251732781777
 30
0.0
 11
3.154197746443323
 21
-0.5072751732781777
 31
0.0
  0
LINE
  5
B0
330
A
100
AcDbEntity
  8
1
  6
solid
 62
     0
100
AcDbLine
 10
3.154197746443323
 20
-0.5072751732781777
 30
0.0
 11
3.176256569972735
 21
-0.5072751732781777
 31
0.0
  0
LINE
  5
B1
330
A
100
AcDbEntity
  8
1
  6
solid
 62
     0
100
AcDbLine
 10
3.176256569972735
 20
-0.5072751732781777
 30
0.0
 11
3.176256569972735
 21
-0.5397270963551009
 31
0.0
  0
LINE
  5
B2
330
A
100
AcDbEntity
  8
1
  6
solid
 62
     0
100
AcDbLine
 10
3.176256569972735
 20
-0.5397270963551009
 30
0.0
 11
3.154197746443323
 21
-0.5397270963551009
 31
0.0
  0
LINE
  5
B3
330
A
100
AcDbEntity
  8
1
  6
solid
 62
     0
100
AcDbLine
 10
3.154197746443323
 20
-0.5397270963551009
 30
0.0
 11
3.154197746443323
 21
-0.5685732502012547
 31
0.0
  0
LINE
  5
B4
330
A
100
AcDbEntity
  8
1
  6
solid
 62
     0
100
AcDbLine
 10
3.154197746443323
 20
-0.5685732502012547
 30
0.0
 11
3.176256569972735
 21
-0.5685732502012547
 31
0.0
  0
LINE
  5
B5
330
A
100
AcDbEntity
  8
1
  6
solid
 62
     0
100
AcDbLine
 10
3.176256569972735
 20
-0.5685732502012547
 30
0.0
 11
3.176256569972735
 21
-0.6010251732781777
 31
0.0
  0
LINE
  5
B6
330
A
100
AcDbEntity
  8
1
  6
solid
 62
     0
100
AcDbLine
 10
3.176256569972735
 20
-0.6010251732781777
 30
0.0
 11
3.107629118992343
 21
-0.6010251732781777
 31
0.0
  0
LINE
  5
B7
330
A
100
AcDbEntity
  8
1
  6
solid
 62
     0
100
AcDbLine
 10
3.078217354286461
 20
-0.5072751732781777
 30
0.0
 11
3.128707550364892
 21
-0.4039097886627932
 31
0.0
  0
LINE
  5
B8
330
A
100
AcDbEntity
  8
1
  6
solid
 62
     0
100
AcDbLine
 10
3.128707550364892
 20
-0.4039097886627932
 30
0.0
 11
3.128707550364892
 21
-0.5072751732781777
 31
0.0
  0
LINE
  5
B9
330
A
100
AcDbEntity
  8
1
  6
solid
 62
     0
100
AcDbLine
 10
3.128707550364892
 20
-0.5072751732781777
 30
0.0
 11
3.078217354286461
 21
-0.5072751732781777
 31
0.0
  0
LINE
  5
BA
330
A
100
AcDbEntity
  8
1
  6
solid
 62
     0
100
AcDbLine
 10
3.35321735428646
 20
-0.3510251732781777
 30
0.0
 11
3.35321735428646
 21
-0.3834770963551008
 31
0.0
  0
LINE
  5
BB
330
A
100
AcDbEntity
  8
1
  6
solid
 62
     0
100
AcDbLine
 10
3.35321735428646
 20
-0.3834770963551008
 30
0.0
 11
3.37086441310999
 21
-0.3834770963551008
 31
0.0
  0
LINE
  5
BC
330
A
100
AcDbEntity
  8
1
  6
solid
 62
     0
100
AcDbLine
 10
3.37086441310999
 20
-0.3834770963551008
 30
0.0
 11
3.403707550364892
 21
-0.4736213271243316
 31
0.0
  0
LINE
  5
BD
330
A
100
AcDbEntity
  8
1
  6
solid
 62
     0
100
AcDbLine
 10
3.403707550364892
 20
-0.4736213271243316
 30
0.0
 11
3.36743304056097
 21
-0.5685732502012547
 31
0.0
  0
LINE
  5
BE
330
A
100
AcDbEntity
  8
1
  6
solid
 62
     0
100
AcDbLine
 10
3.36743304056097
 20
-0.5685732502012547
 30
0.0
 11
3.351256569972735
 21
-0.5685732502012547
 31
0.0
  0
LINE
  5
BF
330
A
100
AcDbEntity
  8
1
  6
solid
 62
     0
100
AcDbLine
 10
3.351256569972735
 20
-0.5685732502012547
 30
0.0
 11
3.351256569972735
 21
-0.6010251732781777
 31
0.0
  0
LINE
  5
C0
330
A
100
AcDbEntity
  8
1
  6
solid
 62
     0
100
AcDbLine
 10
3.351256569972735
 20
-0.6010251732781777
 30
0.0
 11
3.403707550364892
 21
-0.6010251732781777
 31
0.0
  0
LINE
  5
C1
330
A
100
AcDbEntity
  8
1
  6
solid
 62
     0
100
AcDbLine
 10
3.403707550364892
 20
-0.6010251732781777
 30
0.0
 11
3.403707550364892
 21
-0.5685732502012547
 31
0.0
  0
LINE
  5
C2
330
A
100
AcDbEntity
  8
1
  6
solid
 62
     0
100
AcDbLine
 10
3.403707550364892
 20
-0.5685732502012547
 30
0.0
 11
3.389982060168813
 21
-0.5685732502012547
 31
0.0
  0
LINE
  5
C3
330
A
100
AcDbEntity
  8
1
  6
solid
 62
     0
100
AcDbLine
 10
3.389982060168813
 20
-0.5685732502012547
 30
0.0
 11
3.41400166801195
 21
-0.5024674809704855
 31
0.0
  0
LINE
  5
C4
330
A
100
AcDbEntity
  8
1
  6
solid
 62
     0
100
AcDbLine
 10
3.41400166801195
 20
-0.5024674809704855
 30
0.0
 11
3.437531079776657
 21
-0.5685732502012547
 31
0.0
  0
LINE
  5
C5
330
A
100
AcDbEntity
  8
1
  6
solid
 62
     0
100
AcDbLine
 10
3.437531079776657
 20
-0.5685732502012547
 30
0.0
 11
3.424785981737441
 21
-0.5685732502012547
 31
0.0
  0
LINE
  5
C6
330
A
100
AcDbEntity
  8
1
  6
solid
 62
     0
100
AcDbLine
 10
3.424785981737441
 20
-0.5685732502012547
 30
0.0
 11
3.424785981737441
 21
-0.6010251732781777
 31
0.0
  0
LINE
  5
C7
330
A
100
AcDbEntity
  8
1
  6
solid
 62
     0
100
AcDbLine
 10
3.424785981737441
 20
-0.6010251732781777
 30
0.0
 11
3.476256569972735
 21
-0.6010251732781777
 31
0.0
  0
LINE
  5
C8
330
A
100
AcDbEntity
  8
1
  6
solid
 62
     0
100
AcDbLine
 10
3.476256569972735
 20
-0.6010251732781777
 30
0.0
 11
3.476256569972735
 21
-0.5685732502012547
 31
0.0
  0
LINE
  5
C9
330
A
100
AcDbEntity
  8
1
  6
solid
 62
     0
100
AcDbLine
 10
3.476256569972735
 20
-0.5685732502012547
 30
0.0
 11
3.4600800993845
 21
-0.5685732502012547
 31
0.0
  0
LINE
  5
CA
330
A
100
AcDbEntity
  8
1
  6
solid
 62
     0
100
AcDbLine
 10
3.4600800993845
 20
-0.5685732502012547
 30
0.0
 11
3.424785981737441
 21
-0.4736213271243316
 31
0.0
  0
LINE
  5
CB
330
A
100
AcDbEntity
  8
1
  6
solid
 62
     0
100
AcDbLine
 10
3.424785981737441
 20
-0.4736213271243316
 30
0.0
 11
3.45664872683548
 21
-0.3834770963551008
 31
0.0
  0
LINE
  5
CC
330
A
100
AcDbEntity
  8
1
  6
solid
 62
     0
100
AcDbLine
 10
3.45664872683548
 20
-0.3834770963551008
 30
0.0
 11
3.474295785659009
 21
-0.3834770963551008
 31
0.0
  0
LINE
  5
CD
330
A
100
AcDbEntity
  8
1
  6
solid
 62
     0
100
AcDbLine
 10
3.474295785659009
 20
-0.3834770963551008
 30
0.0
 11
3.474295785659009
 21
-0.3510251732781777
 31
0.0
  0
LINE
  5
CE
330
A
100
AcDbEntity
  8
1
  6
solid
 62
     0
100
AcDbLine
 10
3.474295785659009
 20
-0.3510251732781777
 30
0.0
 11
3.421844805266852
 21
-0.3510251732781777
 31
0.0
  0
LINE
  5
CF
330
A
100
AcDbEntity
  8
1
  6
solid
 62
     0
100
AcDbLine
 10
3.421844805266852
 20
-0.3510251732781777
 30
0.0
 11
3.421844805266852
 21
-0.3834770963551008
 31
0.0
  0
LINE
  5
D0
330
A
100
AcDbEntity
  8
1
  6
solid
 62
     0
100
AcDbLine
 10
3.421844805266852
 20
-0.3834770963551008
 30
0.0
 11
3.435080099384499
 21
-0.3834770963551008
 31
0.0
  0
LINE
  5
D1
330
A
100
AcDbEntity
  8
1
  6
solid
 62
     0
100
AcDbLine
 10
3.435080099384499
 20
-0.3834770963551008
 30
0.0
 11
3.41400166801195
 21
-0.4423713271243316
 31
0.0
  0
LINE
  5
D2
330
A
100
AcDbEntity
  8
1
  6
solid
 62
     0
100
AcDbLine
 10
3.41400166801195
 20
-0.4423713271243316
 30
0.0
 11
3.39243304056097
 21
-0.3834770963551008
 31
0.0
  0
LINE
  5
D3
330
A
100
AcDbEntity
  8
1
  6
solid
 62
     0
100
AcDbLine
 10
3.39243304056097
 20
-0.3834770963551008
 30
0.0
 11
3.405668334678617
 21
-0.3834770963551008
 31
0.0
  0
LINE
  5
D4
330
A
100
AcDbEntity
  8
1
  6
solid
 62
     0
100
AcDbLine
 10
3.405668334678617
 20
-0.3834770963551008
 30
0.0
 11
3.405668334678617
 21
-0.3510251732781777
 31
0.0
  0
LINE
  5
D5
330
A
100
AcDbEntity
  8
1
  6
solid
 62
     0
100
AcDbLine
 10
3.405668334678617
 20
-0.3510251732781777
 30
0.0
 11
3.35321735428646
 21
-0.3510251732781777
 31
0.0
  0
LINE
  5
D6
330
A
100
AcDbEntity
  8
1
  6
solid
 62
     0
100
AcDbLine
 10
3.65664872683548
 20
-0.6010251732781777
 30
0.0
 11
3.65664872683548
 21
-0.5685732502012547
 31
0.0
  0
LINE
  5
D7
330
A
100
AcDbEntity
  8
1
  6
solid
 62
     0
100
AcDbLine
 10
3.65664872683548
 20
-0.5685732502012547
 30
0.0
 11
3.732138922913911
 21
-0.4628040194320239
 31
0.0
  0
LINE
  5
D8
330
A
100
AcDbEntity
  8
1
  6
solid
 62
     0
100
AcDbLine
 10
3.732138922913911
 20
-0.4628040194320239
 30
0.0
 11
3.739001668011951
 21
-0.4507847886627931
 31
0.0
  0
LINE
  5
D9
330
A
100
AcDbEntity
  8
1
  6
solid
 62
     0
100
AcDbLine
 10
3.739001668011951
 20
-0.4507847886627931
 30
0.0
 11
3.741942844482539
 21
-0.4435732502012547
 31
0.0
  0
LINE
  5
DA
330
A
100
AcDbEntity
  8
1
  6
solid
 62
     0
100
AcDbLine
 10
3.741942844482539
 20
-0.4435732502012547
 30
0.0
 11
3.744884020953127
 21
-0.4303520963551008
 31
0.0
  0
LINE
  5
DB
330
A
100
AcDbEntity
  8
1
  6
solid
 62
     0
100
AcDbLine
 10
3.744884020953127
 20
-0.4303520963551008
 30
0.0
 11
3.744884020953127
 21
-0.4207367117397162
 31
0.0
  0
LINE
  5
DC
330
A
100
AcDbEntity
  8
1
  6
solid
 62
     0
100
AcDbLine
 10
3.744884020953127
 20
-0.4207367117397162
 30
0.0
 11
3.741942844482539
 21
-0.4099194040474085
 31
0.0
  0
LINE
  5
DD
330
A
100
AcDbEntity
  8
1
  6
solid
 62
     0
100
AcDbLine
 10
3.741942844482539
 20
-0.4099194040474085
 30
0.0
 11
3.739001668011951
 21
-0.4003040194320239
 31
0.0
  0
LINE
  5
DE
330
A
100
AcDbEntity
  8
1
  6
solid
 62
     0
100
AcDbLine
 10
3.739001668011951
 20
-0.4003040194320239
 30
0.0
 11
3.733609511149206
 21
-0.3930924809704854
 31
0.0
  0
LINE
  5
DF
330
A
100
AcDbEntity
  8
1
  6
solid
 62
     0
100
AcDbLine
 10
3.733609511149206
 20
-0.3930924809704854
 30
0.0
 11
3.72821735428646
 21
-0.3882847886627931
 31
0.0
  0
LINE
  5
E0
330
A
100
AcDbEntity
  8
1
  6
solid
 62
     0
100
AcDbLine
 10
3.72821735428646
 20
-0.3882847886627931
 30
0.0
 11
3.722825197423715
 21
-0.3846790194320238
 31
0.0
  0
LINE
  5
E1
330
A
100
AcDbEntity
  8
1
  6
solid
 62
     0
100
AcDbLine
 10
3.722825197423715
 20
-0.3846790194320238
 30
0.0
 11
3.714491864090382
 21
-0.3810732502012546
 31
0.0
  0
LINE
  5
E2
330
A
100
AcDbEntity
  8
1
  6
solid
 62
     0
100
AcDbLine
 10
3.714491864090382
 20
-0.3810732502012546
 30
0.0
 11
3.704687942521755
 21
-0.3810732502012546
 31
0.0
  0
LINE
  5
E3
330
A
100
AcDbEntity
  8
1
  6
solid
 62
     0
100
AcDbLine
 10
3.704687942521755
 20
-0.3810732502012546
 30
0.0
 11
3.696354609188421
 21
-0.3846790194320238
 31
0.0
  0
LINE
  5
E4
330
A
100
AcDbEntity
  8
1
  6
solid
 62
     0
100
AcDbLine
 10
3.696354609188421
 20
-0.3846790194320238
 30
0.0
 11
3.689491864090382
 21
-0.3894867117397162
 31
0.0
  0
LINE
  5
E5
330
A
100
AcDbEntity
  8
1
  6
solid
 62
     0
100
AcDbLine
 10
3.689491864090382
 20
-0.3894867117397162
 30
0.0
 11
3.685570295462931
 21
-0.3954963271243316
 31
0.0
  0
LINE
  5
E6
330
A
100
AcDbEntity
  8
1
  6
solid
 62
     0
100
AcDbLine
 10
3.685570295462931
 20
-0.3954963271243316
 30
0.0
 11
3.68164872683548
 21
-0.4003040194320239
 31
0.0
  0
LINE
  5
E7
330
A
100
AcDbEntity
  8
1
  6
solid
 62
     0
100
AcDbLine
 10
3.68164872683548
 20
-0.4003040194320239
 30
0.0
 11
3.677236962129597
 21
-0.4111213271243316
 31
0.0
  0
LINE
  5
E8
330
A
100
AcDbEntity
  8
1
  6
solid
 62
     0
100
AcDbLine
 10
3.677236962129597
 20
-0.4111213271243316
 30
0.0
 11
3.674785981737441
 21
-0.4267463271243316
 31
0.0
  0
LINE
  5
E9
330
A
100
AcDbEntity
  8
1
  6
solid
 62
     0
100
AcDbLine
 10
3.674785981737441
 20
-0.4267463271243316
 30
0.0
 11
3.651256569972735
 21
-0.4267463271243316
 31
0.0
  0
LINE
  5
EA
330
A
100
AcDbEntity
  8
1
  6
solid
 62
     0
100
AcDbLine
 10
3.651256569972735
 20
-0.4267463271243316
 30
0.0
 11
3.652727158208029
 21
-0.4111213271243316
 31
0.0
  0
LINE
  5
EB
330
A
100
AcDbEntity
  8
1
  6
solid
 62
     0
100
AcDbLine
 10
3.652727158208029
 20
-0.4111213271243316
 30
0.0
 11
3.65664872683548
 21
-0.3954963271243316
 31
0.0
  0
LINE
  5
EC
330
A
100
AcDbEntity
  8
1
  6
solid
 62
     0
100
AcDbLine
 10
3.65664872683548
 20
-0.3954963271243316
 30
0.0
 11
3.662040883698225
 21
-0.3834770963551008
 31
0.0
  0
LINE
  5
ED
330
A
100
AcDbEntity
  8
1
  6
solid
 62
     0
100
AcDbLine
 10
3.662040883698225
 20
-0.3834770963551008
 30
0.0
 11
3.668903628796265
 21
-0.3726597886627931
 31
0.0
  0
LINE
  5
EE
330
A
100
AcDbEntity
  8
1
  6
solid
 62
     0
100
AcDbLine
 10
3.668903628796265
 20
-0.3726597886627931
 30
0.0
 11
3.677236962129597
 21
-0.3630444040474084
 31
0.0
  0
LINE
  5
EF
330
A
100
AcDbEntity
  8
1
  6
solid
 62
     0
100
AcDbLine
 10
3.677236962129597
 20
-0.3630444040474084
 30
0.0
 11
3.685570295462931
 21
-0.3582367117397162
 31
0.0
  0
LINE
  5
F0
330
A
100
AcDbEntity
  8
1
  6
solid
 62
     0
100
AcDbLine
 10
3.685570295462931
 20
-0.3582367117397162
 30
0.0
 11
3.697825197423715
 21
-0.3522270963551008
 31
0.0
  0
LINE
  5
F1
330
A
100
AcDbEntity
  8
1
  6
solid
 62
     0
100
AcDbLine
 10
3.697825197423715
 20
-0.3522270963551008
 30
0.0
 11
3.706158530757049
 21
-0.3510251732781777
 31
0.0
  0
LINE
  5
F2
330
A
100
AcDbEntity
  8
1
  6
solid
 62
     0
100
AcDbLine
 10
3.706158530757049
 20
-0.3510251732781777
 30
0.0
 11
3.714491864090382
 21
-0.3510251732781777
 31
0.0
  0
LINE
  5
F3
330
A
100
AcDbEntity
  8
1
  6
solid
 62
     0
100
AcDbLine
 10
3.714491864090382
 20
-0.3510251732781777
 30
0.0
 11
3.726746766051166
 21
-0.3546309425089469
 31
0.0
  0
LINE
  5
F4
330
A
100
AcDbEntity
  8
1
  6
solid
 62
     0
100
AcDbLine
 10
3.726746766051166
 20
-0.3546309425089469
 30
0.0
 11
3.736550687619794
 21
-0.3594386348166393
 31
0.0
  0
LINE
  5
F5
330
A
100
AcDbEntity
  8
1
  6
solid
 62
     0
100
AcDbLine
 10
3.736550687619794
 20
-0.3594386348166393
 30
0.0
 11
3.74586441310999
 21
-0.3666501732781777
 31
0.0
  0
LINE
  5
F6
330
A
100
AcDbEntity
  8
1
  6
solid
 62
     0
100
AcDbLine
 10
3.74586441310999
 20
-0.3666501732781777
 30
0.0
 11
3.754197746443323
 21
-0.3774674809704854
 31
0.0
  0
LINE
  5
F7
330
A
100
AcDbEntity
  8
1
  6
solid
 62
     0
100
AcDbLine
 10
3.754197746443323
 20
-0.3774674809704854
 30
0.0
 11
3.761060491541362
 21
-0.3894867117397162
 31
0.0
  0
LINE
  5
F8
330
A
100
AcDbEntity
  8
1
  6
solid
 62
     0
100
AcDbLine
 10
3.761060491541362
 20
-0.3894867117397162
 30
0.0
 11
3.766452648404107
 21
-0.4063136348166393
 31
0.0
  0
LINE
  5
F9
330
A
100
AcDbEntity
  8
1
  6
solid
 62
     0
100
AcDbLine
 10
3.766452648404107
 20
-0.4063136348166393
 30
0.0
 11
3.769393824874696
 21
-0.4219386348166393
 31
0.0
  0
LINE
  5
FA
330
A
100
AcDbEntity
  8
1
  6
solid
 62
     0
100
AcDbLine
 10
3.769393824874696
 20
-0.4219386348166393
 30
0.0
 11
3.769393824874696
 21
-0.4339578655858701
 31
0.0
  0
LINE
  5
FB
330
A
100
AcDbEntity
  8
1
  6
solid
 62
     0
100
AcDbLine
 10
3.769393824874696
 20
-0.4339578655858701
 30
0.0
 11
3.766452648404107
 21
-0.4471790194320239
 31
0.0
  0
LINE
  5
FC
330
A
100
AcDbEntity
  8
1
  6
solid
 62
     0
100
AcDbLine
 10
3.766452648404107
 20
-0.4471790194320239
 30
0.0
 11
3.762531079776656
 21
-0.4591982502012546
 31
0.0
  0
LINE
  5
FD
330
A
100
AcDbEntity
  8
1
  6
solid
 62
     0
100
AcDbLine
 10
3.762531079776656
 20
-0.4591982502012546
 30
0.0
 11
3.757138922913911
 21
-0.4712174809704855
 31
0.0
  0
LINE
  5
FE
330
A
100
AcDbEntity
  8
1
  6
solid
 62
     0
100
AcDbLine
 10
3.757138922913911
 20
-0.4712174809704855
 30
0.0
 11
3.689491864090382
 21
-0.5685732502012547
 31
0.0
  0
LINE
  5
FF
330
A
100
AcDbEntity
  8
1
  6
solid
 62
     0
100
AcDbLine
 10
3.689491864090382
 20
-0.5685732502012547
 30
0.0
 11
3.751746766051166
 21
-0.5685732502012547
 31
0.0
  0
LINE
  5
100
330
A
100
AcDbEntity
  8
1
  6
solid
 62
     0
100
AcDbLine
 10
3.751746766051166
 20
-0.5685732502012547
 30
0.0
 11
3.751746766051166
 21
-0.5253040194320239
 31
0.0
  0
LINE
  5
101
330
A
100
AcDbEntity
  8
1
  6
solid
 62
     0
100
AcDbLine
 10
3.751746766051166
 20
-0.5253040194320239
 30
0.0
 11
3.776256569972735
 21
-0.5253040194320239
 31
0.0
  0
LINE
  5
102
330
A
100
AcDbEntity
  8
1
  6
solid
 62
     0
100
AcDbLine
 10
3.776256569972735
 20
-0.5253040194320239
 30
0.0
 11
3.776256569972735
 21
-0.6010251732781777
 31
0.0
  0
LINE
  5
103
330
A
100
AcDbEntity
  8
1
  6
solid
 62
     0
100
AcDbLine
 10
3.776256569972735
 20
-0.6010251732781777
 30
0.0
 11
3.65664872683548
 21
-0.6010251732781777
 31
0.0
  0
LINE
  5
104
330
A
100
AcDbEntity
  8
1
  6
solid
 62
     0
100
AcDbLine
 10
3.801256569972735
 20
-0.5457367117397162
 30
0.0
 11
3.926256569972735
 21
-0.5457367117397162
 31
0.0
  0
LINE
  5
105
330
A
100
AcDbEntity
  8
1
  6
solid
 62
     0
100
AcDbLine
 10
3.926256569972735
 20
-0.5457367117397162
 30
0.0
 11
3.926256569972735
 21
-0.4928520963551008
 31
0.0
  0
LINE
  5
106
330
A
100
AcDbEntity
  8
1
  6
solid
 62
     0
100
AcDbLine
 10
3.926256569972735
 20
-0.4928520963551008
 30
0.0
 11
3.801256569972735
 21
-0.4928520963551008
 31
0.0
  0
LINE
  5
107
330
A
100
AcDbEntity
  8
1
  6
solid
 62
     0
100
AcDbLine
 10
3.801256569972735
 20
-0.4928520963551008
 30
0.0
 11
3.801256569972735
 21
-0.5457367117397162
 31
0.0
  0
LINE
  5
108
330
A
100
AcDbEntity
  8
1
  6
solid
 62
     0
100
AcDbLine
 10
3.951256569972735
 20
-0.5313136348166393
 30
0.0
 11
3.955178138600186
 21
-0.5481405578935624
 31
0.0
  0
LINE
  5
109
330
A
100
AcDbEntity
  8
1
  6
solid
 62
     0
100
AcDbLine
 10
3.955178138600186
 20
-0.5481405578935624
 30
0.0
 11
3.961550687619793
 21
-0.5625636348166393
 31
0.0
  0
LINE
  5
10A
330
A
100
AcDbEntity
  8
1
  6
solid
 62
     0
100
AcDbLine
 10
3.961550687619793
 20
-0.5625636348166393
 30
0.0
 11
3.968903628796264
 21
-0.5745828655858701
 31
0.0
  0
LINE
  5
10B
330
A
100
AcDbEntity
  8
1
  6
solid
 62
     0
100
AcDbLine
 10
3.968903628796264
 20
-0.5745828655858701
 30
0.0
 11
3.976746766051166
 21
-0.5854001732781777
 31
0.0
  0
LINE
  5
10C
330
A
100
AcDbEntity
  8
1
  6
solid
 62
     0
100
AcDbLine
 10
3.976746766051166
 20
-0.5854001732781777
 30
0.0
 11
3.986550687619794
 21
-0.5926117117397162
 31
0.0
  0
LINE
  5
10D
330
A
100
AcDbEntity
  8
1
  6
solid
 62
     0
100
AcDbLine
 10
3.986550687619794
 20
-0.5926117117397162
 30
0.0
 11
3.997825197423715
 21
-0.5974194040474085
 31
0.0
  0
LINE
  5
10E
330
A
100
AcDbEntity
  8
1
  6
solid
 62
     0
100
AcDbLine
 10
3.997825197423715
 20
-0.5974194040474085
 30
0.0
 11
4.010570295462931
 21
-0.6010251732781777
 31
0.0
  0
LINE
  5
10F
330
A
100
AcDbEntity
  8
1
  6
solid
 62
     0
100
AcDbLine
 10
4.010570295462931
 20
-0.6010251732781777
 30
0.0
 11
4.018413432717833
 21
-0.6010251732781777
 31
0.0
  0
LINE
  5
110
330
A
100
AcDbEntity
  8
1
  6
solid
 62
     0
100
AcDbLine
 10
4.018413432717833
 20
-0.6010251732781777
 30
0.0
 11
4.034589903306068
 21
-0.5962174809704855
 31
0.0
  0
LINE
  5
111
330
A
100
AcDbEntity
  8
1
  6
solid
 62
     0
100
AcDbLine
 10
4.034589903306068
 20
-0.5962174809704855
 30
0.0
 11
4.047335001345284
 21
-0.5866020963551009
 31
0.0
  0
LINE
  5
112
330
A
100
AcDbEntity
  8
1
  6
solid
 62
     0
100
AcDbLine
 10
4.047335001345284
 20
-0.5866020963551009
 30
0.0
 11
4.057138922913911
 21
-0.5757847886627932
 31
0.0
  0
LINE
  5
113
330
A
100
AcDbEntity
  8
1
  6
solid
 62
     0
100
AcDbLine
 10
4.057138922913911
 20
-0.5757847886627932
 30
0.0
 11
4.065962452325676
 21
-0.5625636348166393
 31
0.0
  0
LINE
  5
114
330
A
100
AcDbEntity
  8
1
  6
solid
 62
     0
100
AcDbLine
 10
4.065962452325676
 20
-0.5625636348166393
 30
0.0
 11
4.072335001345284
 21
-0.5445347886627932
 31
0.0
  0
LINE
  5
115
330
A
100
AcDbEntity
  8
1
  6
solid
 62
     0
100
AcDbLine
 10
4.072335001345284
 20
-0.5445347886627932
 30
0.0
 11
4.07478598173744
 21
-0.5301117117397162
 31
0.0
  0
LINE
  5
116
330
A
100
AcDbEntity
  8
1
  6
solid
 62
     0
100
AcDbLine
 10
4.07478598173744
 20
-0.5301117117397162
 30
0.0
 11
4.076256569972735
 21
-0.5180924809704855
 31
0.0
  0
LINE
  5
117
330
A
100
AcDbEntity
  8
1
  6
solid
 62
     0
100
AcDbLine
 10
4.076256569972735
 20
-0.5180924809704855
 30
0.0
 11
4.076256569972735
 21
-0.5048713271243316
 31
0.0
  0
LINE
  5
118
330
A
100
AcDbEntity
  8
1
  6
solid
 62
     0
100
AcDbLine
 10
4.076256569972735
 20
-0.5048713271243316
 30
0.0
 11
4.073805589580578
 21
-0.4844386348166393
 31
0.0
  0
LINE
  5
119
330
A
100
AcDbEntity
  8
1
  6
solid
 62
     0
100
AcDbLine
 10
4.073805589580578
 20
-0.4844386348166393
 30
0.0
 11
4.06743304056097
 21
-0.4664097886627931
 31
0.0
  0
LINE
  5
11A
330
A
100
AcDbEntity
  8
1
  6
solid
 62
     0
100
AcDbLine
 10
4.06743304056097
 20
-0.4664097886627931
 30
0.0
 11
4.062531079776657
 21
-0.4555924809704855
 31
0.0
  0
LINE
  5
11B
330
A
100
AcDbEntity
  8
1
  6
solid
 62
     0
100
AcDbLine
 10
4.062531079776657
 20
-0.4555924809704855
 30
0.0
 11
4.054687942521755
 21
-0.4447751732781777
 31
0.0
  0
LINE
  5
11C
330
A
100
AcDbEntity
  8
1
  6
solid
 62
     0
100
AcDbLine
 10
4.054687942521755
 20
-0.4447751732781777
 30
0.0
 11
4.04586441310999
 21
-0.4363617117397162
 31
0.0
  0
LINE
  5
11D
330
A
100
AcDbEntity
  8
1
  6
solid
 62
     0
100
AcDbLine
 10
4.04586441310999
 20
-0.4363617117397162
 30
0.0
 11
4.037040883698225
 21
-0.4291501732781777
 31
0.0
  0
LINE
  5
11E
330
A
100
AcDbEntity
  8
1
  6
solid
 62
     0
100
AcDbLine
 10
4.037040883698225
 20
-0.4291501732781777
 30
0.0
 11
4.028217354286461
 21
-0.4255444040474085
 31
0.0
  0
LINE
  5
11F
330
A
100
AcDbEntity
  8
1
  6
solid
 62
     0
100
AcDbLine
 10
4.028217354286461
 20
-0.4255444040474085
 30
0.0
 11
4.015472256247244
 21
-0.4231405578935624
 31
0.0
  0
LINE
  5
120
330
A
100
AcDbEntity
  8
1
  6
solid
 62
     0
100
AcDbLine
 10
4.015472256247244
 20
-0.4231405578935624
 30
0.0
 11
4.008119315070774
 21
-0.4231405578935624
 31
0.0
  0
LINE
  5
121
330
A
100
AcDbEntity
  8
1
  6
solid
 62
     0
100
AcDbLine
 10
4.008119315070774
 20
-0.4231405578935624
 30
0.0
 11
3.997825197423715
 21
-0.4255444040474085
 31
0.0
  0
LINE
  5
122
330
A
100
AcDbEntity
  8
1
  6
solid
 62
     0
100
AcDbLine
 10
3.997825197423715
 20
-0.4255444040474085
 30
0.0
 11
3.989001668011951
 21
-0.4291501732781777
 31
0.0
  0
LINE
  5
123
330
A
100
AcDbEntity
  8
1
  6
solid
 62
     0
100
AcDbLine
 10
3.989001668011951
 20
-0.4291501732781777
 30
0.0
 11
3.984099707227637
 21
-0.4327559425089471
 31
0.0
  0
LINE
  5
124
330
A
100
AcDbEntity
  8
1
  6
solid
 62
     0
100
AcDbLine
 10
3.984099707227637
 20
-0.4327559425089471
 30
0.0
 11
3.992923236639402
 21
-0.3810732502012546
 31
0.0
  0
LINE
  5
125
330
A
100
AcDbEntity
  8
1
  6
solid
 62
     0
100
AcDbLine
 10
3.992923236639402
 20
-0.3810732502012546
 30
0.0
 11
4.054687942521755
 21
-0.3810732502012546
 31
0.0
  0
LINE
  5
126
330
A
100
AcDbEntity
  8
1
  6
solid
 62
     0
100
AcDbLine
 10
4.054687942521755
 20
-0.3810732502012546
 30
0.0
 11
4.054687942521755
 21
-0.3510251732781777
 31
0.0
  0
LINE
  5
127
330
A
100
AcDbEntity
  8
1
  6
solid
 62
     0
100
AcDbLine
 10
4.054687942521755
 20
-0.3510251732781777
 30
0.0
 11
3.976746766051166
 21
-0.3510251732781777
 31
0.0
  0
LINE
  5
128
330
A
100
AcDbEntity
  8
1
  6
solid
 62
     0
100
AcDbLine
 10
3.976746766051166
 20
-0.3510251732781777
 30
0.0
 11
3.951256569972735
 21
-0.4916501732781777
 31
0.0
  0
LINE
  5
129
330
A
100
AcDbEntity
  8
1
  6
solid
 62
     0
100
AcDbLine
 10
3.951256569972735
 20
-0.4916501732781777
 30
0.0
 11
3.972825197423715
 21
-0.4976597886627931
 31
0.0
  0
LINE
  5
12A
330
A
100
AcDbEntity
  8
1
  6
solid
 62
     0
100
AcDbLine
 10
3.972825197423715
 20
-0.4976597886627931
 30
0.0
 11
3.975276177815872
 21
-0.4880444040474085
 31
0.0
  0
LINE
  5
12B
330
A
100
AcDbEntity
  8
1
  6
solid
 62
     0
100
AcDbLine
 10
3.975276177815872
 20
-0.4880444040474085
 30
0.0
 11
3.979197746443323
 21
-0.4784290194320239
 31
0.0
  0
LINE
  5
12C
330
A
100
AcDbEntity
  8
1
  6
solid
 62
     0
100
AcDbLine
 10
3.979197746443323
 20
-0.4784290194320239
 30
0.0
 11
3.984099707227637
 21
-0.4700155578935624
 31
0.0
  0
LINE
  5
12D
330
A
100
AcDbEntity
  8
1
  6
solid
 62
     0
100
AcDbLine
 10
3.984099707227637
 20
-0.4700155578935624
 30
0.0
 11
3.990472256247245
 21
-0.4628040194320239
 31
0.0
  0
LINE
  5
12E
330
A
100
AcDbEntity
  8
1
  6
solid
 62
     0
100
AcDbLine
 10
3.990472256247245
 20
-0.4628040194320239
 30
0.0
 11
3.997825197423715
 21
-0.4579963271243316
 31
0.0
  0
LINE
  5
12F
330
A
100
AcDbEntity
  8
1
  6
solid
 62
     0
100
AcDbLine
 10
3.997825197423715
 20
-0.4579963271243316
 30
0.0
 11
4.00664872683548
 21
-0.4543905578935624
 31
0.0
  0
LINE
  5
130
330
A
100
AcDbEntity
  8
1
  6
solid
 62
     0
100
AcDbLine
 10
4.00664872683548
 20
-0.4543905578935624
 30
0.0
 11
4.015472256247244
 21
-0.4543905578935624
 31
0.0
  0
LINE
  5
131
330
A
100
AcDbEntity
  8
1
  6
solid
 62
     0
100
AcDbLine
 10
4.015472256247244
 20
-0.4543905578935624
 30
0.0
 11
4.025766373894303
 21
-0.4555924809704855
 31
0.0
  0
LINE
  5
132
330
A
100
AcDbEntity
  8
1
  6
solid
 62
     0
100
AcDbLine
 10
4.025766373894303
 20
-0.4555924809704855
 30
0.0
 11
4.033119315070774
 21
-0.4604001732781777
 31
0.0
  0
LINE
  5
133
330
A
100
AcDbEntity
  8
1
  6
solid
 62
     0
100
AcDbLine
 10
4.033119315070774
 20
-0.4604001732781777
 30
0.0
 11
4.039491864090382
 21
-0.4664097886627931
 31
0.0
  0
LINE
  5
134
330
A
100
AcDbEntity
  8
1
  6
solid
 62
     0
100
AcDbLine
 10
4.039491864090382
 20
-0.4664097886627931
 30
0.0
 11
4.04586441310999
 21
-0.4748232502012547
 31
0.0
  0
LINE
  5
135
330
A
100
AcDbEntity
  8
1
  6
solid
 62
     0
100
AcDbLine
 10
4.04586441310999
 20
-0.4748232502012547
 30
0.0
 11
4.050766373894304
 21
-0.4856405578935624
 31
0.0
  0
LINE
  5
136
330
A
100
AcDbEntity
  8
1
  6
solid
 62
     0
100
AcDbLine
 10
4.050766373894304
 20
-0.4856405578935624
 30
0.0
 11
4.053707550364892
 21
-0.4964578655858701
 31
0.0
  0
LINE
  5
137
330
A
100
AcDbEntity
  8
1
  6
solid
 62
     0
100
AcDbLine
 10
4.053707550364892
 20
-0.4964578655858701
 30
0.0
 11
4.054687942521755
 21
-0.5072751732781777
 31
0.0
  0
LINE
  5
138
330
A
100
AcDbEntity
  8
1
  6
solid
 62
     0
100
AcDbLine
 10
4.054687942521755
 20
-0.5072751732781777
 30
0.0
 11
4.054687942521755
 21
-0.5156886348166393
 31
0.0
  0
LINE
  5
139
330
A
100
AcDbEntity
  8
1
  6
solid
 62
     0
100
AcDbLine
 10
4.054687942521755
 20
-0.5156886348166393
 30
0.0
 11
4.052236962129597
 21
-0.5301117117397162
 31
0.0
  0
LINE
  5
13A
330
A
100
AcDbEntity
  8
1
  6
solid
 62
     0
100
AcDbLine
 10
4.052236962129597
 20
-0.5301117117397162
 30
0.0
 11
4.048315393502146
 21
-0.5421309425089471
 31
0.0
  0
LINE
  5
13B
330
A
100
AcDbEntity
  8
1
  6
solid
 62
     0
100
AcDbLine
 10
4.048315393502146
 20
-0.5421309425089471
 30
0.0
 11
4.041942844482539
 21
-0.5529482502012546
 31
0.0
  0
LINE
  5
13C
330
A
100
AcDbEntity
  8
1
  6
solid
 62
     0
100
AcDbLine
 10
4.041942844482539
 20
-0.5529482502012546
 30
0.0
 11
4.036060491541363
 21
-0.5601597886627932
 31
0.0
  0
LINE
  5
13D
330
A
100
AcDbEntity
  8
1
  6
solid
 62
     0
100
AcDbLine
 10
4.036060491541363
 20
-0.5601597886627932
 30
0.0
 11
4.028217354286461
 21
-0.5649674809704855
 31
0.0
  0
LINE
  5
13E
330
A
100
AcDbEntity
  8
1
  6
solid
 62
     0
100
AcDbLine
 10
4.028217354286461
 20
-0.5649674809704855
 30
0.0
 11
4.019393824874695
 21
-0.5685732502012547
 31
0.0
  0
LINE
  5
13F
330
A
100
AcDbEntity
  8
1
  6
solid
 62
     0
100
AcDbLine
 10
4.019393824874695
 20
-0.5685732502012547
 30
0.0
 11
4.010570295462931
 21
-0.5685732502012547
 31
0.0
  0
LINE
  5
140
330
A
100
AcDbEntity
  8
1
  6
solid
 62
     0
100
AcDbLine
 10
4.010570295462931
 20
-0.5685732502012547
 30
0.0
 11
4.000276177815872
 21
-0.5673713271243316
 31
0.0
  0
LINE
  5
141
330
A
100
AcDbEntity
  8
1
  6
solid
 62
     0
100
AcDbLine
 10
4.000276177815872
 20
-0.5673713271243316
 30
0.0
 11
3.990472256247245
 21
-0.5601597886627932
 31
0.0
  0
LINE
  5
142
330
A
100
AcDbEntity
  8
1
  6
solid
 62
     0
100
AcDbLine
 10
3.990472256247245
 20
-0.5601597886627932
 30
0.0
 11
3.984099707227637
 21
-0.5529482502012546
 31
0.0
  0
LINE
  5
143
330
A
100
AcDbEntity
  8
1
  6
solid
 62
     0
100
AcDbLine
 10
3.984099707227637
 20
-0.5529482502012546
 30
0.0
 11
3.977727158208029
 21
-0.5421309425089471
 31
0.0
  0
LINE
  5
144
330
A
100
AcDbEntity
  8
1
  6
solid
 62
     0
100
AcDbLine
 10
3.977727158208029
 20
-0.5421309425089471
 30
0.0
 11
3.973805589580578
 21
-0.5313136348166393
 31
0.0
  0
LINE
  5
145
330
A
100
AcDbEntity
  8
1
  6
solid
 62
     0
100
AcDbLine
 10
3.973805589580578
 20
-0.5313136348166393
 30
0.0
 11
3.951256569972735
 21
-0.5313136348166393
 31
0.0
  0
LINE
  5
146
330
A
100
AcDbEntity
  8
1
  6
solid
 62
     0
100
AcDbLine
 10
4.226256569972735
 20
-0.3510251732781777
 30
0.0
 11
4.120374217031558
 21
-0.6010251732781777
 31
0.0
  0
LINE
  5
147
330
A
100
AcDbEntity
  8
1
  6
solid
 62
     0
100
AcDbLine
 10
4.120374217031558
 20
-0.6010251732781777
 30
0.0
 11
4.101256569972735
 21
-0.6010251732781777
 31
0.0
  0
LINE
  5
148
330
A
100
AcDbEntity
  8
1
  6
solid
 62
     0
100
AcDbLine
 10
4.101256569972735
 20
-0.6010251732781777
 30
0.0
 11
4.207138922913912
 21
-0.3510251732781777
 31
0.0
  0
LINE
  5
149
330
A
100
AcDbEntity
  8
1
  6
solid
 62
     0
100
AcDbLine
 10
4.207138922913912
 20
-0.3510251732781777
 30
0.0
 11
4.226256569972735
 21
-0.3510251732781777
 31
0.0
  0
LINE
  5
14A
330
A
100
AcDbEntity
  8
1
  6
solid
 62
     0
100
AcDbLine
 10
4.281158530757048
 20
-0.4531886348166393
 30
0.0
 11
4.274295785659009
 21
-0.4604001732781777
 31
0.0
  0
LINE
  5
14B
330
A
100
AcDbEntity
  8
1
  6
solid
 62
     0
100
AcDbLine
 10
4.274295785659009
 20
-0.4604001732781777
 30
0.0
 11
4.26743304056097
 21
-0.4688136348166393
 31
0.0
  0
LINE
  5
14C
330
A
100
AcDbEntity
  8
1
  6
solid
 62
     0
100
AcDbLine
 10
4.26743304056097
 20
-0.4688136348166393
 30
0.0
 11
4.262040883698225
 21
-0.4772270963551008
 31
0.0
  0
LINE
  5
14D
330
A
100
AcDbEntity
  8
1
  6
solid
 62
     0
100
AcDbLine
 10
4.262040883698225
 20
-0.4772270963551008
 30
0.0
 11
4.258119315070774
 21
-0.4868424809704855
 31
0.0
  0
LINE
  5
14E
330
A
100
AcDbEntity
  8
1
  6
solid
 62
     0
100
AcDbLine
 10
4.258119315070774
 20
-0.4868424809704855
 30
0.0
 11
4.255178138600186
 21
-0.495255942508947
 31
0.0
  0
LINE
  5
14F
330
A
100
AcDbEntity
  8
1
  6
solid
 62
     0
100
AcDbLine
 10
4.255178138600186
 20
-0.495255942508947
 30
0.0
 11
4.252727158208029
 21
-0.5072751732781777
 31
0.0
  0
LINE
  5
150
330
A
100
AcDbEntity
  8
1
  6
solid
 62
     0
100
AcDbLine
 10
4.252727158208029
 20
-0.5072751732781777
 30
0.0
 11
4.251256569972735
 21
-0.5156886348166393
 31
0.0
  0
LINE
  5
151
330
A
100
AcDbEntity
  8
1
  6
solid
 62
     0
100
AcDbLine
 10
4.251256569972735
 20
-0.5156886348166393
 30
0.0
 11
4.251256569972735
 21
-0.5216982502012546
 31
0.0
  0
LINE
  5
152
330
A
100
AcDbEntity
  8
1
  6
solid
 62
     0
100
AcDbLine
 10
4.251256569972735
 20
-0.5216982502012546
 30
0.0
 11
4.252727158208029
 21
-0.5313136348166393
 31
0.0
  0
LINE
  5
153
330
A
100
AcDbEntity
  8
1
  6
solid
 62
     0
100
AcDbLine
 10
4.252727158208029
 20
-0.5313136348166393
 30
0.0
 11
4.254197746443323
 21
-0.5421309425089471
 31
0.0
  0
LINE
  5
154
330
A
100
AcDbEntity
  8
1
  6
solid
 62
     0
100
AcDbLine
 10
4.254197746443323
 20
-0.5421309425089471
 30
0.0
 11
4.25664872683548
 21
-0.5529482502012546
 31
0.0
  0
LINE
  5
155
330
A
100
AcDbEntity
  8
1
  6
solid
 62
     0
100
AcDbLine
 10
4.25664872683548
 20
-0.5529482502012546
 30
0.0
 11
4.262040883698225
 21
-0.5661694040474085
 31
0.0
  0
LINE
  5
156
330
A
100
AcDbEntity
  8
1
  6
solid
 62
     0
100
AcDbLine
 10
4.262040883698225
 20
-0.5661694040474085
 30
0.0
 11
4.270374217031558
 21
-0.5769867117397162
 31
0.0
  0
LINE
  5
157
330
A
100
AcDbEntity
  8
1
  6
solid
 62
     0
100
AcDbLine
 10
4.270374217031558
 20
-0.5769867117397162
 30
0.0
 11
4.277236962129597
 21
-0.5854001732781777
 31
0.0
  0
LINE
  5
158
330
A
100
AcDbEntity
  8
1
  6
solid
 62
     0
100
AcDbLine
 10
4.277236962129597
 20
-0.5854001732781777
 30
0.0
 11
4.289491864090382
 21
-0.5938136348166393
 31
0.0
  0
LINE
  5
159
330
A
100
AcDbEntity
  8
1
  6
solid
 62
     0
100
AcDbLine
 10
4.289491864090382
 20
-0.5938136348166393
 30
0.0
 11
4.301746766051167
 21
-0.5998232502012546
 31
0.0
  0
LINE
  5
15A
330
A
100
AcDbEntity
  8
1
  6
solid
 62
     0
100
AcDbLine
 10
4.301746766051167
 20
-0.5998232502012546
 30
0.0
 11
4.311060491541362
 21
-0.6010251732781777
 31
0.0
  0
LINE
  5
15B
330
A
100
AcDbEntity
  8
1
  6
solid
 62
     0
100
AcDbLine
 10
4.311060491541362
 20
-0.6010251732781777
 30
0.0
 11
4.321844805266852
 21
-0.6010251732781777
 31
0.0
  0
LINE
  5
15C
330
A
100
AcDbEntity
  8
1
  6
solid
 62
     0
100
AcDbLine
 10
4.321844805266852
 20
-0.6010251732781777
 30
0.0
 11
4.332629118992342
 21
-0.5974194040474085
 31
0.0
  0
LINE
  5
15D
330
A
100
AcDbEntity
  8
1
  6
solid
 62
     0
100
AcDbLine
 10
4.332629118992342
 20
-0.5974194040474085
 30
0.0
 11
4.344884020953127
 21
-0.5890059425089471
 31
0.0
  0
LINE
  5
15E
330
A
100
AcDbEntity
  8
1
  6
solid
 62
     0
100
AcDbLine
 10
4.344884020953127
 20
-0.5890059425089471
 30
0.0
 11
4.357138922913911
 21
-0.5781886348166393
 31
0.0
  0
LINE
  5
15F
330
A
100
AcDbEntity
  8
1
  6
solid
 62
     0
100
AcDbLine
 10
4.357138922913911
 20
-0.5781886348166393
 30
0.0
 11
4.365472256247245
 21
-0.5649674809704855
 31
0.0
  0
LINE
  5
160
330
A
100
AcDbEntity
  8
1
  6
solid
 62
     0
100
AcDbLine
 10
4.365472256247245
 20
-0.5649674809704855
 30
0.0
 11
4.370864413109989
 21
-0.5505444040474085
 31
0.0
  0
LINE
  5
161
330
A
100
AcDbEntity
  8
1
  6
solid
 62
     0
100
AcDbLine
 10
4.370864413109989
 20
-0.5505444040474085
 30
0.0
 11
4.373315393502147
 21
-0.5433328655858701
 31
0.0
  0
LINE
  5
162
330
A
100
AcDbEntity
  8
1
  6
solid
 62
     0
100
AcDbLine
 10
4.373315393502147
 20
-0.5433328655858701
 30
0.0
 11
4.376256569972735
 21
-0.5277078655858701
 31
0.0
  0
LINE
  5
163
330
A
100
AcDbEntity
  8
1
  6
solid
 62
     0
100
AcDbLine
 10
4.376256569972735
 20
-0.5277078655858701
 30
0.0
 11
4.376256569972735
 21
-0.5144867117397162
 31
0.0
  0
LINE
  5
164
330
A
100
AcDbEntity
  8
1
  6
solid
 62
     0
100
AcDbLine
 10
4.376256569972735
 20
-0.5144867117397162
 30
0.0
 11
4.373315393502147
 21
-0.4988617117397162
 31
0.0
  0
LINE
  5
165
330
A
100
AcDbEntity
  8
1
  6
solid
 62
     0
100
AcDbLine
 10
4.373315393502147
 20
-0.4988617117397162
 30
0.0
 11
4.369393824874696
 21
-0.4868424809704855
 31
0.0
  0
LINE
  5
166
330
A
100
AcDbEntity
  8
1
  6
solid
 62
     0
100
AcDbLine
 10
4.369393824874696
 20
-0.4868424809704855
 30
0.0
 11
4.36400166801195
 21
-0.4724194040474086
 31
0.0
  0
LINE
  5
167
330
A
100
AcDbEntity
  8
1
  6
solid
 62
     0
100
AcDbLine
 10
4.36400166801195
 20
-0.4724194040474086
 30
0.0
 11
4.357138922913911
 21
-0.464005942508947
 31
0.0
  0
LINE
  5
168
330
A
100
AcDbEntity
  8
1
  6
solid
 62
     0
100
AcDbLine
 10
4.357138922913911
 20
-0.464005942508947
 30
0.0
 11
4.350276177815872
 21
-0.4567944040474085
 31
0.0
  0
LINE
  5
169
330
A
100
AcDbEntity
  8
1
  6
solid
 62
     0
100
AcDbLine
 10
4.350276177815872
 20
-0.4567944040474085
 30
0.0
 11
4.346354609188421
 21
-0.4531886348166393
 31
0.0
  0
LINE
  5
16A
330
A
100
AcDbEntity
  8
1
  6
solid
 62
     0
100
AcDbLine
 10
4.346354609188421
 20
-0.4531886348166393
 30
0.0
 11
4.35321735428646
 21
-0.4447751732781777
 31
0.0
  0
LINE
  5
16B
330
A
100
AcDbEntity
  8
1
  6
solid
 62
     0
100
AcDbLine
 10
4.35321735428646
 20
-0.4447751732781777
 30
0.0
 11
4.357138922913911
 21
-0.4363617117397162
 31
0.0
  0
LINE
  5
16C
330
A
100
AcDbEntity
  8
1
  6
solid
 62
     0
100
AcDbLine
 10
4.357138922913911
 20
-0.4363617117397162
 30
0.0
 11
4.360080099384499
 21
-0.4279482502012546
 31
0.0
  0
LINE
  5
16D
330
A
100
AcDbEntity
  8
1
  6
solid
 62
     0
100
AcDbLine
 10
4.360080099384499
 20
-0.4279482502012546
 30
0.0
 11
4.361550687619794
 21
-0.4147270963551008
 31
0.0
  0
LINE
  5
16E
330
A
100
AcDbEntity
  8
1
  6
solid
 62
     0
100
AcDbLine
 10
4.361550687619794
 20
-0.4147270963551008
 30
0.0
 11
4.361550687619794
 21
-0.4051117117397162
 31
0.0
  0
LINE
  5
16F
330
A
100
AcDbEntity
  8
1
  6
solid
 62
     0
100
AcDbLine
 10
4.361550687619794
 20
-0.4051117117397162
 30
0.0
 11
4.360080099384499
 21
-0.3966982502012546
 31
0.0
  0
LINE
  5
170
330
A
100
AcDbEntity
  8
1
  6
solid
 62
     0
100
AcDbLine
 10
4.360080099384499
 20
-0.3966982502012546
 30
0.0
 11
4.357138922913911
 21
-0.38708286558587
 31
0.0
  0
LINE
  5
171
330
A
100
AcDbEntity
  8
1
  6
solid
 62
     0
100
AcDbLine
 10
4.357138922913911
 20
-0.38708286558587
 30
0.0
 11
4.35321735428646
 21
-0.3774674809704854
 31
0.0
  0
LINE
  5
172
330
A
100
AcDbEntity
  8
1
  6
solid
 62
     0
100
AcDbLine
 10
4.35321735428646
 20
-0.3774674809704854
 30
0.0
 11
4.349295785659009
 21
-0.3702559425089469
 31
0.0
  0
LINE
  5
173
330
A
100
AcDbEntity
  8
1
  6
solid
 62
     0
100
AcDbLine
 10
4.349295785659009
 20
-0.3702559425089469
 30
0.0
 11
4.34243304056097
 21
-0.3630444040474084
 31
0.0
  0
LINE
  5
174
330
A
100
AcDbEntity
  8
1
  6
solid
 62
     0
100
AcDbLine
 10
4.34243304056097
 20
-0.3630444040474084
 30
0.0
 11
4.337040883698225
 21
-0.3582367117397162
 31
0.0
  0
LINE
  5
175
330
A
100
AcDbEntity
  8
1
  6
solid
 62
     0
100
AcDbLine
 10
4.337040883698225
 20
-0.3582367117397162
 30
0.0
 11
4.330178138600185
 21
-0.3546309425089469
 31
0.0
  0
LINE
  5
176
330
A
100
AcDbEntity
  8
1
  6
solid
 62
     0
100
AcDbLine
 10
4.330178138600185
 20
-0.3546309425089469
 30
0.0
 11
4.320374217031558
 21
-0.3510251732781777
 31
0.0
  0
LINE
  5
177
330
A
100
AcDbEntity
  8
1
  6
solid
 62
     0
100
AcDbLine
 10
4.320374217031558
 20
-0.3510251732781777
 30
0.0
 11
4.309589903306068
 21
-0.3510251732781777
 31
0.0
  0
LINE
  5
178
330
A
100
AcDbEntity
  8
1
  6
solid
 62
     0
100
AcDbLine
 10
4.309589903306068
 20
-0.3510251732781777
 30
0.0
 11
4.297335001345284
 21
-0.3546309425089469
 31
0.0
  0
LINE
  5
179
330
A
100
AcDbEntity
  8
1
  6
solid
 62
     0
100
AcDbLine
 10
4.297335001345284
 20
-0.3546309425089469
 30
0.0
 11
4.286550687619794
 21
-0.3618424809704854
 31
0.0
  0
LINE
  5
17A
330
A
100
AcDbEntity
  8
1
  6
solid
 62
     0
100
AcDbLine
 10
4.286550687619794
 20
-0.3618424809704854
 30
0.0
 11
4.279687942521754
 21
-0.3678520963551008
 31
0.0
  0
LINE
  5
17B
330
A
100
AcDbEntity
  8
1
  6
solid
 62
     0
100
AcDbLine
 10
4.279687942521754
 20
-0.3678520963551008
 30
0.0
 11
4.274295785659009
 21
-0.3774674809704854
 31
0.0
  0
LINE
  5
17C
330
A
100
AcDbEntity
  8
1
  6
solid
 62
     0
100
AcDbLine
 10
4.274295785659009
 20
-0.3774674809704854
 30
0.0
 11
4.270374217031558
 21
-0.38708286558587
 31
0.0
  0
LINE
  5
17D
330
A
100
AcDbEntity
  8
1
  6
solid
 62
     0
100
AcDbLine
 10
4.270374217031558
 20
-0.38708286558587
 30
0.0
 11
4.26743304056097
 21
-0.3979001732781777
 31
0.0
  0
LINE
  5
17E
330
A
100
AcDbEntity
  8
1
  6
solid
 62
     0
100
AcDbLine
 10
4.26743304056097
 20
-0.3979001732781777
 30
0.0
 11
4.265962452325676
 21
-0.4051117117397162
 31
0.0
  0
LINE
  5
17F
330
A
100
AcDbEntity
  8
1
  6
solid
 62
     0
100
AcDbLine
 10
4.265962452325676
 20
-0.4051117117397162
 30
0.0
 11
4.265962452325676
 21
-0.4135251732781777
 31
0.0
  0
LINE
  5
180
330
A
100
AcDbEntity
  8
1
  6
solid
 62
     0
100
AcDbLine
 10
4.265962452325676
 20
-0.4135251732781777
 30
0.0
 11
4.26743304056097
 21
-0.4243424809704855
 31
0.0
  0
LINE
  5
181
330
A
100
AcDbEntity
  8
1
  6
solid
 62
     0
100
AcDbLine
 10
4.26743304056097
 20
-0.4243424809704855
 30
0.0
 11
4.270374217031558
 21
-0.4363617117397162
 31
0.0
  0
LINE
  5
182
330
A
100
AcDbEntity
  8
1
  6
solid
 62
     0
100
AcDbLine
 10
4.270374217031558
 20
-0.4363617117397162
 30
0.0
 11
4.274295785659009
 21
-0.4447751732781777
 31
0.0
  0
LINE
  5
183
330
A
100
AcDbEntity
  8
1
  6
solid
 62
     0
100
AcDbLine
 10
4.274295785659009
 20
-0.4447751732781777
 30
0.0
 11
4.27821735428646
 21
-0.4495828655858701
 31
0.0
  0
LINE
  5
184
330
A
100
AcDbEntity
  8
1
  6
solid
 62
     0
100
AcDbLine
 10
4.27821735428646
 20
-0.4495828655858701
 30
0.0
 11
4.281158530757048
 21
-0.4531886348166393
 31
0.0
  0
LINE
  5
185
330
A
100
AcDbEntity
  8
1
  6
solid
 62
     0
100
AcDbLine
 10
4.320374217031558
 20
-0.5697751732781777
 30
0.0
 11
4.330178138600185
 21
-0.5661694040474085
 31
0.0
  0
LINE
  5
186
330
A
100
AcDbEntity
  8
1
  6
solid
 62
     0
100
AcDbLine
 10
4.330178138600185
 20
-0.5661694040474085
 30
0.0
 11
4.337040883698225
 21
-0.5613617117397162
 31
0.0
  0
LINE
  5
187
330
A
100
AcDbEntity
  8
1
  6
solid
 62
     0
100
AcDbLine
 10
4.337040883698225
 20
-0.5613617117397162
 30
0.0
 11
4.343413432717833
 21
-0.5541501732781777
 31
0.0
  0
LINE
  5
188
330
A
100
AcDbEntity
  8
1
  6
solid
 62
     0
100
AcDbLine
 10
4.343413432717833
 20
-0.5541501732781777
 30
0.0
 11
4.349295785659009
 21
-0.5433328655858701
 31
0.0
  0
LINE
  5
189
330
A
100
AcDbEntity
  8
1
  6
solid
 62
     0
100
AcDbLine
 10
4.349295785659009
 20
-0.5433328655858701
 30
0.0
 11
4.351746766051166
 21
-0.5337174809704855
 31
0.0
  0
LINE
  5
18A
330
A
100
AcDbEntity
  8
1
  6
solid
 62
     0
100
AcDbLine
 10
4.351746766051166
 20
-0.5337174809704855
 30
0.0
 11
4.35321735428646
 21
-0.5229001732781777
 31
0.0
  0
LINE
  5
18B
330
A
100
AcDbEntity
  8
1
  6
solid
 62
     0
100
AcDbLine
 10
4.35321735428646
 20
-0.5229001732781777
 30
0.0
 11
4.35321735428646
 21
-0.5156886348166393
 31
0.0
  0
LINE
  5
18C
330
A
100
AcDbEntity
  8
1
  6
solid
 62
     0
100
AcDbLine
 10
4.35321735428646
 20
-0.5156886348166393
 30
0.0
 11
4.349295785659009
 21
-0.5000636348166393
 31
0.0
  0
LINE
  5
18D
330
A
100
AcDbEntity
  8
1
  6
solid
 62
     0
100
AcDbLine
 10
4.349295785659009
 20
-0.5000636348166393
 30
0.0
 11
4.344884020953127
 21
-0.4916501732781777
 31
0.0
  0
LINE
  5
18E
330
A
100
AcDbEntity
  8
1
  6
solid
 62
     0
100
AcDbLine
 10
4.344884020953127
 20
-0.4916501732781777
 30
0.0
 11
4.339491864090382
 21
-0.4844386348166393
 31
0.0
  0
LINE
  5
18F
330
A
100
AcDbEntity
  8
1
  6
solid
 62
     0
100
AcDbLine
 10
4.339491864090382
 20
-0.4844386348166393
 30
0.0
 11
4.332629118992342
 21
-0.4772270963551008
 31
0.0
  0
LINE
  5
190
330
A
100
AcDbEntity
  8
1
  6
solid
 62
     0
100
AcDbLine
 10
4.332629118992342
 20
-0.4772270963551008
 30
0.0
 11
4.327236962129598
 21
-0.4748232502012547
 31
0.0
  0
LINE
  5
191
330
A
100
AcDbEntity
  8
1
  6
solid
 62
     0
100
AcDbLine
 10
4.327236962129598
 20
-0.4748232502012547
 30
0.0
 11
4.319393824874696
 21
-0.4724194040474086
 31
0.0
  0
LINE
  5
192
330
A
100
AcDbEntity
  8
1
  6
solid
 62
     0
100
AcDbLine
 10
4.319393824874696
 20
-0.4724194040474086
 30
0.0
 11
4.309589903306068
 21
-0.4724194040474086
 31
0.0
  0
LINE
  5
193
330
A
100
AcDbEntity
  8
1
  6
solid
 62
     0
100
AcDbLine
 10
4.309589903306068
 20
-0.4724194040474086
 30
0.0
 11
4.298805589580577
 21
-0.4760251732781777
 31
0.0
  0
LINE
  5
194
330
A
100
AcDbEntity
  8
1
  6
solid
 62
     0
100
AcDbLine
 10
4.298805589580577
 20
-0.4760251732781777
 30
0.0
 11
4.291942844482539
 21
-0.4808328655858701
 31
0.0
  0
LINE
  5
195
330
A
100
AcDbEntity
  8
1
  6
solid
 62
     0
100
AcDbLine
 10
4.291942844482539
 20
-0.4808328655858701
 30
0.0
 11
4.285080099384499
 21
-0.4880444040474085
 31
0.0
  0
LINE
  5
196
330
A
100
AcDbEntity
  8
1
  6
solid
 62
     0
100
AcDbLine
 10
4.285080099384499
 20
-0.4880444040474085
 30
0.0
 11
4.279687942521754
 21
-0.4988617117397162
 31
0.0
  0
LINE
  5
197
330
A
100
AcDbEntity
  8
1
  6
solid
 62
     0
100
AcDbLine
 10
4.279687942521754
 20
-0.4988617117397162
 30
0.0
 11
4.277236962129597
 21
-0.5072751732781777
 31
0.0
  0
LINE
  5
198
330
A
100
AcDbEntity
  8
1
  6
solid
 62
     0
100
AcDbLine
 10
4.277236962129597
 20
-0.5072751732781777
 30
0.0
 11
4.275766373894303
 21
-0.5156886348166393
 31
0.0
  0
LINE
  5
199
330
A
100
AcDbEntity
  8
1
  6
solid
 62
     0
100
AcDbLine
 10
4.275766373894303
 20
-0.5156886348166393
 30
0.0
 11
4.275766373894303
 21
-0.5265059425089471
 31
0.0
  0
LINE
  5
19A
330
A
100
AcDbEntity
  8
1
  6
solid
 62
     0
100
AcDbLine
 10
4.275766373894303
 20
-0.5265059425089471
 30
0.0
 11
4.277236962129597
 21
-0.5373232502012546
 31
0.0
  0
LINE
  5
19B
330
A
100
AcDbEntity
  8
1
  6
solid
 62
     0
100
AcDbLine
 10
4.277236962129597
 20
-0.5373232502012546
 30
0.0
 11
4.281158530757048
 21
-0.5493424809704855
 31
0.0
  0
LINE
  5
19C
330
A
100
AcDbEntity
  8
1
  6
solid
 62
     0
100
AcDbLine
 10
4.281158530757048
 20
-0.5493424809704855
 30
0.0
 11
4.288021275855088
 21
-0.5577559425089471
 31
0.0
  0
LINE
  5
19D
330
A
100
AcDbEntity
  8
1
  6
solid
 62
     0
100
AcDbLine
 10
4.288021275855088
 20
-0.5577559425089471
 30
0.0
 11
4.294884020953126
 21
-0.5649674809704855
 31
0.0
  0
LINE
  5
19E
330
A
100
AcDbEntity
  8
1
  6
solid
 62
     0
100
AcDbLine
 10
4.294884020953126
 20
-0.5649674809704855
 30
0.0
 11
4.304197746443323
 21
-0.5697751732781777
 31
0.0
  0
LINE
  5
19F
330
A
100
AcDbEntity
  8
1
  6
solid
 62
     0
100
AcDbLine
 10
4.304197746443323
 20
-0.5697751732781777
 30
0.0
 11
4.320374217031558
 21
-0.5697751732781777
 31
0.0
  0
LINE
  5
1A0
330
A
100
AcDbEntity
  8
1
  6
solid
 62
     0
100
AcDbLine
 10
4.317923236639401
 20
-0.4411694040474086
 30
0.0
 11
4.323315393502147
 21
-0.4399674809704855
 31
0.0
  0
LINE
  5
1A1
330
A
100
AcDbEntity
  8
1
  6
solid
 62
     0
100
AcDbLine
 10
4.323315393502147
 20
-0.4399674809704855
 30
0.0
 11
4.330178138600185
 21
-0.4339578655858701
 31
0.0
  0
LINE
  5
1A2
330
A
100
AcDbEntity
  8
1
  6
solid
 62
     0
100
AcDbLine
 10
4.330178138600185
 20
-0.4339578655858701
 30
0.0
 11
4.334099707227636
 21
-0.4279482502012546
 31
0.0
  0
LINE
  5
1A3
330
A
100
AcDbEntity
  8
1
  6
solid
 62
     0
100
AcDbLine
 10
4.334099707227636
 20
-0.4279482502012546
 30
0.0
 11
4.337040883698225
 21
-0.4207367117397162
 31
0.0
  0
LINE
  5
1A4
330
A
100
AcDbEntity
  8
1
  6
solid
 62
     0
100
AcDbLine
 10
4.337040883698225
 20
-0.4207367117397162
 30
0.0
 11
4.338021275855087
 21
-0.4135251732781777
 31
0.0
  0
LINE
  5
1A5
330
A
100
AcDbEntity
  8
1
  6
solid
 62
     0
100
AcDbLine
 10
4.338021275855087
 20
-0.4135251732781777
 30
0.0
 11
4.338021275855087
 21
-0.4087174809704855
 31
0.0
  0
LINE
  5
1A6
330
A
100
AcDbEntity
  8
1
  6
solid
 62
     0
100
AcDbLine
 10
4.338021275855087
 20
-0.4087174809704855
 30
0.0
 11
4.335570295462931
 21
-0.3979001732781777
 31
0.0
  0
LINE
  5
1A7
330
A
100
AcDbEntity
  8
1
  6
solid
 62
     0
100
AcDbLine
 10
4.335570295462931
 20
-0.3979001732781777
 30
0.0
 11
4.33164872683548
 21
-0.3906886348166393
 31
0.0
  0
LINE
  5
1A8
330
A
100
AcDbEntity
  8
1
  6
solid
 62
     0
100
AcDbLine
 10
4.33164872683548
 20
-0.3906886348166393
 30
0.0
 11
4.327236962129598
 21
-0.3858809425089469
 31
0.0
  0
LINE
  5
1A9
330
A
100
AcDbEntity
  8
1
  6
solid
 62
     0
100
AcDbLine
 10
4.327236962129598
 20
-0.3858809425089469
 30
0.0
 11
4.321844805266852
 21
-0.3822751732781777
 31
0.0
  0
LINE
  5
1AA
330
A
100
AcDbEntity
  8
1
  6
solid
 62
     0
100
AcDbLine
 10
4.321844805266852
 20
-0.3822751732781777
 30
0.0
 11
4.316452648404107
 21
-0.3810732502012546
 31
0.0
  0
LINE
  5
1AB
330
A
100
AcDbEntity
  8
1
  6
solid
 62
     0
100
AcDbLine
 10
4.316452648404107
 20
-0.3810732502012546
 30
0.0
 11
4.312531079776656
 21
-0.3810732502012546
 31
0.0
  0
LINE
  5
1AC
330
A
100
AcDbEntity
  8
1
  6
solid
 62
     0
100
AcDbLine
 10
4.312531079776656
 20
-0.3810732502012546
 30
0.0
 11
4.305668334678617
 21
-0.3822751732781777
 31
0.0
  0
LINE
  5
1AD
330
A
100
AcDbEntity
  8
1
  6
solid
 62
     0
100
AcDbLine
 10
4.305668334678617
 20
-0.3822751732781777
 30
0.0
 11
4.300276177815872
 21
-0.3858809425089469
 31
0.0
  0
LINE
  5
1AE
330
A
100
AcDbEntity
  8
1
  6
solid
 62
     0
100
AcDbLine
 10
4.300276177815872
 20
-0.3858809425089469
 30
0.0
 11
4.29586441310999
 21
-0.3906886348166393
 31
0.0
  0
LINE
  5
1AF
330
A
100
AcDbEntity
  8
1
  6
solid
 62
     0
100
AcDbLine
 10
4.29586441310999
 20
-0.3906886348166393
 30
0.0
 11
4.291942844482539
 21
-0.3979001732781777
 31
0.0
  0
LINE
  5
1B0
330
A
100
AcDbEntity
  8
1
  6
solid
 62
     0
100
AcDbLine
 10
4.291942844482539
 20
-0.3979001732781777
 30
0.0
 11
4.290472256247245
 21
-0.4051117117397162
 31
0.0
  0
LINE
  5
1B1
330
A
100
AcDbEntity
  8
1
  6
solid
 62
     0
100
AcDbLine
 10
4.290472256247245
 20
-0.4051117117397162
 30
0.0
 11
4.289491864090382
 21
-0.4099194040474085
 31
0.0
  0
LINE
  5
1B2
330
A
100
AcDbEntity
  8
1
  6
solid
 62
     0
100
AcDbLine
 10
4.289491864090382
 20
-0.4099194040474085
 30
0.0
 11
4.289491864090382
 21
-0.4135251732781777
 31
0.0
  0
LINE
  5
1B3
330
A
100
AcDbEntity
  8
1
  6
solid
 62
     0
100
AcDbLine
 10
4.289491864090382
 20
-0.4135251732781777
 30
0.0
 11
4.291942844482539
 21
-0.4243424809704855
 31
0.0
  0
LINE
  5
1B4
330
A
100
AcDbEntity
  8
1
  6
solid
 62
     0
100
AcDbLine
 10
4.291942844482539
 20
-0.4243424809704855
 30
0.0
 11
4.294884020953126
 21
-0.4291501732781777
 31
0.0
  0
LINE
  5
1B5
330
A
100
AcDbEntity
  8
1
  6
solid
 62
     0
100
AcDbLine
 10
4.294884020953126
 20
-0.4291501732781777
 30
0.0
 11
4.298805589580577
 21
-0.4363617117397162
 31
0.0
  0
LINE
  5
1B6
330
A
100
AcDbEntity
  8
1
  6
solid
 62
     0
100
AcDbLine
 10
4.298805589580577
 20
-0.4363617117397162
 30
0.0
 11
4.304197746443323
 21
-0.4399674809704855
 31
0.0
  0
LINE
  5
1B7
330
A
100
AcDbEntity
  8
1
  6
solid
 62
     0
100
AcDbLine
 10
4.304197746443323
 20
-0.4399674809704855
 30
0.0
 11
4.311060491541362
 21
-0.4411694040474086
 31
0.0
  0
LINE
  5
1B8
330
A
100
AcDbEntity
  8
1
  6
solid
 62
     0
100
AcDbLine
 10
4.311060491541362
 20
-0.4411694040474086
 30
0.0
 11
4.317923236639401
 21
-0.4411694040474086
 31
0.0
  0
LINE
  5
1B9
330
A
100
AcDbEntity
  8
1
  6
solid
 62
     0
100
AcDbLine
 10
4.55321735428646
 20
-0.3510251732781777
 30
0.0
 11
4.55321735428646
 21
-0.3834770963551008
 31
0.0
  0
LINE
  5
1BA
330
A
100
AcDbEntity
  8
1
  6
solid
 62
     0
100
AcDbLine
 10
4.55321735428646
 20
-0.3834770963551008
 30
0.0
 11
4.57086441310999
 21
-0.3834770963551008
 31
0.0
  0
LINE
  5
1BB
330
A
100
AcDbEntity
  8
1
  6
solid
 62
     0
100
AcDbLine
 10
4.57086441310999
 20
-0.3834770963551008
 30
0.0
 11
4.603707550364891
 21
-0.4736213271243316
 31
0.0
  0
LINE
  5
1BC
330
A
100
AcDbEntity
  8
1
  6
solid
 62
     0
100
AcDbLine
 10
4.603707550364891
 20
-0.4736213271243316
 30
0.0
 11
4.567433040560969
 21
-0.5685732502012547
 31
0.0
  0
LINE
  5
1BD
330
A
100
AcDbEntity
  8
1
  6
solid
 62
     0
100
AcDbLine
 10
4.567433040560969
 20
-0.5685732502012547
 30
0.0
 11
4.551256569972735
 21
-0.5685732502012547
 31
0.0
  0
LINE
  5
1BE
330
A
100
AcDbEntity
  8
1
  6
solid
 62
     0
100
AcDbLine
 10
4.551256569972735
 20
-0.5685732502012547
 30
0.0
 11
4.551256569972735
 21
-0.6010251732781777
 31
0.0
  0
LINE
  5
1BF
330
A
100
AcDbEntity
  8
1
  6
solid
 62
     0
100
AcDbLine
 10
4.551256569972735
 20
-0.6010251732781777
 30
0.0
 11
4.603707550364891
 21
-0.6010251732781777
 31
0.0
  0
LINE
  5
1C0
330
A
100
AcDbEntity
  8
1
  6
solid
 62
     0
100
AcDbLine
 10
4.603707550364891
 20
-0.6010251732781777
 30
0.0
 11
4.603707550364891
 21
-0.5685732502012547
 31
0.0
  0
LINE
  5
1C1
330
A
100
AcDbEntity
  8
1
  6
solid
 62
     0
100
AcDbLine
 10
4.603707550364891
 20
-0.5685732502012547
 30
0.0
 11
4.589982060168813
 21
-0.5685732502012547
 31
0.0
  0
LINE
  5
1C2
330
A
100
AcDbEntity
  8
1
  6
solid
 62
     0
100
AcDbLine
 10
4.589982060168813
 20
-0.5685732502012547
 30
0.0
 11
4.61400166801195
 21
-0.5024674809704855
 31
0.0
  0
LINE
  5
1C3
330
A
100
AcDbEntity
  8
1
  6
solid
 62
     0
100
AcDbLine
 10
4.61400166801195
 20
-0.5024674809704855
 30
0.0
 11
4.637531079776656
 21
-0.5685732502012547
 31
0.0
  0
LINE
  5
1C4
330
A
100
AcDbEntity
  8
1
  6
solid
 62
     0
100
AcDbLine
 10
4.637531079776656
 20
-0.5685732502012547
 30
0.0
 11
4.62478598173744
 21
-0.5685732502012547
 31
0.0
  0
LINE
  5
1C5
330
A
100
AcDbEntity
  8
1
  6
solid
 62
     0
100
AcDbLine
 10
4.62478598173744
 20
-0.5685732502012547
 30
0.0
 11
4.62478598173744
 21
-0.6010251732781777
 31
0.0
  0
LINE
  5
1C6
330
A
100
AcDbEntity
  8
1
  6
solid
 62
     0
100
AcDbLine
 10
4.62478598173744
 20
-0.6010251732781777
 30
0.0
 11
4.676256569972735
 21
-0.6010251732781777
 31
0.0
  0
LINE
  5
1C7
330
A
100
AcDbEntity
  8
1
  6
solid
 62
     0
100
AcDbLine
 10
4.676256569972735
 20
-0.6010251732781777
 30
0.0
 11
4.676256569972735
 21
-0.5685732502012547
 31
0.0
  0
LINE
  5
1C8
330
A
100
AcDbEntity
  8
1
  6
solid
 62
     0
100
AcDbLine
 10
4.676256569972735
 20
-0.5685732502012547
 30
0.0
 11
4.660080099384499
 21
-0.5685732502012547
 31
0.0
  0
LINE
  5
1C9
330
A
100
AcDbEntity
  8
1
  6
solid
 62
     0
100
AcDbLine
 10
4.660080099384499
 20
-0.5685732502012547
 30
0.0
 11
4.62478598173744
 21
-0.4736213271243316
 31
0.0
  0
LINE
  5
1CA
330
A
100
AcDbEntity
  8
1
  6
solid
 62
     0
100
AcDbLine
 10
4.62478598173744
 20
-0.4736213271243316
 30
0.0
 11
4.65664872683548
 21
-0.3834770963551008
 31
0.0
  0
LINE
  5
1CB
330
A
100
AcDbEntity
  8
1
  6
solid
 62
     0
100
AcDbLine
 10
4.65664872683548
 20
-0.3834770963551008
 30
0.0
 11
4.674295785659009
 21
-0.3834770963551008
 31
0.0
  0
LINE
  5
1CC
330
A
100
AcDbEntity
  8
1
  6
solid
 62
     0
100
AcDbLine
 10
4.674295785659009
 20
-0.3834770963551008
 30
0.0
 11
4.674295785659009
 21
-0.3510251732781777
 31
0.0
  0
LINE
  5
1CD
330
A
100
AcDbEntity
  8
1
  6
solid
 62
     0
100
AcDbLine
 10
4.674295785659009
 20
-0.3510251732781777
 30
0.0
 11
4.621844805266852
 21
-0.3510251732781777
 31
0.0
  0
LINE
  5
1CE
330
A
100
AcDbEntity
  8
1
  6
solid
 62
     0
100
AcDbLine
 10
4.621844805266852
 20
-0.3510251732781777
 30
0.0
 11
4.621844805266852
 21
-0.3834770963551008
 31
0.0
  0
LINE
  5
1CF
330
A
100
AcDbEntity
  8
1
  6
solid
 62
     0
100
AcDbLine
 10
4.621844805266852
 20
-0.3834770963551008
 30
0.0
 11
4.635080099384499
 21
-0.3834770963551008
 31
0.0
  0
LINE
  5
1D0
330
A
100
AcDbEntity
  8
1
  6
solid
 62
     0
100
AcDbLine
 10
4.635080099384499
 20
-0.3834770963551008
 30
0.0
 11
4.61400166801195
 21
-0.4423713271243316
 31
0.0
  0
LINE
  5
1D1
330
A
100
AcDbEntity
  8
1
  6
solid
 62
     0
100
AcDbLine
 10
4.61400166801195
 20
-0.4423713271243316
 30
0.0
 11
4.59243304056097
 21
-0.3834770963551008
 31
0.0
  0
LINE
  5
1D2
330
A
100
AcDbEntity
  8
1
  6
solid
 62
     0
100
AcDbLine
 10
4.59243304056097
 20
-0.3834770963551008
 30
0.0
 11
4.605668334678616
 21
-0.3834770963551008
 31
0.0
  0
LINE
  5
1D3
330
A
100
AcDbEntity
  8
1
  6
solid
 62
     0
100
AcDbLine
 10
4.605668334678616
 20
-0.3834770963551008
 30
0.0
 11
4.605668334678616
 21
-0.3510251732781777
 31
0.0
  0
LINE
  5
1D4
330
A
100
AcDbEntity
  8
1
  6
solid
 62
     0
100
AcDbLine
 10
4.605668334678616
 20
-0.3510251732781777
 30
0.0
 11
4.55321735428646
 21
-0.3510251732781777
 31
0.0
  0
LINE
  5
1D5
330
A
100
AcDbEntity
  8
1
  6
solid
 62
     0
100
AcDbLine
 10
4.881158530757048
 20
-0.4531886348166393
 30
0.0
 11
4.874295785659009
 21
-0.4604001732781777
 31
0.0
  0
LINE
  5
1D6
330
A
100
AcDbEntity
  8
1
  6
solid
 62
     0
100
AcDbLine
 10
4.874295785659009
 20
-0.4604001732781777
 30
0.0
 11
4.867433040560969
 21
-0.4688136348166393
 31
0.0
  0
LINE
  5
1D7
330
A
100
AcDbEntity
  8
1
  6
solid
 62
     0
100
AcDbLine
 10
4.867433040560969
 20
-0.4688136348166393
 30
0.0
 11
4.862040883698225
 21
-0.4772270963551008
 31
0.0
  0
LINE
  5
1D8
330
A
100
AcDbEntity
  8
1
  6
solid
 62
     0
100
AcDbLine
 10
4.862040883698225
 20
-0.4772270963551008
 30
0.0
 11
4.858119315070774
 21
-0.4868424809704855
 31
0.0
  0
LINE
  5
1D9
330
A
100
AcDbEntity
  8
1
  6
solid
 62
     0
100
AcDbLine
 10
4.858119315070774
 20
-0.4868424809704855
 30
0.0
 11
4.855178138600185
 21
-0.495255942508947
 31
0.0
  0
LINE
  5
1DA
330
A
100
AcDbEntity
  8
1
  6
solid
 62
     0
100
AcDbLine
 10
4.855178138600185
 20
-0.495255942508947
 30
0.0
 11
4.852727158208029
 21
-0.5072751732781777
 31
0.0
  0
LINE
  5
1DB
330
A
100
AcDbEntity
  8
1
  6
solid
 62
     0
100
AcDbLine
 10
4.852727158208029
 20
-0.5072751732781777
 30
0.0
 11
4.851256569972735
 21
-0.5156886348166393
 31
0.0
  0
LINE
  5
1DC
330
A
100
AcDbEntity
  8
1
  6
solid
 62
     0
100
AcDbLine
 10
4.851256569972735
 20
-0.5156886348166393
 30
0.0
 11
4.851256569972735
 21
-0.5216982502012546
 31
0.0
  0
LINE
  5
1DD
330
A
100
AcDbEntity
  8
1
  6
solid
 62
     0
100
AcDbLine
 10
4.851256569972735
 20
-0.5216982502012546
 30
0.0
 11
4.852727158208029
 21
-0.5313136348166393
 31
0.0
  0
LINE
  5
1DE
330
A
100
AcDbEntity
  8
1
  6
solid
 62
     0
100
AcDbLine
 10
4.852727158208029
 20
-0.5313136348166393
 30
0.0
 11
4.854197746443323
 21
-0.5421309425089471
 31
0.0
  0
LINE
  5
1DF
330
A
100
AcDbEntity
  8
1
  6
solid
 62
     0
100
AcDbLine
 10
4.854197746443323
 20
-0.5421309425089471
 30
0.0
 11
4.85664872683548
 21
-0.5529482502012546
 31
0.0
  0
LINE
  5
1E0
330
A
100
AcDbEntity
  8
1
  6
solid
 62
     0
100
AcDbLine
 10
4.85664872683548
 20
-0.5529482502012546
 30
0.0
 11
4.862040883698225
 21
-0.5661694040474085
 31
0.0
  0
LINE
  5
1E1
330
A
100
AcDbEntity
  8
1
  6
solid
 62
     0
100
AcDbLine
 10
4.862040883698225
 20
-0.5661694040474085
 30
0.0
 11
4.870374217031558
 21
-0.5769867117397162
 31
0.0
  0
LINE
  5
1E2
330
A
100
AcDbEntity
  8
1
  6
solid
 62
     0
100
AcDbLine
 10
4.870374217031558
 20
-0.5769867117397162
 30
0.0
 11
4.877236962129597
 21
-0.5854001732781777
 31
0.0
  0
LINE
  5
1E3
330
A
100
AcDbEntity
  8
1
  6
solid
 62
     0
100
AcDbLine
 10
4.877236962129597
 20
-0.5854001732781777
 30
0.0
 11
4.889491864090381
 21
-0.5938136348166393
 31
0.0
  0
LINE
  5
1E4
330
A
100
AcDbEntity
  8
1
  6
solid
 62
     0
100
AcDbLine
 10
4.889491864090381
 20
-0.5938136348166393
 30
0.0
 11
4.901746766051166
 21
-0.5998232502012546
 31
0.0
  0
LINE
  5
1E5
330
A
100
AcDbEntity
  8
1
  6
solid
 62
     0
100
AcDbLine
 10
4.901746766051166
 20
-0.5998232502012546
 30
0.0
 11
4.911060491541362
 21
-0.6010251732781777
 31
0.0
  0
LINE
  5
1E6
330
A
100
AcDbEntity
  8
1
  6
solid
 62
     0
100
AcDbLine
 10
4.911060491541362
 20
-0.6010251732781777
 30
0.0
 11
4.921844805266852
 21
-0.6010251732781777
 31
0.0
  0
LINE
  5
1E7
330
A
100
AcDbEntity
  8
1
  6
solid
 62
     0
100
AcDbLine
 10
4.921844805266852
 20
-0.6010251732781777
 30
0.0
 11
4.932629118992343
 21
-0.5974194040474085
 31
0.0
  0
LINE
  5
1E8
330
A
100
AcDbEntity
  8
1
  6
solid
 62
     0
100
AcDbLine
 10
4.932629118992343
 20
-0.5974194040474085
 30
0.0
 11
4.944884020953127
 21
-0.5890059425089471
 31
0.0
  0
LINE
  5
1E9
330
A
100
AcDbEntity
  8
1
  6
solid
 62
     0
100
AcDbLine
 10
4.944884020953127
 20
-0.5890059425089471
 30
0.0
 11
4.957138922913911
 21
-0.5781886348166393
 31
0.0
  0
LINE
  5
1EA
330
A
100
AcDbEntity
  8
1
  6
solid
 62
     0
100
AcDbLine
 10
4.957138922913911
 20
-0.5781886348166393
 30
0.0
 11
4.965472256247244
 21
-0.5649674809704855
 31
0.0
  0
LINE
  5
1EB
330
A
100
AcDbEntity
  8
1
  6
solid
 62
     0
100
AcDbLine
 10
4.965472256247244
 20
-0.5649674809704855
 30
0.0
 11
4.970864413109989
 21
-0.5505444040474085
 31
0.0
  0
LINE
  5
1EC
330
A
100
AcDbEntity
  8
1
  6
solid
 62
     0
100
AcDbLine
 10
4.970864413109989
 20
-0.5505444040474085
 30
0.0
 11
4.973315393502146
 21
-0.5433328655858701
 31
0.0
  0
LINE
  5
1ED
330
A
100
AcDbEntity
  8
1
  6
solid
 62
     0
100
AcDbLine
 10
4.973315393502146
 20
-0.5433328655858701
 30
0.0
 11
4.976256569972735
 21
-0.5277078655858701
 31
0.0
  0
LINE
  5
1EE
330
A
100
AcDbEntity
  8
1
  6
solid
 62
     0
100
AcDbLine
 10
4.976256569972735
 20
-0.5277078655858701
 30
0.0
 11
4.976256569972735
 21
-0.5144867117397162
 31
0.0
  0
LINE
  5
1EF
330
A
100
AcDbEntity
  8
1
  6
solid
 62
     0
100
AcDbLine
 10
4.976256569972735
 20
-0.5144867117397162
 30
0.0
 11
4.973315393502146
 21
-0.4988617117397162
 31
0.0
  0
LINE
  5
1F0
330
A
100
AcDbEntity
  8
1
  6
solid
 62
     0
100
AcDbLine
 10
4.973315393502146
 20
-0.4988617117397162
 30
0.0
 11
4.969393824874695
 21
-0.4868424809704855
 31
0.0
  0
LINE
  5
1F1
330
A
100
AcDbEntity
  8
1
  6
solid
 62
     0
100
AcDbLine
 10
4.969393824874695
 20
-0.4868424809704855
 30
0.0
 11
4.964001668011951
 21
-0.4724194040474086
 31
0.0
  0
LINE
  5
1F2
330
A
100
AcDbEntity
  8
1
  6
solid
 62
     0
100
AcDbLine
 10
4.964001668011951
 20
-0.4724194040474086
 30
0.0
 11
4.957138922913911
 21
-0.464005942508947
 31
0.0
  0
LINE
  5
1F3
330
A
100
AcDbEntity
  8
1
  6
solid
 62
     0
100
AcDbLine
 10
4.957138922913911
 20
-0.464005942508947
 30
0.0
 11
4.950276177815872
 21
-0.4567944040474085
 31
0.0
  0
LINE
  5
1F4
330
A
100
AcDbEntity
  8
1
  6
solid
 62
     0
100
AcDbLine
 10
4.950276177815872
 20
-0.4567944040474085
 30
0.0
 11
4.946354609188421
 21
-0.4531886348166393
 31
0.0
  0
LINE
  5
1F5
330
A
100
AcDbEntity
  8
1
  6
solid
 62
     0
100
AcDbLine
 10
4.946354609188421
 20
-0.4531886348166393
 30
0.0
 11
4.95321735428646
 21
-0.4447751732781777
 31
0.0
  0
LINE
  5
1F6
330
A
100
AcDbEntity
  8
1
  6
solid
 62
     0
100
AcDbLine
 10
4.95321735428646
 20
-0.4447751732781777
 30
0.0
 11
4.957138922913911
 21
-0.4363617117397162
 31
0.0
  0
LINE
  5
1F7
330
A
100
AcDbEntity
  8
1
  6
solid
 62
     0
100
AcDbLine
 10
4.957138922913911
 20
-0.4363617117397162
 30
0.0
 11
4.9600800993845
 21
-0.4279482502012546
 31
0.0
  0
LINE
  5
1F8
330
A
100
AcDbEntity
  8
1
  6
solid
 62
     0
100
AcDbLine
 10
4.9600800993845
 20
-0.4279482502012546
 30
0.0
 11
4.961550687619793
 21
-0.4147270963551008
 31
0.0
  0
LINE
  5
1F9
330
A
100
AcDbEntity
  8
1
  6
solid
 62
     0
100
AcDbLine
 10
4.961550687619793
 20
-0.4147270963551008
 30
0.0
 11
4.961550687619793
 21
-0.4051117117397162
 31
0.0
  0
LINE
  5
1FA
330
A
100
AcDbEntity
  8
1
  6
solid
 62
     0
100
AcDbLine
 10
4.961550687619793
 20
-0.4051117117397162
 30
0.0
 11
4.9600800993845
 21
-0.3966982502012546
 31
0.0
  0
LINE
  5
1FB
330
A
100
AcDbEntity
  8
1
  6
solid
 62
     0
100
AcDbLine
 10
4.9600800993845
 20
-0.3966982502012546
 30
0.0
 11
4.957138922913911
 21
-0.38708286558587
 31
0.0
  0
LINE
  5
1FC
330
A
100
AcDbEntity
  8
1
  6
solid
 62
     0
100
AcDbLine
 10
4.957138922913911
 20
-0.38708286558587
 30
0.0
 11
4.95321735428646
 21
-0.3774674809704854
 31
0.0
  0
LINE
  5
1FD
330
A
100
AcDbEntity
  8
1
  6
solid
 62
     0
100
AcDbLine
 10
4.95321735428646
 20
-0.3774674809704854
 30
0.0
 11
4.949295785659009
 21
-0.3702559425089469
 31
0.0
  0
LINE
  5
1FE
330
A
100
AcDbEntity
  8
1
  6
solid
 62
     0
100
AcDbLine
 10
4.949295785659009
 20
-0.3702559425089469
 30
0.0
 11
4.94243304056097
 21
-0.3630444040474084
 31
0.0
  0
LINE
  5
1FF
330
A
100
AcDbEntity
  8
1
  6
solid
 62
     0
100
AcDbLine
 10
4.94243304056097
 20
-0.3630444040474084
 30
0.0
 11
4.937040883698225
 21
-0.3582367117397162
 31
0.0
  0
LINE
  5
200
330
A
100
AcDbEntity
  8
1
  6
solid
 62
     0
100
AcDbLine
 10
4.937040883698225
 20
-0.3582367117397162
 30
0.0
 11
4.930178138600186
 21
-0.3546309425089469
 31
0.0
  0
LINE
  5
201
330
A
100
AcDbEntity
  8
1
  6
solid
 62
     0
100
AcDbLine
 10
4.930178138600186
 20
-0.3546309425089469
 30
0.0
 11
4.920374217031558
 21
-0.3510251732781777
 31
0.0
  0
LINE
  5
202
330
A
100
AcDbEntity
  8
1
  6
solid
 62
     0
100
AcDbLine
 10
4.920374217031558
 20
-0.3510251732781777
 30
0.0
 11
4.909589903306068
 21
-0.3510251732781777
 31
0.0
  0
LINE
  5
203
330
A
100
AcDbEntity
  8
1
  6
solid
 62
     0
100
AcDbLine
 10
4.909589903306068
 20
-0.3510251732781777
 30
0.0
 11
4.897335001345283
 21
-0.3546309425089469
 31
0.0
  0
LINE
  5
204
330
A
100
AcDbEntity
  8
1
  6
solid
 62
     0
100
AcDbLine
 10
4.897335001345283
 20
-0.3546309425089469
 30
0.0
 11
4.886550687619793
 21
-0.3618424809704854
 31
0.0
  0
LINE
  5
205
330
A
100
AcDbEntity
  8
1
  6
solid
 62
     0
100
AcDbLine
 10
4.886550687619793
 20
-0.3618424809704854
 30
0.0
 11
4.879687942521754
 21
-0.3678520963551008
 31
0.0
  0
LINE
  5
206
330
A
100
AcDbEntity
  8
1
  6
solid
 62
     0
100
AcDbLine
 10
4.879687942521754
 20
-0.3678520963551008
 30
0.0
 11
4.874295785659009
 21
-0.3774674809704854
 31
0.0
  0
LINE
  5
207
330
A
100
AcDbEntity
  8
1
  6
solid
 62
     0
100
AcDbLine
 10
4.874295785659009
 20
-0.3774674809704854
 30
0.0
 11
4.870374217031558
 21
-0.38708286558587
 31
0.0
  0
LINE
  5
208
330
A
100
AcDbEntity
  8
1
  6
solid
 62
     0
100
AcDbLine
 10
4.870374217031558
 20
-0.38708286558587
 30
0.0
 11
4.867433040560969
 21
-0.3979001732781777
 31
0.0
  0
LINE
  5
209
330
A
100
AcDbEntity
  8
1
  6
solid
 62
     0
100
AcDbLine
 10
4.867433040560969
 20
-0.3979001732781777
 30
0.0
 11
4.865962452325676
 21
-0.4051117117397162
 31
0.0
  0
LINE
  5
20A
330
A
100
AcDbEntity
  8
1
  6
solid
 62
     0
100
AcDbLine
 10
4.865962452325676
 20
-0.4051117117397162
 30
0.0
 11
4.865962452325676
 21
-0.4135251732781777
 31
0.0
  0
LINE
  5
20B
330
A
100
AcDbEntity
  8
1
  6
solid
 62
     0
100
AcDbLine
 10
4.865962452325676
 20
-0.4135251732781777
 30
0.0
 11
4.867433040560969
 21
-0.4243424809704855
 31
0.0
  0
LINE
  5
20C
330
A
100
AcDbEntity
  8
1
  6
solid
 62
     0
100
AcDbLine
 10
4.867433040560969
 20
-0.4243424809704855
 30
0.0
 11
4.870374217031558
 21
-0.4363617117397162
 31
0.0
  0
LINE
  5
20D
330
A
100
AcDbEntity
  8
1
  6
solid
 62
     0
100
AcDbLine
 10
4.870374217031558
 20
-0.4363617117397162
 30
0.0
 11
4.874295785659009
 21
-0.4447751732781777
 31
0.0
  0
LINE
  5
20E
330
A
100
AcDbEntity
  8
1
  6
solid
 62
     0
100
AcDbLine
 10
4.874295785659009
 20
-0.4447751732781777
 30
0.0
 11
4.87821735428646
 21
-0.4495828655858701
 31
0.0
  0
LINE
  5
20F
330
A
100
AcDbEntity
  8
1
  6
solid
 62
     0
100
AcDbLine
 10
4.87821735428646
 20
-0.4495828655858701
 30
0.0
 11
4.881158530757048
 21
-0.4531886348166393
 31
0.0
  0
LINE
  5
210
330
A
100
AcDbEntity
  8
1
  6
solid
 62
     0
100
AcDbLine
 10
4.920374217031558
 20
-0.5697751732781777
 30
0.0
 11
4.930178138600186
 21
-0.5661694040474085
 31
0.0
  0
LINE
  5
211
330
A
100
AcDbEntity
  8
1
  6
solid
 62
     0
100
AcDbLine
 10
4.930178138600186
 20
-0.5661694040474085
 30
0.0
 11
4.937040883698225
 21
-0.5613617117397162
 31
0.0
  0
LINE
  5
212
330
A
100
AcDbEntity
  8
1
  6
solid
 62
     0
100
AcDbLine
 10
4.937040883698225
 20
-0.5613617117397162
 30
0.0
 11
4.943413432717832
 21
-0.5541501732781777
 31
0.0
  0
LINE
  5
213
330
A
100
AcDbEntity
  8
1
  6
solid
 62
     0
100
AcDbLine
 10
4.943413432717832
 20
-0.5541501732781777
 30
0.0
 11
4.949295785659009
 21
-0.5433328655858701
 31
0.0
  0
LINE
  5
214
330
A
100
AcDbEntity
  8
1
  6
solid
 62
     0
100
AcDbLine
 10
4.949295785659009
 20
-0.5433328655858701
 30
0.0
 11
4.951746766051166
 21
-0.5337174809704855
 31
0.0
  0
LINE
  5
215
330
A
100
AcDbEntity
  8
1
  6
solid
 62
     0
100
AcDbLine
 10
4.951746766051166
 20
-0.5337174809704855
 30
0.0
 11
4.95321735428646
 21
-0.5229001732781777
 31
0.0
  0
LINE
  5
216
330
A
100
AcDbEntity
  8
1
  6
solid
 62
     0
100
AcDbLine
 10
4.95321735428646
 20
-0.5229001732781777
 30
0.0
 11
4.95321735428646
 21
-0.5156886348166393
 31
0.0
  0
LINE
  5
217
330
A
100
AcDbEntity
  8
1
  6
solid
 62
     0
100
AcDbLine
 10
4.95321735428646
 20
-0.5156886348166393
 30
0.0
 11
4.949295785659009
 21
-0.5000636348166393
 31
0.0
  0
LINE
  5
218
330
A
100
AcDbEntity
  8
1
  6
solid
 62
     0
100
AcDbLine
 10
4.949295785659009
 20
-0.5000636348166393
 30
0.0
 11
4.944884020953127
 21
-0.4916501732781777
 31
0.0
  0
LINE
  5
219
330
A
100
AcDbEntity
  8
1
  6
solid
 62
     0
100
AcDbLine
 10
4.944884020953127
 20
-0.4916501732781777
 30
0.0
 11
4.939491864090381
 21
-0.4844386348166393
 31
0.0
  0
LINE
  5
21A
330
A
100
AcDbEntity
  8
1
  6
solid
 62
     0
100
AcDbLine
 10
4.939491864090381
 20
-0.4844386348166393
 30
0.0
 11
4.932629118992343
 21
-0.4772270963551008
 31
0.0
  0
LINE
  5
21B
330
A
100
AcDbEntity
  8
1
  6
solid
 62
     0
100
AcDbLine
 10
4.932629118992343
 20
-0.4772270963551008
 30
0.0
 11
4.927236962129597
 21
-0.4748232502012547
 31
0.0
  0
LINE
  5
21C
330
A
100
AcDbEntity
  8
1
  6
solid
 62
     0
100
AcDbLine
 10
4.927236962129597
 20
-0.4748232502012547
 30
0.0
 11
4.919393824874696
 21
-0.4724194040474086
 31
0.0
  0
LINE
  5
21D
330
A
100
AcDbEntity
  8
1
  6
solid
 62
     0
100
AcDbLine
 10
4.919393824874696
 20
-0.4724194040474086
 30
0.0
 11
4.909589903306068
 21
-0.4724194040474086
 31
0.0
  0
LINE
  5
21E
330
A
100
AcDbEntity
  8
1
  6
solid
 62
     0
100
AcDbLine
 10
4.909589903306068
 20
-0.4724194040474086
 30
0.0
 11
4.898805589580577
 21
-0.4760251732781777
 31
0.0
  0
LINE
  5
21F
330
A
100
AcDbEntity
  8
1
  6
solid
 62
     0
100
AcDbLine
 10
4.898805589580577
 20
-0.4760251732781777
 30
0.0
 11
4.891942844482539
 21
-0.4808328655858701
 31
0.0
  0
LINE
  5
220
330
A
100
AcDbEntity
  8
1
  6
solid
 62
     0
100
AcDbLine
 10
4.891942844482539
 20
-0.4808328655858701
 30
0.0
 11
4.885080099384499
 21
-0.4880444040474085
 31
0.0
  0
LINE
  5
221
330
A
100
AcDbEntity
  8
1
  6
solid
 62
     0
100
AcDbLine
 10
4.885080099384499
 20
-0.4880444040474085
 30
0.0
 11
4.879687942521754
 21
-0.4988617117397162
 31
0.0
  0
LINE
  5
222
330
A
100
AcDbEntity
  8
1
  6
solid
 62
     0
100
AcDbLine
 10
4.879687942521754
 20
-0.4988617117397162
 30
0.0
 11
4.877236962129597
 21
-0.5072751732781777
 31
0.0
  0
LINE
  5
223
330
A
100
AcDbEntity
  8
1
  6
solid
 62
     0
100
AcDbLine
 10
4.877236962129597
 20
-0.5072751732781777
 30
0.0
 11
4.875766373894303
 21
-0.5156886348166393
 31
0.0
  0
LINE
  5
224
330
A
100
AcDbEntity
  8
1
  6
solid
 62
     0
100
AcDbLine
 10
4.875766373894303
 20
-0.5156886348166393
 30
0.0
 11
4.875766373894303
 21
-0.5265059425089471
 31
0.0
  0
LINE
  5
225
330
A
100
AcDbEntity
  8
1
  6
solid
 62
     0
100
AcDbLine
 10
4.875766373894303
 20
-0.5265059425089471
 30
0.0
 11
4.877236962129597
 21
-0.5373232502012546
 31
0.0
  0
LINE
  5
226
330
A
100
AcDbEntity
  8
1
  6
solid
 62
     0
100
AcDbLine
 10
4.877236962129597
 20
-0.5373232502012546
 30
0.0
 11
4.881158530757048
 21
-0.5493424809704855
 31
0.0
  0
LINE
  5
227
330
A
100
AcDbEntity
  8
1
  6
solid
 62
     0
100
AcDbLine
 10
4.881158530757048
 20
-0.5493424809704855
 30
0.0
 11
4.888021275855088
 21
-0.5577559425089471
 31
0.0
  0
LINE
  5
228
330
A
100
AcDbEntity
  8
1
  6
solid
 62
     0
100
AcDbLine
 10
4.888021275855088
 20
-0.5577559425089471
 30
0.0
 11
4.894884020953126
 21
-0.5649674809704855
 31
0.0
  0
LINE
  5
229
330
A
100
AcDbEntity
  8
1
  6
solid
 62
     0
100
AcDbLine
 10
4.894884020953126
 20
-0.5649674809704855
 30
0.0
 11
4.904197746443323
 21
-0.5697751732781777
 31
0.0
  0
LINE
  5
22A
330
A
100
AcDbEntity
  8
1
  6
solid
 62
     0
100
AcDbLine
 10
4.904197746443323
 20
-0.5697751732781777
 30
0.0
 11
4.920374217031558
 21
-0.5697751732781777
 31
0.0
  0
LINE
  5
22B
330
A
100
AcDbEntity
  8
1
  6
solid
 62
     0
100
AcDbLine
 10
4.917923236639401
 20
-0.4411694040474086
 30
0.0
 11
4.923315393502146
 21
-0.4399674809704855
 31
0.0
  0
LINE
  5
22C
330
A
100
AcDbEntity
  8
1
  6
solid
 62
     0
100
AcDbLine
 10
4.923315393502146
 20
-0.4399674809704855
 30
0.0
 11
4.930178138600186
 21
-0.4339578655858701
 31
0.0
  0
LINE
  5
22D
330
A
100
AcDbEntity
  8
1
  6
solid
 62
     0
100
AcDbLine
 10
4.930178138600186
 20
-0.4339578655858701
 30
0.0
 11
4.934099707227637
 21
-0.4279482502012546
 31
0.0
  0
LINE
  5
22E
330
A
100
AcDbEntity
  8
1
  6
solid
 62
     0
100
AcDbLine
 10
4.934099707227637
 20
-0.4279482502012546
 30
0.0
 11
4.937040883698225
 21
-0.4207367117397162
 31
0.0
  0
LINE
  5
22F
330
A
100
AcDbEntity
  8
1
  6
solid
 62
     0
100
AcDbLine
 10
4.937040883698225
 20
-0.4207367117397162
 30
0.0
 11
4.938021275855088
 21
-0.4135251732781777
 31
0.0
  0
LINE
  5
230
330
A
100
AcDbEntity
  8
1
  6
solid
 62
     0
100
AcDbLine
 10
4.938021275855088
 20
-0.4135251732781777
 30
0.0
 11
4.938021275855088
 21
-0.4087174809704855
 31
0.0
  0
LINE
  5
231
330
A
100
AcDbEntity
  8
1
  6
solid
 62
     0
100
AcDbLine
 10
4.938021275855088
 20
-0.4087174809704855
 30
0.0
 11
4.93557029546293
 21
-0.3979001732781777
 31
0.0
  0
LINE
  5
232
330
A
100
AcDbEntity
  8
1
  6
solid
 62
     0
100
AcDbLine
 10
4.93557029546293
 20
-0.3979001732781777
 30
0.0
 11
4.931648726835479
 21
-0.3906886348166393
 31
0.0
  0
LINE
  5
233
330
A
100
AcDbEntity
  8
1
  6
solid
 62
     0
100
AcDbLine
 10
4.931648726835479
 20
-0.3906886348166393
 30
0.0
 11
4.927236962129597
 21
-0.3858809425089469
 31
0.0
  0
LINE
  5
234
330
A
100
AcDbEntity
  8
1
  6
solid
 62
     0
100
AcDbLine
 10
4.927236962129597
 20
-0.3858809425089469
 30
0.0
 11
4.921844805266852
 21
-0.3822751732781777
 31
0.0
  0
LINE
  5
235
330
A
100
AcDbEntity
  8
1
  6
solid
 62
     0
100
AcDbLine
 10
4.921844805266852
 20
-0.3822751732781777
 30
0.0
 11
4.916452648404107
 21
-0.3810732502012546
 31
0.0
  0
LINE
  5
236
330
A
100
AcDbEntity
  8
1
  6
solid
 62
     0
100
AcDbLine
 10
4.916452648404107
 20
-0.3810732502012546
 30
0.0
 11
4.912531079776655
 21
-0.3810732502012546
 31
0.0
  0
LINE
  5
237
330
A
100
AcDbEntity
  8
1
  6
solid
 62
     0
100
AcDbLine
 10
4.912531079776655
 20
-0.3810732502012546
 30
0.0
 11
4.905668334678617
 21
-0.3822751732781777
 31
0.0
  0
LINE
  5
238
330
A
100
AcDbEntity
  8
1
  6
solid
 62
     0
100
AcDbLine
 10
4.905668334678617
 20
-0.3822751732781777
 30
0.0
 11
4.900276177815872
 21
-0.3858809425089469
 31
0.0
  0
LINE
  5
239
330
A
100
AcDbEntity
  8
1
  6
solid
 62
     0
100
AcDbLine
 10
4.900276177815872
 20
-0.3858809425089469
 30
0.0
 11
4.89586441310999
 21
-0.3906886348166393
 31
0.0
  0
LINE
  5
23A
330
A
100
AcDbEntity
  8
1
  6
solid
 62
     0
100
AcDbLine
 10
4.89586441310999
 20
-0.3906886348166393
 30
0.0
 11
4.891942844482539
 21
-0.3979001732781777
 31
0.0
  0
LINE
  5
23B
330
A
100
AcDbEntity
  8
1
  6
solid
 62
     0
100
AcDbLine
 10
4.891942844482539
 20
-0.3979001732781777
 30
0.0
 11
4.890472256247244
 21
-0.4051117117397162
 31
0.0
  0
LINE
  5
23C
330
A
100
AcDbEntity
  8
1
  6
solid
 62
     0
100
AcDbLine
 10
4.890472256247244
 20
-0.4051117117397162
 30
0.0
 11
4.889491864090381
 21
-0.4099194040474085
 31
0.0
  0
LINE
  5
23D
330
A
100
AcDbEntity
  8
1
  6
solid
 62
     0
100
AcDbLine
 10
4.889491864090381
 20
-0.4099194040474085
 30
0.0
 11
4.889491864090381
 21
-0.4135251732781777
 31
0.0
  0
LINE
  5
23E
330
A
100
AcDbEntity
  8
1
  6
solid
 62
     0
100
AcDbLine
 10
4.889491864090381
 20
-0.4135251732781777
 30
0.0
 11
4.891942844482539
 21
-0.4243424809704855
 31
0.0
  0
LINE
  5
23F
330
A
100
AcDbEntity
  8
1
  6
solid
 62
     0
100
AcDbLine
 10
4.891942844482539
 20
-0.4243424809704855
 30
0.0
 11
4.894884020953126
 21
-0.4291501732781777
 31
0.0
  0
LINE
  5
240
330
A
100
AcDbEntity
  8
1
  6
solid
 62
     0
100
AcDbLine
 10
4.894884020953126
 20
-0.4291501732781777
 30
0.0
 11
4.898805589580577
 21
-0.4363617117397162
 31
0.0
  0
LINE
  5
241
330
A
100
AcDbEntity
  8
1
  6
solid
 62
     0
100
AcDbLine
 10
4.898805589580577
 20
-0.4363617117397162
 30
0.0
 11
4.904197746443323
 21
-0.4399674809704855
 31
0.0
  0
LINE
  5
242
330
A
100
AcDbEntity
  8
1
  6
solid
 62
     0
100
AcDbLine
 10
4.904197746443323
 20
-0.4399674809704855
 30
0.0
 11
4.911060491541362
 21
-0.4411694040474086
 31
0.0
  0
LINE
  5
243
330
A
100
AcDbEntity
  8
1
  6
solid
 62
     0
100
AcDbLine
 10
4.911060491541362
 20
-0.4411694040474086
 30
0.0
 11
4.917923236639401
 21
-0.4411694040474086
 31
0.0
  0
LINE
  5
244
330
A
100
AcDbEntity
  8
1
  6
solid
 62
     0
100
AcDbLine
 10
5.044884020953126
 20
-0.3510251732781777
 30
0.0
 11
5.044884020953126
 21
-0.38708286558587
 31
0.0
  0
LINE
  5
245
330
A
100
AcDbEntity
  8
1
  6
solid
 62
     0
100
AcDbLine
 10
5.044884020953126
 20
-0.38708286558587
 30
0.0
 11
5.051256569972734
 21
-0.38708286558587
 31
0.0
  0
LINE
  5
246
330
A
100
AcDbEntity
  8
1
  6
solid
 62
     0
100
AcDbLine
 10
5.051256569972734
 20
-0.38708286558587
 30
0.0
 11
5.051256569972734
 21
-0.4255444040474085
 31
0.0
  0
LINE
  5
247
330
A
100
AcDbEntity
  8
1
  6
solid
 62
     0
100
AcDbLine
 10
5.051256569972734
 20
-0.4255444040474085
 30
0.0
 11
5.076256569972734
 21
-0.4255444040474085
 31
0.0
  0
LINE
  5
248
330
A
100
AcDbEntity
  8
1
  6
solid
 62
     0
100
AcDbLine
 10
5.076256569972734
 20
-0.4255444040474085
 30
0.0
 11
5.076256569972734
 21
-0.38708286558587
 31
0.0
  0
LINE
  5
249
330
A
100
AcDbEntity
  8
1
  6
solid
 62
     0
100
AcDbLine
 10
5.076256569972734
 20
-0.38708286558587
 30
0.0
 11
5.082629118992342
 21
-0.38708286558587
 31
0.0
  0
LINE
  5
24A
330
A
100
AcDbEntity
  8
1
  6
solid
 62
     0
100
AcDbLine
 10
5.082629118992342
 20
-0.38708286558587
 30
0.0
 11
5.082629118992342
 21
-0.3510251732781777
 31
0.0
  0
LINE
  5
24B
330
A
100
AcDbEntity
  8
1
  6
solid
 62
     0
100
AcDbLine
 10
5.082629118992342
 20
-0.3510251732781777
 30
0.0
 11
5.044884020953126
 21
-0.3510251732781777
 31
0.0
  0
LINE
  5
2BE
330
A
100
AcDbEntity
  8
1
  6
solid
 62
     0
370
     0
100
AcDbLine
 10
8.405354499816894
 20
0.0
 30
0.0
 11
8.845150434346139
 21
0.0
 31
0.0
  0
LINE
  5
2BF
330
A
100
AcDbEntity
  8
1
  6
solid
 62
     0
370
     0
100
AcDbLine
 10
8.405354499816894
 20
2.625
 30
0.0
 11
8.845150434346143
 21
2.625
 31
0.0
  0
LINE
  5
2C0
330
A
100
AcDbEntity
  8
1
  6
solid
 62
     0
370
     0
100
AcDbLine
 10
8.720150434346139
 20
0.0
 30
0.0
 11
8.720150434346141
 21
1.052687499999999
 31
0.0
  0
LINE
  5
2C1
330
A
100
AcDbEntity
  8
1
  6
solid
 62
     0
370
     0
100
AcDbLine
 10
8.720150434346143
 20
2.625
 30
0.0
 11
8.720150434346141
 21
1.572312500000001
 31
0.0
  0
MTEXT
  5
2C2
330
A
100
AcDbEntity
  8
1
  6
solid
 62
     0
370
     0
100
AcDbMText
 10
8.960914383485604
 20
1.33253517734499
 30
0.0
 40
0.25
 41
0.0
 71
     5
 72
     1
  1
{\H0.250000;2 5/8}
 73
     1
 44
1.0
  0
SOLID
  5
2C3
330
A
100
AcDbEntity
  8
1
  6
solid
 62
     0
370
     0
100
AcDbTrace
 10
8.678525434346139
 20
0.25
 30
0.0
 11
8.761775434346139
 21
0.25
 31
0.0
 12
8.720150434346139
 22
0.0
 32
0.0
 13
8.720150434346139
 23
0.0
 33
0.0
  0
SOLID
  5
2C4
330
A
100
AcDbEntity
  8
1
  6
solid
 62
     0
370
     0
100
AcDbTrace
 10
8.761775434346141
 20
2.375
 30
0.0
 11
8.678525434346141
 21
2.375
 31
0.0
 12
8.720150434346143
 22
2.625
 32
0.0
 13
8.720150434346143
 23
2.625
 33
0.0
  0
VIEWPORT
  5
2AA
102
{ACAD_XDICTIONARY
360
2AB
102
}
330
B
100
AcDbEntity
 67
     1
  8
0
  6
Continuous
370
     0
100
AcDbViewport
 10
5.171905305196538
 20
3.9681931355475
 30
0.0
 40
16.99659283974028
 41
8.992999745766949
 68
     1
 69
     1
 12
5.171905305196538
 22
3.9681931355475
 13
0.0
 23
0.0
 14
0.5
 24
0.5
 15
0.5
 25
0.5
 16
0.0
 26
0.0
 36
1.0
 17
0.0
 27
0.0
 37
0.0
 42
50.0
 43
0.0
 44
0.0
 45
8.992999745766949
 50
0.0
 51
0.0
 72
   100
 90
   819232
  1

281
     0
 71
     1
 74
     0
110
0.0
120
0.0
130
0.0
111
1.0
121
0.0
131
0.0
112
0.0
122
1.0
132
0.0
 79
     0
146
0.0
170
     0
  0
VIEWPORT
  5
2AF
102
{ACAD_XDICTIONARY
360
2B0
102
}
330
B
100
AcDbEntity
 67
     1
  8
0
  6
Continuous
370
     0
100
AcDbViewport
 10
5.136606060739744
 20
3.977009789065464
 30
0.0
 40
10.44858048846258
 41
8.0760664544777
 68
     2
 69
     2
 12
4.611580969614541
 22
1.022341504562596
 13
0.0
 23
0.0
 14
1.0
 24
1.0
 15
0.0
 25
0.0
 16
0.0
 26
0.0
 36
1.0
 17
0.0
 27
0.0
 37
0.0
 42
50.0
 43
0.0
 44
0.0
 45
9.196233010596253
 50
0.0
 51
0.0
 72
   100
 90
   819232
  1

281
     0
 71
     1
 74
     0
110
0.0
120
0.0
130
0.0
111
1.0
121
0.0
131
0.0
112
0.0
122
1.0
132
0.0
 79
     0
146
0.0
170
     0
  0
ENDSEC
  0
SECTION
  2
OBJECTS
  0
DICTIONARY
  5
19
330
0
100
AcDbDictionary
281
     1
  3
ACAD_COLOR
350
24E
  3
ACAD_GROUP
350
1A
  3
ACAD_LAYOUT
350
1E
  3
ACAD_MATERIAL
350
24D
  3
ACAD_MLEADERSTYLE
350
2A2
  3
ACAD_MLINESTYLE
350
1B
  3
ACAD_PLOTSETTINGS
350
22
  3
ACAD_PLOTSTYLENAME
350
1F
  3
ACAD_SCALELIST
350
280
  3
ACAD_TABLESTYLE
350
24F
  3
ACAD_VISUALSTYLE
350
26F
  3
ACAD_WIPEOUT_VARS
350
23
  3
ACDB_RECOMPOSE_DATA
350
2D8
  3
AcDbVariableDictionary
350
254
  0
DICTIONARY
  5
2B2
330
14
100
AcDbDictionary
280
     1
281
     1
  3
ADSK_XREC_LAYER_RECONCILED
360
2B3
  0
DICTIONARY
  5
2B4
330
27
100
AcDbDictionary
280
     1
281
     1
  3
ADSK_XREC_LAYER_RECONCILED
360
2B5
  0
DICTIONARY
  5
2C5
330
A
100
AcDbDictionary
280
     1
281
     1
  3
ACAD_SORTENTS
360
2C6
  0
DICTIONARY
  5
2AB
330
2AA
100
AcDbDictionary
280
     1
281
     1
  3
ASDK_XREC_ANNOTATION_SCALE_INFO
360
2AC
  0
DICTIONARY
  5
2B0
330
2AF
100
AcDbDictionary
280
     1
281
     1
  3
ASDK_XREC_ANNOTATION_SCALE_INFO
360
2B1
  0
DICTIONARY
  5
24E
102
{ACAD_REACTORS
330
19
102
}
330
19
100
AcDbDictionary
281
     1
  0
DICTIONARY
  5
1A
102
{ACAD_REACTORS
330
19
102
}
330
19
100
AcDbDictionary
281
     1
  0
DICTIONARY
  5
1E
102
{ACAD_REACTORS
330
19
102
}
330
19
100
AcDbDictionary
281
     1
  3
Layout1
350
21
  3
Model
350
20
  0
DICTIONARY
  5
24D
102
{ACAD_REACTORS
330
19
102
}
330
19
100
AcDbDictionary
281
     1
  3
ByBlock
350
25F
  3
ByLayer
350
257
  3
Global
350
267
  0
DICTIONARY
  5
2A2
102
{ACAD_REACTORS
330
19
102
}
330
19
100
AcDbDictionary
281
     1
  3
Standard
350
2A3
  0
DICTIONARY
  5
1B
102
{ACAD_REACTORS
330
19
102
}
330
19
100
AcDbDictionary
281
     1
  3
Standard
350
1C
  0
DICTIONARY
  5
22
102
{ACAD_REACTORS
330
19
102
}
330
19
100
AcDbDictionary
281
     1
  0
ACDBDICTIONARYWDFLT
  5
1F
102
{ACAD_REACTORS
330
19
102
}
330
19
100
AcDbDictionary
281
     1
  3
Normal
350
1D
100
AcDbDictionaryWithDefault
340
1D
  0
DICTIONARY
  5
280
102
{ACAD_REACTORS
330
19
102
}
330
19
100
AcDbDictionary
281
     1
  3
A0
350
281
  3
A1
350
282
  3
A2
350
283
  3
A3
350
284
  3
A4
350
285
  3
A5
350
286
  3
A6
350
287
  3
A7
350
288
  3
A8
350
289
  3
A9
350
28A
  3
B0
350
28B
  3
B1
350
28C
  3
B2
350
28D
  3
B3
350
28E
  3
B4
350
28F
  3
B5
350
290
  3
B6
350
291
  3
B7
350
292
  3
B8
350
293
  3
B9
350
294
  3
C0
350
295
  3
C1
350
296
  3
C2
350
297
  3
C3
350
298
  3
C4
350
299
  3
C5
350
29A
  3
C6
350
29B
  3
C7
350
29C
  3
C8
350
29D
  3
C9
350
29E
  3
D0
350
29F
  3
D1
350
2A0
  3
D2
350
2A1
  0
DICTIONARY
  5
24F
102
{ACAD_REACTORS
330
19
102
}
330
19
100
AcDbDictionary
281
     1
  3
Standard
350
250
  0
DICTIONARY
  5
26F
102
{ACAD_REACTORS
330
19
102
}
330
19
100
AcDbDictionary
281
     1
  3
2dWireframe
350
275
  3
3D Hidden
350
277
  3
3dWireframe
350
276
  3
Basic
350
274
  3
Brighten
350
27B
  3
ColorChange
350
27F
  3
Conceptual
350
278
  3
Dim
350
27A
  3
Facepattern
350
27E
  3
Flat
350
270
  3
FlatWithEdges
350
271
  3
Gouraud
350
272
  3
GouraudWithEdges
350
273
  3
Linepattern
350
27D
  3
Realistic
350
279
  3
Thicken
350
27C
  0
WIPEOUTVARIABLES
  5
23
330
19
100
AcDbWipeoutVariables
 70
     1
  0
XRECORD
  5
2D8
102
{ACAD_REACTORS
330
19
102
}
330
19
100
AcDbXrecord
280
     1
 90
        1
330
250
  0
DICTIONARY
  5
254
102
{ACAD_REACTORS
330
19
102
}
330
19
100
AcDbDictionary
281
     1
  3
CANNOSCALE
350
2D5
  3
CMLEADERSTYLE
350
2D4
  3
CTABLESTYLE
350
255
  0
XRECORD
  5
2B3
102
{ACAD_REACTORS
330
2B2
102
}
330
2B2
100
AcDbXrecord
280
     1
290
     1
  0
XRECORD
  5
2B5
102
{ACAD_REACTORS
330
2B4
102
}
330
2B4
100
AcDbXrecord
280
     1
290
     1
  0
SORTENTSTABLE
  5
2C6
102
{ACAD_REACTORS
330
2C5
102
}
330
2C5
100
AcDbSortentsTable
330
A
331
200
  5
207
331
222
  5
229
331
111
  5
118
331
244
  5
24B
331
133
  5
13A
331
43
  5
4A
331
16F
  5
176
331
155
  5
15C
331
191
  5
198
331
1B3
  5
1BA
331
A2
  5
A9
331
1D5
  5
1DC
331
C4
  5
CB
331
1EF
  5
1F6
331
211
  5
218
331
100
  5
107
331
233
  5
23A
331
144
  5
14B
331
54
  5
5B
331
122
  5
129
331
E6
  5
ED
331
80
  5
87
331
180
  5
187
331
166
  5
16D
331
1A2
  5
1A9
331
91
  5
98
331
1C4
  5
1CB
331
D5
  5
DC
331
B3
  5
BA
331
76
  5
7D
331
65
  5
6C
331
220
  5
227
331
242
  5
249
331
131
  5
138
331
41
  5
48
331
16D
  5
174
331
153
  5
15A
331
18F
  5
196
331
1B1
  5
1B8
331
A0
  5
A7
331
1D3
  5
1DA
331
C2
  5
C9
331
1ED
  5
1F4
331
20F
  5
216
331
FE
  5
105
331
231
  5
238
331
142
  5
149
331
52
  5
59
331
120
  5
127
331
E4
  5
EB
331
7E
  5
85
331
17E
  5
185
331
164
  5
16B
331
1A0
  5
1A7
331
8F
  5
96
331
1C2
  5
1C9
331
1FE
  5
205
331
D3
  5
DA
331
10F
  5
116
331
B1
  5
B8
331
74
  5
7B
331
63
  5
6A
331
240
  5
247
331
16B
  5
172
331
151
  5
158
331
61
  5
68
331
18D
  5
194
331
1AF
  5
1B6
331
9E
  5
A5
331
1D1
  5
1D8
331
C0
  5
C7
331
1EB
  5
1F2
331
20D
  5
214
331
FC
  5
103
331
2C4
  5
40
331
E2
  5
E9
331
7C
  5
83
331
22F
  5
236
331
11E
  5
125
331
140
  5
147
331
50
  5
57
331
17C
  5
183
331
162
  5
169
331
19E
  5
1A5
331
8D
  5
94
331
1C0
  5
1C7
331
1FC
  5
203
331
D1
  5
D8
331
21E
  5
225
331
12F
  5
136
331
3F
  5
46
331
10D
  5
114
331
AF
  5
B6
331
72
  5
79
331
2E
  5
2E
331
169
  5
170
331
18B
  5
192
331
7A
  5
81
331
1AD
  5
1B4
331
1CF
  5
1D6
331
BE
  5
C5
331
1E9
  5
1F0
331
20B
  5
212
331
FA
  5
101
331
2C2
  5
3E
331
E0
  5
E7
331
9C
  5
A3
331
22D
  5
234
331
11C
  5
123
331
13E
  5
145
331
4E
  5
55
331
17A
  5
181
331
160
  5
167
331
19C
  5
1A3
331
8B
  5
92
331
1BE
  5
1C5
331
1FA
  5
201
331
CF
  5
D6
331
21C
  5
223
331
23E
  5
245
331
12D
  5
134
331
3D
  5
44
331
10B
  5
112
331
AD
  5
B4
331
70
  5
77
331
14F
  5
156
331
5F
  5
66
331
2C
  5
2C
331
189
  5
190
331
78
  5
7F
331
1AB
  5
1B2
331
9A
  5
A1
331
1CD
  5
1D4
331
1E7
  5
1EE
331
DE
  5
E5
331
209
  5
210
331
F8
  5
FF
331
2C0
  5
3C
331
BC
  5
C3
331
22B
  5
232
331
11A
  5
121
331
13C
  5
143
331
4C
  5
53
331
178
  5
17F
331
15E
  5
165
331
19A
  5
1A1
331
89
  5
90
331
1BC
  5
1C3
331
1DE
  5
1E5
331
CD
  5
D4
331
1F8
  5
1FF
331
21A
  5
221
331
109
  5
110
331
23C
  5
243
331
12B
  5
132
331
3B
  5
42
331
EF
  5
F6
331
AB
  5
B2
331
6E
  5
75
331
14D
  5
154
331
5D
  5
64
331
2A
  5
2A
331
1A9
  5
1B0
331
98
  5
9F
331
1CB
  5
1D2
331
BA
  5
C1
331
1E5
  5
1EC
331
207
  5
20E
331
F6
  5
FD
331
2BE
  5
3A
331
DC
  5
E3
331
229
  5
230
331
118
  5
11F
331
24B
  5
2C4
331
13A
  5
141
331
4A
  5
51
331
176
  5
17D
331
15C
  5
163
331
198
  5
19F
331
1BA
  5
1C1
331
A9
  5
B0
331
1DC
  5
1E3
331
CB
  5
D2
331
1F6
  5
1FD
331
218
  5
21F
331
107
  5
10E
331
ED
  5
F4
331
87
  5
8E
331
6C
  5
73
331
23A
  5
241
331
129
  5
130
331
187
  5
18E
331
14B
  5
152
331
5B
  5
62
331
28
  5
28
331
1C9
  5
1D0
331
B8
  5
BF
331
1E3
  5
1EA
331
DA
  5
E1
331
205
  5
20C
331
227
  5
22E
331
116
  5
11D
331
249
  5
2C2
331
138
  5
13F
331
48
  5
4F
331
F4
  5
FB
331
174
  5
17B
331
15A
  5
161
331
196
  5
19D
331
1B8
  5
1BF
331
A7
  5
AE
331
1DA
  5
1E1
331
C9
  5
D0
331
1F4
  5
1FB
331
216
  5
21D
331
105
  5
10C
331
238
  5
23F
331
185
  5
18C
331
149
  5
150
331
59
  5
60
331
127
  5
12E
331
EB
  5
F2
331
85
  5
8C
331
1A7
  5
1AE
331
96
  5
9D
331
6A
  5
71
331
1E1
  5
1E8
331
D8
  5
DF
331
203
  5
20A
331
F2
  5
F9
331
225
  5
22C
331
247
  5
2C0
331
136
  5
13D
331
46
  5
4D
331
114
  5
11B
331
172
  5
179
331
158
  5
15F
331
194
  5
19B
331
1B6
  5
1BD
331
A5
  5
AC
331
1D8
  5
1DF
331
C7
  5
CE
331
1F2
  5
1F9
331
214
  5
21B
331
103
  5
10A
331
236
  5
23D
331
183
  5
18A
331
147
  5
14E
331
57
  5
5E
331
125
  5
12C
331
E9
  5
F0
331
83
  5
8A
331
1A5
  5
1AC
331
1C7
  5
1CE
331
B6
  5
BD
331
94
  5
9B
331
68
  5
6F
331
201
  5
208
331
F0
  5
F7
331
223
  5
22A
331
112
  5
119
331
245
  5
2BE
331
134
  5
13B
331
44
  5
4B
331
170
  5
177
331
156
  5
15D
331
192
  5
199
331
1B4
  5
1BB
331
A3
  5
AA
331
1D6
  5
1DD
331
C5
  5
CC
331
1F0
  5
1F7
331
212
  5
219
331
101
  5
108
331
234
  5
23B
331
145
  5
14C
331
55
  5
5C
331
123
  5
12A
331
E7
  5
EE
331
81
  5
88
331
181
  5
188
331
167
  5
16E
331
1A3
  5
1AA
331
92
  5
99
331
1C5
  5
1CC
331
D6
  5
DD
331
B4
  5
BB
331
77
  5
7E
331
66
  5
6D
331
221
  5
228
331
110
  5
117
331
243
  5
24A
331
132
  5
139
331
42
  5
49
331
16E
  5
175
331
154
  5
15B
331
190
  5
197
331
1B2
  5
1B9
331
A1
  5
A8
331
1D4
  5
1DB
331
C3
  5
CA
331
1EE
  5
1F5
331
210
  5
217
331
FF
  5
106
331
232
  5
239
331
143
  5
14A
331
53
  5
5A
331
121
  5
128
331
E5
  5
EC
331
7F
  5
86
331
17F
  5
186
331
165
  5
16C
331
1A1
  5
1A8
331
90
  5
97
331
1C3
  5
1CA
331
1FF
  5
206
331
D4
  5
DB
331
B2
  5
B9
331
75
  5
7C
331
64
  5
6B
331
241
  5
248
331
130
  5
137
331
40
  5
47
331
16C
  5
173
331
152
  5
159
331
62
  5
69
331
18E
  5
195
331
1B0
  5
1B7
331
9F
  5
A6
331
1D2
  5
1D9
331
C1
  5
C8
331
1EC
  5
1F3
331
20E
  5
215
331
FD
  5
104
331
230
  5
237
331
141
  5
148
331
51
  5
58
331
11F
  5
126
331
E3
  5
EA
331
7D
  5
84
331
17D
  5
184
331
163
  5
16A
331
19F
  5
1A6
331
8E
  5
95
331
1C1
  5
1C8
331
1FD
  5
204
331
D2
  5
D9
331
21F
  5
226
331
10E
  5
115
331
B0
  5
B7
331
73
  5
7A
331
16A
  5
171
331
150
  5
157
331
60
  5
67
331
18C
  5
193
331
7B
  5
82
331
1AE
  5
1B5
331
1D0
  5
1D7
331
BF
  5
C6
331
1EA
  5
1F1
331
20C
  5
213
331
FB
  5
102
331
2C3
  5
3F
331
E1
  5
E8
331
9D
  5
A4
331
22E
  5
235
331
11D
  5
124
331
13F
  5
146
331
4F
  5
56
331
17B
  5
182
331
161
  5
168
331
19D
  5
1A4
331
8C
  5
93
331
1BF
  5
1C6
331
1FB
  5
202
331
D0
  5
D7
331
21D
  5
224
331
23F
  5
246
331
12E
  5
135
331
3E
  5
45
331
10C
  5
113
331
AE
  5
B5
331
71
  5
78
331
2D
  5
2D
331
168
  5
16F
331
18A
  5
191
331
79
  5
80
331
1AC
  5
1B3
331
1CE
  5
1D5
331
BD
  5
C4
331
1E8
  5
1EF
331
20A
  5
211
331
F9
  5
100
331
2C1
  5
3D
331
DF
  5
E6
331
9B
  5
A2
331
22C
  5
233
331
11B
  5
122
331
13D
  5
144
331
4D
  5
54
331
179
  5
180
331
15F
  5
166
331
19B
  5
1A2
331
8A
  5
91
331
1BD
  5
1C4
331
1F9
  5
200
331
1DF
  5
1E6
331
CE
  5
D5
331
21B
  5
222
331
23D
  5
244
331
12C
  5
133
331
3C
  5
43
331
10A
  5
111
331
AC
  5
B3
331
6F
  5
76
331
14E
  5
155
331
5E
  5
65
331
2B
  5
2B
331
188
  5
18F
331
1AA
  5
1B1
331
99
  5
A0
331
1CC
  5
1D3
331
1E6
  5
1ED
331
DD
  5
E4
331
208
  5
20F
331
F7
  5
FE
331
2BF
  5
3B
331
BB
  5
C2
331
22A
  5
231
331
119
  5
120
331
13B
  5
142
331
4B
  5
52
331
177
  5
17E
331
15D
  5
164
331
199
  5
1A0
331
88
  5
8F
331
1BB
  5
1C2
331
1DD
  5
1E4
331
CC
  5
D3
331
1F7
  5
1FE
331
219
  5
220
331
108
  5
10F
331
23B
  5
242
331
12A
  5
131
331
3A
  5
41
331
EE
  5
F5
331
AA
  5
B1
331
6D
  5
74
331
14C
  5
153
331
5C
  5
63
331
29
  5
29
331
1A8
  5
1AF
331
1CA
  5
1D1
331
B9
  5
C0
331
1E4
  5
1EB
331
206
  5
20D
331
F5
  5
FC
331
228
  5
22F
331
24A
  5
2C3
331
139
  5
140
331
49
  5
50
331
117
  5
11E
331
DB
  5
E2
331
175
  5
17C
331
15B
  5
162
331
197
  5
19E
331
1B9
  5
1C0
331
A8
  5
AF
331
1DB
  5
1E2
331
CA
  5
D1
331
1F5
  5
1FC
331
217
  5
21E
331
106
  5
10D
331
239
  5
240
331
186
  5
18D
331
14A
  5
151
331
5A
  5
61
331
128
  5
12F
331
EC
  5
F3
331
86
  5
8D
331
97
  5
9E
331
6B
  5
72
331
1C8
  5
1CF
331
1E2
  5
1E9
331
D9
  5
E0
331
204
  5
20B
331
226
  5
22D
331
115
  5
11C
331
248
  5
2C1
331
137
  5
13E
331
47
  5
4E
331
F3
  5
FA
331
173
  5
17A
331
159
  5
160
331
195
  5
19C
331
1B7
  5
1BE
331
A6
  5
AD
331
1D9
  5
1E0
331
C8
  5
CF
331
1F3
  5
1FA
331
215
  5
21C
331
104
  5
10B
331
237
  5
23E
331
184
  5
18B
331
148
  5
14F
331
58
  5
5F
331
126
  5
12D
331
EA
  5
F1
331
84
  5
8B
331
1A6
  5
1AD
331
B7
  5
BE
331
95
  5
9C
331
69
  5
70
331
1E0
  5
1E7
331
202
  5
209
331
F1
  5
F8
331
224
  5
22B
331
246
  5
2BF
331
135
  5
13C
331
45
  5
4C
331
113
  5
11A
331
171
  5
178
331
157
  5
15E
331
193
  5
19A
331
1B5
  5
1BC
331
A4
  5
AB
331
1D7
  5
1DE
331
C6
  5
CD
331
1F1
  5
1F8
331
213
  5
21A
331
102
  5
109
331
235
  5
23C
331
182
  5
189
331
146
  5
14D
331
56
  5
5D
331
124
  5
12B
331
E8
  5
EF
331
82
  5
89
331
1A4
  5
1AB
331
1C6
  5
1CD
331
B5
  5
BC
331
D7
  5
DE
331
93
  5
9A
331
67
  5
6E
  0
XRECORD
  5
2AC
102
{ACAD_REACTORS
330
2AB
102
}
330
2AB
100
AcDbXrecord
280
     1
 90
        1
340
281
  0
XRECORD
  5
2B1
102
{ACAD_REACTORS
330
2B0
102
}
330
2B0
100
AcDbXrecord
280
     1
 90
        1
340
281
  0
LAYOUT
  5
21
102
{ACAD_REACTORS
330
1E
102
}
330
1E
100
AcDbPlotSettings
  1

  2
Foxit PDF Printer
  4
Letter
  6

 40
3.174999952316284
 41
3.174999952316284
 42
3.17498779296875
 43
3.175003051757812
 44
279.3999938964844
 45
215.8999938964844
 46
31.4267670466818
 47
24.13747564896765
 48
0.0
 49
0.0
140
0.0
141
0.0
142
1.0
143
1.0
 70
     4
 72
     0
 73
     0
 74
     1
  7

 75
    16
147
1.0
 76
     1
 77
     2
 78
   300
148
-26.26816480274797
149
-20.15458429594825
100
AcDbLayout
  1
Layout1
 70
     0
 71
     1
 10
-0.3280945746555161
 20
-0.2818067443045545
 11
10.67190518504859
 21
8.218193015399554
 12
0.0
 22
0.0
 32
0.0
 14
-0.0876841834915467
 24
-0.0610234381733861
 34
-0.0015258207003583
 15
10.36089630497103
 25
8.015043016304314
 35
0.0000000349246037
146
0.0
 13
0.0
 23
0.0
 33
0.0
 16
1.0
 26
0.0
 36
0.0
 17
0.0
 27
1.0
 37
0.0
 76
     0
330
B
331
2AA
1001
ACAD_PSEXT
1000
Foxit PDF Printer
1000
Foxit PDF Printer Driver
1000
FOXIT_PDF
1000

1070
     0
  0
LAYOUT
  5
20
102
{ACAD_REACTORS
330
1E
102
}
330
1E
100
AcDbPlotSettings
  1

  2

  4

  6

 40
0.0
 41
0.0
 42
0.0
 43
0.0
 44
0.0
 45
0.0
 46
0.0
 47
0.0
 48
0.0
 49
0.0
140
0.0
141
0.0
142
1.0
143
1.0
 70
  1024
 72
     0
 73
     0
 74
     0
  7

 75
     0
147
1.0
 76
     0
 77
     2
 78
   300
148
0.0
149
0.0
100
AcDbLayout
  1
Model
 70
     0
 71
     0
 10
0.0
 20
0.0
 11
0.0
 21
0.0
 12
0.0
 22
0.0
 32
0.0
 14
0.0
 24
0.0
 34
0.0
 15
0.0
 25
0.0
 35
0.0
146
0.0
 13
0.0
 23
0.0
 33
0.0
 16
0.0
 26
0.0
 36
0.0
 17
0.0
 27
0.0
 37
0.0
 76
     0
330
A
  0
MATERIAL
  5
25F
102
{ACAD_XDICTIONARY
360
260
102
}
102
{ACAD_REACTORS
330
24D
102
}
330
24D
100
AcDbMaterial
  1
ByBlock
 72
     0
 43
0.0208333333333333
 43
0.0
 43
0.0
 43
0.0
 43
0.0
 43
0.0208333333333333
 43
0.0
 43
0.0
 43
0.0
 43
0.0
 43
1.0
 43
0.0
 43
0.0
 43
0.0
 43
0.0
 43
1.0
 77
     0
 47
0.0208333333333333
 47
0.0
 47
0.0
 47
0.0
 47
0.0
 47
0.0208333333333333
 47
0.0
 47
0.0
 47
0.0
 47
0.0
 47
1.0
 47
0.0
 47
0.0
 47
0.0
 47
0.0
 47
1.0
171
     0
 49
0.0208333333333333
 49
0.0
 49
0.0
 49
0.0
 49
0.0
 49
0.0208333333333333
 49
0.0
 49
0.0
 49
0.0
 49
0.0
 49
1.0
 49
0.0
 49
0.0
 49
0.0
 49
0.0
 49
1.0
175
     0
142
0.0208333333333333
142
0.0
142
0.0
142
0.0
142
0.0
142
0.0208333333333333
142
0.0
142
0.0
142
0.0
142
0.0
142
1.0
142
0.0
142
0.0
142
0.0
142
0.0
142
1.0
179
     0
144
0.0208333333333333
144
0.0
144
0.0
144
0.0
144
0.0
144
0.0208333333333333
144
0.0
144
0.0
144
0.0
144
0.0
144
1.0
144
0.0
144
0.0
144
0.0
144
0.0
144
1.0
147
0.0208333333333333
147
0.0
147
0.0
147
0.0
147
0.0
147
0.0208333333333333
147
0.0
147
0.0
147
0.0
147
0.0
147
1.0
147
0.0
147
0.0
147
0.0
147
0.0
147
1.0
  0
MATERIAL
  5
257
102
{ACAD_XDICTIONARY
360
258
102
}
102
{ACAD_REACTORS
330
24D
102
}
330
24D
100
AcDbMaterial
  1
ByLayer
 72
     0
 43
0.0208333333333333
 43
0.0
 43
0.0
 43
0.0
 43
0.0
 43
0.0208333333333333
 43
0.0
 43
0.0
 43
0.0
 43
0.0
 43
1.0
 43
0.0
 43
0.0
 43
0.0
 43
0.0
 43
1.0
 77
     0
 47
0.0208333333333333
 47
0.0
 47
0.0
 47
0.0
 47
0.0
 47
0.0208333333333333
 47
0.0
 47
0.0
 47
0.0
 47
0.0
 47
1.0
 47
0.0
 47
0.0
 47
0.0
 47
0.0
 47
1.0
171
     0
 49
0.0208333333333333
 49
0.0
 49
0.0
 49
0.0
 49
0.0
 49
0.0208333333333333
 49
0.0
 49
0.0
 49
0.0
 49
0.0
 49
1.0
 49
0.0
 49
0.0
 49
0.0
 49
0.0
 49
1.0
175
     0
142
0.0208333333333333
142
0.0
142
0.0
142
0.0
142
0.0
142
0.0208333333333333
142
0.0
142
0.0
142
0.0
142
0.0
142
1.0
142
0.0
142
0.0
142
0.0
142
0.0
142
1.0
179
     0
144
0.0208333333333333
144
0.0
144
0.0
144
0.0
144
0.0
144
0.0208333333333333
144
0.0
144
0.0
144
0.0
144
0.0
144
1.0
144
0.0
144
0.0
144
0.0
144
0.0
144
1.0
147
0.0208333333333333
147
0.0
147
0.0
147
0.0
147
0.0
147
0.0208333333333333
147
0.0
147
0.0
147
0.0
147
0.0
147
1.0
147
0.0
147
0.0
147
0.0
147
0.0
147
1.0
  0
MATERIAL
  5
267
102
{ACAD_XDICTIONARY
360
268
102
}
102
{ACAD_REACTORS
330
24D
102
}
330
24D
100
AcDbMaterial
  1
Global
 72
     0
 43
0.0208333333333333
 43
0.0
 43
0.0
 43
0.0
 43
0.0
 43
0.0208333333333333
 43
0.0
 43
0.0
 43
0.0
 43
0.0
 43
1.0
 43
0.0
 43
0.0
 43
0.0
 43
0.0
 43
1.0
 77
     0
 47
0.0208333333333333
 47
0.0
 47
0.0
 47
0.0
 47
0.0
 47
0.0208333333333333
 47
0.0
 47
0.0
 47
0.0
 47
0.0
 47
1.0
 47
0.0
 47
0.0
 47
0.0
 47
0.0
 47
1.0
171
     0
 49
0.0208333333333333
 49
0.0
 49
0.0
 49
0.0
 49
0.0
 49
0.0208333333333333
 49
0.0
 49
0.0
 49
0.0
 49
0.0
 49
1.0
 49
0.0
 49
0.0
 49
0.0
 49
0.0
 49
1.0
175
     0
142
0.0208333333333333
142
0.0
142
0.0
142
0.0
142
0.0
142
0.0208333333333333
142
0.0
142
0.0
142
0.0
142
0.0
142
1.0
142
0.0
142
0.0
142
0.0
142
0.0
142
1.0
179
     0
144
0.0208333333333333
144
0.0
144
0.0
144
0.0
144
0.0
144
0.0208333333333333
144
0.0
144
0.0
144
0.0
144
0.0
144
1.0
144
0.0
144
0.0
144
0.0
144
0.0
144
1.0
147
0.0208333333333333
147
0.0
147
0.0
147
0.0
147
0.0
147
0.0208333333333333
147
0.0
147
0.0
147
0.0
147
0.0
147
1.0
147
0.0
147
0.0
147
0.0
147
0.0
147
1.0
  0
MLEADERSTYLE
  5
2A3
102
{ACAD_REACTORS
330
2A2
102
}
330
2A2
100
AcDbMLeaderStyle
170
     2
171
     1
172
     0
 90
        2
 40
0.0
 41
0.0
173
     1
 91
-1056964608
340
11
 92
       -2
290
     1
 42
0.09
291
     1
 43
0.36
  3
Standard
 44
0.18
300

342
17
174
     1
178
     6
175
     1
176
     0
 93
-1056964608
 45
0.18
292
     0
297
     0
 46
0.18
 94
-1056964608
 47
1.0
 49
1.0
140
1.0
293
     1
141
0.0
294
     1
177
     0
142
1.0
295
     0
296
     0
143
0.125
1001
ACAD_MLEADERVER
1070
     2
  0
MLINESTYLE
  5
1C
102
{ACAD_REACTORS
330
1B
102
}
330
1B
100
AcDbMlineStyle
  2
STANDARD
 70
     0
  3

 62
     0
 51
90.0
 52
90.0
 71
     2
 49
0.5
 62
   256
  6
BYLAYER
 49
-0.5
 62
   256
  6
BYLAYER
  0
ACDBPLACEHOLDER
  5
1D
102
{ACAD_REACTORS
330
1F
102
}
330
1F
  0
SCALE
  5
281
102
{ACAD_REACTORS
330
280
102
}
330
280
100
AcDbScale
 70
     0
300
1:1
140
1.0
141
1.0
290
     1
  0
SCALE
  5
282
102
{ACAD_REACTORS
330
280
102
}
330
280
100
AcDbScale
 70
     0
300
1:2
140
1.0
141
2.0
290
     0
  0
SCALE
  5
283
102
{ACAD_REACTORS
330
280
102
}
330
280
100
AcDbScale
 70
     0
300
1:4
140
1.0
141
4.0
290
     0
  0
SCALE
  5
284
102
{ACAD_REACTORS
330
280
102
}
330
280
100
AcDbScale
 70
     0
300
1:5
140
1.0
141
5.0
290
     0
  0
SCALE
  5
285
102
{ACAD_REACTORS
330
280
102
}
330
280
100
AcDbScale
 70
     0
300
1:8
140
1.0
141
8.0
290
     0
  0
SCALE
  5
286
102
{ACAD_REACTORS
330
280
102
}
330
280
100
AcDbScale
 70
     0
300
1:10
140
1.0
141
10.0
290
     0
  0
SCALE
  5
287
102
{ACAD_REACTORS
330
280
102
}
330
280
100
AcDbScale
 70
     0
300
1:16
140
1.0
141
16.0
290
     0
  0
SCALE
  5
288
102
{ACAD_REACTORS
330
280
102
}
330
280
100
AcDbScale
 70
     0
300
1:20
140
1.0
141
20.0
290
     0
  0
SCALE
  5
289
102
{ACAD_REACTORS
330
280
102
}
330
280
100
AcDbScale
 70
     0
300
1:30
140
1.0
141
30.0
290
     0
  0
SCALE
  5
28A
102
{ACAD_REACTORS
330
280
102
}
330
280
100
AcDbScale
 70
     0
300
1:40
140
1.0
141
40.0
290
     0
  0
SCALE
  5
28B
102
{ACAD_REACTORS
330
280
102
}
330
280
100
AcDbScale
 70
     0
300
1:50
140
1.0
141
50.0
290
     0
  0
SCALE
  5
28C
102
{ACAD_REACTORS
330
280
102
}
330
280
100
AcDbScale
 70
     0
300
1:100
140
1.0
141
100.0
290
     0
  0
SCALE
  5
28D
102
{ACAD_REACTORS
330
280
102
}
330
280
100
AcDbScale
 70
     0
300
2:1
140
2.0
141
1.0
290
     0
  0
SCALE
  5
28E
102
{ACAD_REACTORS
330
280
102
}
330
280
100
AcDbScale
 70
     0
300
4:1
140
4.0
141
1.0
290
     0
  0
SCALE
  5
28F
102
{ACAD_REACTORS
330
280
102
}
330
280
100
AcDbScale
 70
     0
300
8:1
140
8.0
141
1.0
290
     0
  0
SCALE
  5
290
102
{ACAD_REACTORS
330
280
102
}
330
280
100
AcDbScale
 70
     0
300
10:1
140
10.0
141
1.0
290
     0
  0
SCALE
  5
291
102
{ACAD_REACTORS
330
280
102
}
330
280
100
AcDbScale
 70
     0
300
100:1
140
100.0
141
1.0
290
     0
  0
SCALE
  5
292
102
{ACAD_REACTORS
330
280
102
}
330
280
100
AcDbScale
 70
     0
300
1/128" = 1'-0"
140
0.0078125
141
12.0
290
     0
  0
SCALE
  5
293
102
{ACAD_REACTORS
330
280
102
}
330
280
100
AcDbScale
 70
     0
300
1/64" = 1'-0"
140
0.015625
141
12.0
290
     0
  0
SCALE
  5
294
102
{ACAD_REACTORS
330
280
102
}
330
280
100
AcDbScale
 70
     0
300
1/32" = 1'-0"
140
0.03125
141
12.0
290
     0
  0
SCALE
  5
295
102
{ACAD_REACTORS
330
280
102
}
330
280
100
AcDbScale
 70
     0
300
1/16" = 1'-0"
140
0.0625
141
12.0
290
     0
  0
SCALE
  5
296
102
{ACAD_REACTORS
330
280
102
}
330
280
100
AcDbScale
 70
     0
300
3/32" = 1'-0"
140
0.09375
141
12.0
290
     0
  0
SCALE
  5
297
102
{ACAD_REACTORS
330
280
102
}
330
280
100
AcDbScale
 70
     0
300
1/8" = 1'-0"
140
0.125
141
12.0
290
     0
  0
SCALE
  5
298
102
{ACAD_REACTORS
330
280
102
}
330
280
100
AcDbScale
 70
     0
300
3/16" = 1'-0"
140
0.1875
141
12.0
290
     0
  0
SCALE
  5
299
102
{ACAD_REACTORS
330
280
102
}
330
280
100
AcDbScale
 70
     0
300
1/4" = 1'-0"
140
0.25
141
12.0
290
     0
  0
SCALE
  5
29A
102
{ACAD_REACTORS
330
280
102
}
330
280
100
AcDbScale
 70
     0
300
3/8" = 1'-0"
140
0.375
141
12.0
290
     0
  0
SCALE
  5
29B
102
{ACAD_REACTORS
330
280
102
}
330
280
100
AcDbScale
 70
     0
300
1/2" = 1'-0"
140
0.5
141
12.0
290
     0
  0
SCALE
  5
29C
102
{ACAD_REACTORS
330
280
102
}
330
280
100
AcDbScale
 70
     0
300
3/4" = 1'-0"
140
0.75
141
12.0
290
     0
  0
SCALE
  5
29D
102
{ACAD_REACTORS
330
280
102
}
330
280
100
AcDbScale
 70
     0
300
1" = 1'-0"
140
1.0
141
12.0
290
     0
  0
SCALE
  5
29E
102
{ACAD_REACTORS
330
280
102
}
330
280
100
AcDbScale
 70
     0
300
1-1/2" = 1'-0"
140
1.5
141
12.0
290
     0
  0
SCALE
  5
29F
102
{ACAD_REACTORS
330
280
102
}
330
280
100
AcDbScale
 70
     0
300
3" = 1'-0"
140
3.0
141
12.0
290
     0
  0
SCALE
  5
2A0
102
{ACAD_REACTORS
330
280
102
}
330
280
100
AcDbScale
 70
     0
300
6" = 1'-0"
140
6.0
141
12.0
290
     0
  0
SCALE
  5
2A1
102
{ACAD_REACTORS
330
280
102
}
330
280
100
AcDbScale
 70
     0
300
1'-0" = 1'-0"
140
12.0
141
12.0
290
     0
  0
TABLESTYLE
  5
250
102
{ACAD_XDICTIONARY
360
2D6
102
}
102
{ACAD_REACTORS
330
24F
102
}
330
24F
100
AcDbTableStyle
  3
Standard
 70
     0
 71
     0
 40
0.06
 41
0.06
280
     0
281
     0
  7
Standard
140
0.18
170
     2
 62
     0
 63
     7
283
     0
274
    -2
284
     1
 64
     0
275
    -2
285
     1
 65
     0
276
    -2
286
     1
 66
     0
277
    -2
287
     1
 67
     0
278
    -2
288
     1
 68
     0
279
    -2
289
     1
 69
     0
  7
Standard
140
0.25
170
     5
 62
     0
 63
     7
283
     0
274
    -2
284
     1
 64
     0
275
    -2
285
     1
 65
     0
276
    -2
286
     1
 66
     0
277
    -2
287
     1
 67
     0
278
    -2
288
     1
 68
     0
279
    -2
289
     1
 69
     0
  7
Standard
140
0.18
170
     5
 62
     0
 63
     7
283
     0
274
    -2
284
     1
 64
     0
275
    -2
285
     1
 65
     0
276
    -2
286
     1
 66
     0
277
    -2
287
     1
 67
     0
278
    -2
288
     1
 68
     0
279
    -2
289
     1
 69
     0
  0
VISUALSTYLE
  5
275
102
{ACAD_REACTORS
330
26F
102
}
330
26F
100
AcDbVisualStyle
  2
2dWireframe
 70
     4
 71
     0
 72
     2
 73
     0
 90
        0
 40
-0.6
 41
-30.0
 62
     5
 63
     7
421
 16777215
 74
     1
 91
        4
 64
     7
 65
   257
 75
     1
175
     1
 42
1.0
 92
        0
 66
   257
 43
1.0
 76
     1
 77
     6
 78
     2
 67
     7
 79
     5
170
     0
171
     0
290
     0
174
     0
 93
        1
 44
0.0
173
     0
291
     0
 45
0.0
1001
ACAD
1000
AcDbSavedByObjectVersion
1070
     0
  0
VISUALSTYLE
  5
277
102
{ACAD_REACTORS
330
26F
102
}
330
26F
100
AcDbVisualStyle
  2
3D Hidden
 70
     6
 71
     1
 72
     2
 73
     2
 90
        0
 40
-0.6
 41
-30.0
 62
     5
 63
     7
421
 16777215
 74
     2
 91
        2
 64
     7
 65
   257
 75
     2
175
     1
 42
40.0
 92
        0
 66
   257
 43
1.0
 76
     1
 77
     6
 78
     2
 67
     7
 79
     3
170
     0
171
     0
290
     0
174
     0
 93
        1
 44
0.0
173
     0
291
     0
 45
0.0
1001
ACAD
1000
AcDbSavedByObjectVersion
1070
     0
  0
VISUALSTYLE
  5
276
102
{ACAD_REACTORS
330
26F
102
}
330
26F
100
AcDbVisualStyle
  2
3dWireframe
 70
     5
 71
     0
 72
     2
 73
     0
 90
        0
 40
-0.6
 41
-30.0
 62
     5
 63
     7
421
 16777215
 74
     1
 91
        4
 64
     7
 65
   257
 75
     1
175
     1
 42
1.0
 92
        0
 66
   257
 43
1.0
 76
     1
 77
     6
 78
     2
 67
     7
 79
     5
170
     0
171
     0
290
     0
174
     0
 93
        1
 44
0.0
173
     0
291
     0
 45
0.0
1001
ACAD
1000
AcDbSavedByObjectVersion
1070
     0
  0
VISUALSTYLE
  5
274
102
{ACAD_REACTORS
330
26F
102
}
330
26F
100
AcDbVisualStyle
  2
Basic
 70
     7
 71
     1
 72
     0
 73
     1
 90
        0
 40
-0.6
 41
-30.0
 62
     5
 63
     7
421
 16777215
 74
     0
 91
        4
 64
     7
 65
   257
 75
     1
175
     1
 42
1.0
 92
        8
 66
     7
 43
1.0
 76
     1
 77
     6
 78
     2
 67
     7
 79
     5
170
     0
171
     0
290
     0
174
     0
 93
        1
 44
0.0
173
     0
291
     1
 45
0.0
1001
ACAD
1000
AcDbSavedByObjectVersion
1070
     0
  0
VISUALSTYLE
  5
27B
102
{ACAD_REACTORS
330
26F
102
}
330
26F
100
AcDbVisualStyle
  2
Brighten
 70
    12
 71
     2
 72
     2
 73
     0
 90
        0
 40
-0.6
 41
-30.0
 62
     5
 63
     7
421
 16777215
 74
     1
 91
        4
 64
     7
 65
   257
 75
     1
175
     1
 42
1.0
 92
        8
 66
     7
 43
1.0
 76
     1
 77
     6
 78
     2
 67
     7
 79
     5
170
     0
171
     0
290
     0
174
     0
 93
        1
 44
50.0
173
     0
291
     1
 45
0.0
1001
ACAD
1000
AcDbSavedByObjectVersion
1070
     0
  0
VISUALSTYLE
  5
27F
102
{ACAD_REACTORS
330
26F
102
}
330
26F
100
AcDbVisualStyle
  2
ColorChange
 70
    16
 71
     2
 72
     2
 73
     3
 90
        0
 40
-0.6
 41
-30.0
 62
     5
 63
     8
421
  8421504
 74
     1
 91
        4
 64
     7
 65
   257
 75
     1
175
     1
 42
1.0
 92
        8
 66
     8
424
  8421504
 43
1.0
 76
     1
 77
     6
 78
     2
 67
     7
 79
     5
170
     0
171
     0
290
     0
174
     0
 93
        1
 44
0.0
173
     0
291
     1
 45
0.0
1001
ACAD
1000
AcDbSavedByObjectVersion
1070
     0
  0
VISUALSTYLE
  5
278
102
{ACAD_REACTORS
330
26F
102
}
330
26F
100
AcDbVisualStyle
  2
Conceptual
 70
     9
 71
     3
 72
     2
 73
     0
 90
        0
 40
-0.6
 41
-30.0
 62
     5
 63
     7
421
 16777215
 74
     2
 91
        2
 64
     7
 65
   257
 75
     1
175
     1
 42
40.0
 92
        8
 66
     7
 43
1.0
 76
     1
 77
     6
 78
     2
 67
     7
 79
     3
170
     0
171
     0
290
     0
174
     0
 93
        1
 44
0.0
173
     0
291
     0
 45
0.0
1001
ACAD
1000
AcDbSavedByObjectVersion
1070
     0
  0
VISUALSTYLE
  5
27A
102
{ACAD_REACTORS
330
26F
102
}
330
26F
100
AcDbVisualStyle
  2
Dim
 70
    11
 71
     2
 72
     2
 73
     0
 90
        0
 40
-0.6
 41
-30.0
 62
     5
 63
     7
421
 16777215
 74
     1
 91
        4
 64
     7
 65
   257
 75
     1
175
     1
 42
1.0
 92
        8
 66
     7
 43
1.0
 76
     1
 77
     6
 78
     2
 67
     7
 79
     5
170
     0
171
     0
290
     0
174
     0
 93
        1
 44
-50.0
173
     0
291
     1
 45
0.0
1001
ACAD
1000
AcDbSavedByObjectVersion
1070
     0
  0
VISUALSTYLE
  5
27E
102
{ACAD_REACTORS
330
26F
102
}
330
26F
100
AcDbVisualStyle
  2
Facepattern
 70
    15
 71
     2
 72
     2
 73
     0
 90
        0
 40
-0.6
 41
-30.0
 62
     5
 63
     7
421
 16777215
 74
     1
 91
        4
 64
     7
 65
   257
 75
     1
175
     1
 42
1.0
 92
        8
 66
     7
 43
1.0
 76
     1
 77
     6
 78
     2
 67
     7
 79
     5
170
     0
171
     0
290
     0
174
     0
 93
        1
 44
0.0
173
     0
291
     1
 45
0.0
1001
ACAD
1000
AcDbSavedByObjectVersion
1070
     0
  0
VISUALSTYLE
  5
270
102
{ACAD_REACTORS
330
26F
102
}
330
26F
100
AcDbVisualStyle
  2
Flat
 70
     0
 71
     2
 72
     1
 73
     1
 90
        2
 40
-0.6
 41
30.0
 62
     5
 63
     7
421
 16777215
 74
     0
 91
        4
 64
     7
 65
   257
 75
     1
175
     1
 42
1.0
 92
        8
 66
     7
 43
1.0
 76
     1
 77
     6
 78
     2
 67
     7
 79
     5
170
     0
171
     0
290
     0
174
     0
 93
       13
 44
0.0
173
     0
291
     1
 45
0.0
1001
ACAD
1000
AcDbSavedByObjectVersion
1070
     0
  0
VISUALSTYLE
  5
271
102
{ACAD_REACTORS
330
26F
102
}
330
26F
100
AcDbVisualStyle
  2
FlatWithEdges
 70
     1
 71
     2
 72
     1
 73
     1
 90
        2
 40
-0.6
 41
30.0
 62
     5
 63
     7
421
 16777215
 74
     1
 91
        4
 64
     7
 65
   257
 75
     1
175
     1
 42
1.0
 92
        0
 66
   257
 43
1.0
 76
     1
 77
     6
 78
     2
 67
     7
 79
     5
170
     0
171
     0
290
     0
174
     0
 93
       13
 44
0.0
173
     0
291
     1
 45
0.0
1001
ACAD
1000
AcDbSavedByObjectVersion
1070
     0
  0
VISUALSTYLE
  5
272
102
{ACAD_REACTORS
330
26F
102
}
330
26F
100
AcDbVisualStyle
  2
Gouraud
 70
     2
 71
     2
 72
     2
 73
     1
 90
        2
 40
-0.6
 41
30.0
 62
     5
 63
     7
421
 16777215
 74
     0
 91
        4
 64
     7
 65
   257
 75
     1
175
     1
 42
1.0
 92
        0
 66
     7
 43
1.0
 76
     1
 77
     6
 78
     2
 67
     7
 79
     5
170
     0
171
     0
290
     0
174
     0
 93
       13
 44
0.0
173
     0
291
     1
 45
0.0
1001
ACAD
1000
AcDbSavedByObjectVersion
1070
     0
  0
VISUALSTYLE
  5
273
102
{ACAD_REACTORS
330
26F
102
}
330
26F
100
AcDbVisualStyle
  2
GouraudWithEdges
 70
     3
 71
     2
 72
     2
 73
     1
 90
        2
 40
-0.6
 41
30.0
 62
     5
 63
     7
421
 16777215
 74
     1
 91
        4
 64
     7
 65
   257
 75
     1
175
     1
 42
1.0
 92
        0
 66
   257
 43
1.0
 76
     1
 77
     6
 78
     2
 67
     7
 79
     5
170
     0
171
     0
290
     0
174
     0
 93
       13
 44
0.0
173
     0
291
     1
 45
0.0
1001
ACAD
1000
AcDbSavedByObjectVersion
1070
     0
  0
VISUALSTYLE
  5
27D
102
{ACAD_REACTORS
330
26F
102
}
330
26F
100
AcDbVisualStyle
  2
Linepattern
 70
    14
 71
     2
 72
     2
 73
     0
 90
        0
 40
-0.6
 41
-30.0
 62
     5
 63
     7
421
 16777215
 74
     1
 91
        4
 64
     7
 65
   257
 75
     7
175
     7
 42
1.0
 92
        8
 66
     7
 43
1.0
 76
     1
 77
     6
 78
     2
 67
     7
 79
     5
170
     0
171
     0
290
     0
174
     0
 93
        1
 44
0.0
173
     0
291
     1
 45
0.0
1001
ACAD
1000
AcDbSavedByObjectVersion
1070
     0
  0
VISUALSTYLE
  5
279
102
{ACAD_REACTORS
330
26F
102
}
330
26F
100
AcDbVisualStyle
  2
Realistic
 70
     8
 71
     2
 72
     2
 73
     0
 90
        0
 40
-0.6
 41
-30.0
 62
     5
 63
     7
421
 16777215
 74
     1
 91
        0
 64
     7
 65
   257
 75
     1
175
     1
 42
1.0
 92
        8
 66
     8
424
  7895160
 43
1.0
 76
     1
 77
     6
 78
     2
 67
     7
 79
     5
170
     0
171
     0
290
     0
174
     0
 93
       13
 44
0.0
173
     0
291
     0
 45
0.0
1001
ACAD
1000
AcDbSavedByObjectVersion
1070
     0
  0
VISUALSTYLE
  5
27C
102
{ACAD_REACTORS
330
26F
102
}
330
26F
100
AcDbVisualStyle
  2
Thicken
 70
    13
 71
     2
 72
     2
 73
     0
 90
        0
 40
-0.6
 41
-30.0
 62
     5
 63
     7
421
 16777215
 74
     1
 91
        4
 64
     7
 65
   257
 75
     1
175
     1
 42
1.0
 92
       12
 66
     7
 43
1.0
 76
     1
 77
     6
 78
     2
 67
     7
 79
     5
170
     0
171
     0
290
     0
174
     0
 93
        1
 44
0.0
173
     0
291
     1
 45
0.0
1001
ACAD
1000
AcDbSavedByObjectVersion
1070
     0
  0
DICTIONARYVAR
  5
2D5
102
{ACAD_REACTORS
330
254
102
}
330
254
100
DictionaryVariables
280
     0
  1
1:1
  0
DICTIONARYVAR
  5
2D4
102
{ACAD_REACTORS
330
254
102
}
330
254
100
DictionaryVariables
280
     0
  1
STANDARD
  0
DICTIONARYVAR
  5
255
102
{ACAD_REACTORS
330
254
102
}
330
254
100
DictionaryVariables
280
     0
  1
STANDARD
  0
DICTIONARY
  5
260
330
25F
100
AcDbDictionary
280
     1
281
     1
  3
ACAD_XREC_ROUNDTRIP
360
2DB
  3
BUMPTILE
360
262
  3
DIFFUSETILE
360
261
  3
OPACITYTILE
360
265
  3
REFLECTIONTILE
360
264
  3
REFRACTIONTILE
360
266
  3
SPECULARTILE
360
263
  0
DICTIONARY
  5
258
330
257
100
AcDbDictionary
280
     1
281
     1
  3
ACAD_XREC_ROUNDTRIP
360
2DA
  3
BUMPTILE
360
25A
  3
DIFFUSETILE
360
259
  3
OPACITYTILE
360
25D
  3
REFLECTIONTILE
360
25C
  3
REFRACTIONTILE
360
25E
  3
SPECULARTILE
360
25B
  0
DICTIONARY
  5
268
330
267
100
AcDbDictionary
280
     1
281
     1
  3
ACAD_XREC_ROUNDTRIP
360
2DC
  3
BUMPTILE
360
26A
  3
DIFFUSETILE
360
269
  3
OPACITYTILE
360
26D
  3
REFLECTIONTILE
360
26C
  3
REFRACTIONTILE
360
26E
  3
SPECULARTILE
360
26B
  0
DICTIONARY
  5
2D6
330
250
100
AcDbDictionary
280
     1
281
     1
  3
ACAD_ROUNDTRIP_2008_TABLESTYLE_CELLSTYLEMAP
360
2D7
  3
ACAD_XREC_ROUNDTRIP
360
2D9
  0
XRECORD
  5
2DB
102
{ACAD_REACTORS
330
260
102
}
330
260
100
AcDbXrecord
280
     1
102
MATERIAL
148
0.0
149
0.0
149
0.0
 93
        0
 94
      127
282
     0
 72
     0
 77
     0
171
     0
175
     0
179
     0
273
     0
  0
XRECORD
  5
262
102
{ACAD_REACTORS
330
260
102
}
330
260
100
AcDbXrecord
280
     1
270
     1
271
     1
  0
XRECORD
  5
261
102
{ACAD_REACTORS
330
260
102
}
330
260
100
AcDbXrecord
280
     1
270
     1
271
     1
  0
XRECORD
  5
265
102
{ACAD_REACTORS
330
260
102
}
330
260
100
AcDbXrecord
280
     1
270
     1
271
     1
  0
XRECORD
  5
264
102
{ACAD_REACTORS
330
260
102
}
330
260
100
AcDbXrecord
280
     1
270
     1
271
     1
  0
XRECORD
  5
266
102
{ACAD_REACTORS
330
260
102
}
330
260
100
AcDbXrecord
280
     1
270
     1
271
     1
  0
XRECORD
  5
263
102
{ACAD_REACTORS
330
260
102
}
330
260
100
AcDbXrecord
280
     1
270
     1
271
     1
  0
XRECORD
  5
2DA
102
{ACAD_REACTORS
330
258
102
}
330
258
100
AcDbXrecord
280
     1
102
MATERIAL
148
0.0
149
0.0
149
0.0
 93
        0
 94
      127
282
     0
 72
     0
 77
     0
171
     0
175
     0
179
     0
273
     0
  0
XRECORD
  5
25A
102
{ACAD_REACTORS
330
258
102
}
330
258
100
AcDbXrecord
280
     1
270
     1
271
     1
  0
XRECORD
  5
259
102
{ACAD_REACTORS
330
258
102
}
330
258
100
AcDbXrecord
280
     1
270
     1
271
     1
  0
XRECORD
  5
25D
102
{ACAD_REACTORS
330
258
102
}
330
258
100
AcDbXrecord
280
     1
270
     1
271
     1
  0
XRECORD
  5
25C
102
{ACAD_REACTORS
330
258
102
}
330
258
100
AcDbXrecord
280
     1
270
     1
271
     1
  0
XRECORD
  5
25E
102
{ACAD_REACTORS
330
258
102
}
330
258
100
AcDbXrecord
280
     1
270
     1
271
     1
  0
XRECORD
  5
25B
102
{ACAD_REACTORS
330
258
102
}
330
258
100
AcDbXrecord
280
     1
270
     1
271
     1
  0
XRECORD
  5
2DC
102
{ACAD_REACTORS
330
268
102
}
330
268
100
AcDbXrecord
280
     1
102
MATERIAL
148
0.0
149
0.0
149
0.0
 93
        0
 94
      127
282
     0
 72
     0
 77
     0
171
     0
175
     0
179
     0
273
     0
  0
XRECORD
  5
26A
102
{ACAD_REACTORS
330
268
102
}
330
268
100
AcDbXrecord
280
     1
270
     1
271
     1
  0
XRECORD
  5
269
102
{ACAD_REACTORS
330
268
102
}
330
268
100
AcDbXrecord
280
     1
270
     1
271
     1
  0
XRECORD
  5
26D
102
{ACAD_REACTORS
330
268
102
}
330
268
100
AcDbXrecord
280
     1
270
     1
271
     1
  0
XRECORD
  5
26C
102
{ACAD_REACTORS
330
268
102
}
330
268
100
AcDbXrecord
280
     1
270
     1
271
     1
  0
XRECORD
  5
26E
102
{ACAD_REACTORS
330
268
102
}
330
268
100
AcDbXrecord
280
     1
270
     1
271
     1
  0
XRECORD
  5
26B
102
{ACAD_REACTORS
330
268
102
}
330
268
100
AcDbXrecord
280
     1
270
     1
271
     1
  0
CELLSTYLEMAP
  5
2D7
102
{ACAD_REACTORS
330
2D6
102
}
330
2D6
100
AcDbCellStyleMap
 90
        3
300
CELLSTYLE
  1
TABLEFORMAT_BEGIN
 90
        5
170
     1
 91
        0
 92
    32768
 62
   257
 93
        1
300
CONTENTFORMAT
  1
CONTENTFORMAT_BEGIN
 90
        0
 91
        0
 92
        4
 93
        0
300

 40
0.0
140
1.0
 94
        5
 62
     0
340
17
144
0.25
309
CONTENTFORMAT_END
171
     0
 94
        6
 95
        1
302
GRIDFORMAT
  1
GRIDFORMAT_BEGIN
 90
        0
 91
        1
 62
     0
 92
       -2
340
0
 93
        0
 40
0.045
309
GRIDFORMAT_END
 95
        2
302
GRIDFORMAT
  1
GRIDFORMAT_BEGIN
 90
        0
 91
        1
 62
     0
 92
       -2
340
0
 93
        0
 40
0.045
309
GRIDFORMAT_END
 95
        4
302
GRIDFORMAT
  1
GRIDFORMAT_BEGIN
 90
        0
 91
        1
 62
     0
 92
       -2
340
0
 93
        0
 40
0.045
309
GRIDFORMAT_END
 95
        8
302
GRIDFORMAT
  1
GRIDFORMAT_BEGIN
 90
        0
 91
        1
 62
     0
 92
       -2
340
0
 93
        0
 40
0.045
309
GRIDFORMAT_END
 95
       16
302
GRIDFORMAT
  1
GRIDFORMAT_BEGIN
 90
        0
 91
        1
 62
     0
 92
       -2
340
0
 93
        0
 40
0.045
309
GRIDFORMAT_END
 95
       32
302
GRIDFORMAT
  1
GRIDFORMAT_BEGIN
 90
        0
 91
        1
 62
     0
 92
       -2
340
0
 93
        0
 40
0.045
309
GRIDFORMAT_END
309
TABLEFORMAT_END
  1
CELLSTYLE_BEGIN
 90
        1
 91
        1
300
_TITLE
309
CELLSTYLE_END
300
CELLSTYLE
  1
TABLEFORMAT_BEGIN
 90
        5
170
     1
 91
        0
 92
        0
 62
   257
 93
        1
300
CONTENTFORMAT
  1
CONTENTFORMAT_BEGIN
 90
        0
 91
        0
 92
        4
 93
        0
300

 40
0.0
140
1.0
 94
        5
 62
     0
340
17
144
0.18
309
CONTENTFORMAT_END
171
     0
 94
        6
 95
        1
302
GRIDFORMAT
  1
GRIDFORMAT_BEGIN
 90
        0
 91
        1
 62
     0
 92
       -2
340
0
 93
        0
 40
0.045
309
GRIDFORMAT_END
 95
        2
302
GRIDFORMAT
  1
GRIDFORMAT_BEGIN
 90
        0
 91
        1
 62
     0
 92
       -2
340
0
 93
        0
 40
0.045
309
GRIDFORMAT_END
 95
        4
302
GRIDFORMAT
  1
GRIDFORMAT_BEGIN
 90
        0
 91
        1
 62
     0
 92
       -2
340
0
 93
        0
 40
0.045
309
GRIDFORMAT_END
 95
        8
302
GRIDFORMAT
  1
GRIDFORMAT_BEGIN
 90
        0
 91
        1
 62
     0
 92
       -2
340
0
 93
        0
 40
0.045
309
GRIDFORMAT_END
 95
       16
302
GRIDFORMAT
  1
GRIDFORMAT_BEGIN
 90
        0
 91
        1
 62
     0
 92
       -2
340
0
 93
        0
 40
0.045
309
GRIDFORMAT_END
 95
       32
302
GRIDFORMAT
  1
GRIDFORMAT_BEGIN
 90
        0
 91
        1
 62
     0
 92
       -2
340
0
 93
        0
 40
0.045
309
GRIDFORMAT_END
309
TABLEFORMAT_END
  1
CELLSTYLE_BEGIN
 90
        2
 91
        1
300
_HEADER
309
CELLSTYLE_END
300
CELLSTYLE
  1
TABLEFORMAT_BEGIN
 90
        5
170
     1
 91
        0
 92
        0
 62
   257
 93
        1
300
CONTENTFORMAT
  1
CONTENTFORMAT_BEGIN
 90
        0
 91
        0
 92
        4
 93
        0
300

 40
0.0
140
1.0
 94
        2
 62
     0
340
17
144
0.18
309
CONTENTFORMAT_END
171
     0
 94
        6
 95
        1
302
GRIDFORMAT
  1
GRIDFORMAT_BEGIN
 90
        0
 91
        1
 62
     0
 92
       -2
340
0
 93
        0
 40
0.045
309
GRIDFORMAT_END
 95
        2
302
GRIDFORMAT
  1
GRIDFORMAT_BEGIN
 90
        0
 91
        1
 62
     0
 92
       -2
340
0
 93
        0
 40
0.045
309
GRIDFORMAT_END
 95
        4
302
GRIDFORMAT
  1
GRIDFORMAT_BEGIN
 90
        0
 91
        1
 62
     0
 92
       -2
340
0
 93
        0
 40
0.045
309
GRIDFORMAT_END
 95
        8
302
GRIDFORMAT
  1
GRIDFORMAT_BEGIN
 90
        0
 91
        1
 62
     0
 92
       -2
340
0
 93
        0
 40
0.045
309
GRIDFORMAT_END
 95
       16
302
GRIDFORMAT
  1
GRIDFORMAT_BEGIN
 90
        0
 91
        1
 62
     0
 92
       -2
340
0
 93
        0
 40
0.045
309
GRIDFORMAT_END
 95
       32
302
GRIDFORMAT
  1
GRIDFORMAT_BEGIN
 90
        0
 91
        1
 62
     0
 92
       -2
340
0
 93
        0
 40
0.045
309
GRIDFORMAT_END
309
TABLEFORMAT_END
  1
CELLSTYLE_BEGIN
 90
        3
 91
        2
300
_DATA
309
CELLSTYLE_END
  0
XRECORD
  5
2D9
102
{ACAD_REACTORS
330
2D6
102
}
330
2D6
100
AcDbXrecord
280
     1
102
ACAD_ROUNDTRIP_PRE2007_TABLESTYLE
 90
        4
 91
        0
  1

 92
        4
 93
        0
  2

 94
        4
 95
        0
  3

  0
ENDSEC
  0
EOF
